  0
SECTION
  2
HEADER
  9
$ACADVER
  1
AC1032
  9
$ACADMAINTVER
 90
      197
  9
$DWGCODEPAGE
  3
ANSI_932
  9
$LASTSAVEDBY
  1
hiro-ichiyama
  9
$REQUIREDVERSIONS
160
                 0
  9
$INSBASE
 10
0.0
 20
0.0
 30
0.0
  9
$EXTMIN
 10
33.21607020415422
 20
27.50035294226882
 30
-0.0000000349181948
  9
$EXTMAX
 10
793.6254795757941
 20
574.6841904908465
 30
0.0000000814935747
  9
$LIMMIN
 10
0.0
 20
0.0
  9
$LIMMAX
 10
594.0
 20
841.0
  9
$ORTHOMODE
 70
     0
  9
$REGENMODE
 70
     1
  9
$FILLMODE
 70
     1
  9
$QTEXTMODE
 70
     0
  9
$MIRRTEXT
 70
     0
  9
$LTSCALE
 40
20.0
  9
$ATTMODE
 70
     1
  9
$TEXTSIZE
 40
4.0
  9
$TRACEWID
 40
0.05
  9
$TEXTSTYLE
  7
STANDARD
  9
$CLAYER
  8
0
  9
$CELTYPE
  6
CONTINUOUS
  9
$CECOLOR
 62
   256
  9
$CELTSCALE
 40
1.0
  9
$DISPSILH
 70
     0
  9
$DIMSCALE
 40
1.0
  9
$DIMASZ
 40
1.0
  9
$DIMEXO
 40
0.8
  9
$DIMDLI
 40
0.38
  9
$DIMRND
 40
0.0
  9
$DIMDLE
 40
0.0
  9
$DIMEXE
 40
1.0
  9
$DIMTP
 40
0.0
  9
$DIMTM
 40
0.0
  9
$DIMTXT
 40
3.1
  9
$DIMCEN
 40
0.09
  9
$DIMTSZ
 40
0.0
  9
$DIMTOL
 70
     0
  9
$DIMLIM
 70
     0
  9
$DIMTIH
 70
     0
  9
$DIMTOH
 70
     0
  9
$DIMSE1
 70
     0
  9
$DIMSE2
 70
     0
  9
$DIMTAD
 70
     1
  9
$DIMZIN
 70
     0
  9
$DIMBLK
  1

  9
$DIMASO
 70
     1
  9
$DIMSHO
 70
     1
  9
$DIMPOST
  1

  9
$DIMAPOST
  1

  9
$DIMALT
 70
     0
  9
$DIMALTD
 70
     2
  9
$DIMALTF
 40
25.4
  9
$DIMLFAC
 40
1.0
  9
$DIMTOFL
 70
     0
  9
$DIMTVP
 40
0.5
  9
$DIMTIX
 70
     0
  9
$DIMSOXD
 70
     0
  9
$DIMSAH
 70
     0
  9
$DIMBLK1
  1

  9
$DIMBLK2
  1

  9
$DIMSTYLE
  2
Standard
  9
$DIMCLRD
 70
     0
  9
$DIMCLRE
 70
     0
  9
$DIMCLRT
 70
     0
  9
$DIMTFAC
 40
1.0
  9
$DIMGAP
 40
0.09
  9
$DIMJUST
 70
     0
  9
$DIMSD1
 70
     0
  9
$DIMSD2
 70
     0
  9
$DIMTOLJ
 70
     1
  9
$DIMTZIN
 70
     0
  9
$DIMALTZ
 70
     0
  9
$DIMALTTZ
 70
     0
  9
$DIMUPT
 70
     0
  9
$DIMDEC
 70
     4
  9
$DIMTDEC
 70
     4
  9
$DIMALTU
 70
     2
  9
$DIMALTTD
 70
     2
  9
$DIMTXSTY
  7
STANDARD
  9
$DIMAUNIT
 70
     0
  9
$DIMADEC
 70
     0
  9
$DIMALTRND
 40
0.0
  9
$DIMAZIN
 70
     0
  9
$DIMDSEP
 70
    46
  9
$DIMATFIT
 70
     3
  9
$DIMFRAC
 70
     0
  9
$DIMLDRBLK
  1

  9
$DIMLUNIT
 70
     2
  9
$DIMLWD
 70
    -2
  9
$DIMLWE
 70
    -2
  9
$DIMTMOVE
 70
     0
  9
$DIMFXL
 40
1.0
  9
$DIMFXLON
 70
     0
  9
$DIMJOGANG
 40
0.7853981633974483
  9
$DIMTFILL
 70
     0
  9
$DIMTFILLCLR
 70
     0
  9
$DIMARCSYM
 70
     0
  9
$DIMLTYPE
  6

  9
$DIMLTEX1
  6

  9
$DIMLTEX2
  6

  9
$DIMTXTDIRECTION
 70
     0
  9
$LUNITS
 70
     2
  9
$LUPREC
 70
     4
  9
$SKETCHINC
 40
0.1
  9
$FILLETRAD
 40
0.0
  9
$AUNITS
 70
     0
  9
$AUPREC
 70
     0
  9
$MENU
  1
.
  9
$ELEVATION
 40
0.0
  9
$PELEVATION
 40
0.0
  9
$THICKNESS
 40
0.0
  9
$LIMCHECK
 70
     0
  9
$CHAMFERA
 40
0.0
  9
$CHAMFERB
 40
0.0
  9
$CHAMFERC
 40
0.0
  9
$CHAMFERD
 40
0.0
  9
$SKPOLY
 70
     0
  9
$TDCREATE
 40
2459010.403981482
  9
$TDUCREATE
 40
2459010.028981482
  9
$TDUPDATE
 40
2459991.706192130
  9
$TDUUPDATE
 40
2459991.331192130
  9
$TDINDWG
 40
0.0024768519
  9
$TDUSRTIMER
 40
0.0024768519
  9
$USRTIMER
 70
     1
  9
$ANGBASE
 50
0.0
  9
$ANGDIR
 70
     0
  9
$PDMODE
 70
     0
  9
$PDSIZE
 40
0.0
  9
$PLINEWID
 40
0.0
  9
$SPLFRAME
 70
     0
  9
$SPLINETYPE
 70
     6
  9
$SPLINESEGS
 70
     8
  9
$HANDSEED
  5
500
  9
$SURFTAB1
 70
     6
  9
$SURFTAB2
 70
     6
  9
$SURFTYPE
 70
     6
  9
$SURFU
 70
     6
  9
$SURFV
 70
     6
  9
$UCSBASE
  2

  9
$UCSNAME
  2

  9
$UCSORG
 10
0.0
 20
0.0
 30
0.0
  9
$UCSXDIR
 10
1.0
 20
0.0
 30
0.0
  9
$UCSYDIR
 10
0.0
 20
1.0
 30
0.0
  9
$UCSORTHOREF
  2

  9
$UCSORTHOVIEW
 70
     0
  9
$UCSORGTOP
 10
0.0
 20
0.0
 30
0.0
  9
$UCSORGBOTTOM
 10
0.0
 20
0.0
 30
0.0
  9
$UCSORGLEFT
 10
0.0
 20
0.0
 30
0.0
  9
$UCSORGRIGHT
 10
0.0
 20
0.0
 30
0.0
  9
$UCSORGFRONT
 10
0.0
 20
0.0
 30
0.0
  9
$UCSORGBACK
 10
0.0
 20
0.0
 30
0.0
  9
$PUCSBASE
  2

  9
$PUCSNAME
  2

  9
$PUCSORG
 10
0.0
 20
0.0
 30
0.0
  9
$PUCSXDIR
 10
1.0
 20
0.0
 30
0.0
  9
$PUCSYDIR
 10
0.0
 20
1.0
 30
0.0
  9
$PUCSORTHOREF
  2

  9
$PUCSORTHOVIEW
 70
     0
  9
$PUCSORGTOP
 10
0.0
 20
0.0
 30
0.0
  9
$PUCSORGBOTTOM
 10
0.0
 20
0.0
 30
0.0
  9
$PUCSORGLEFT
 10
0.0
 20
0.0
 30
0.0
  9
$PUCSORGRIGHT
 10
0.0
 20
0.0
 30
0.0
  9
$PUCSORGFRONT
 10
0.0
 20
0.0
 30
0.0
  9
$PUCSORGBACK
 10
0.0
 20
0.0
 30
0.0
  9
$USERI1
 70
     0
  9
$USERI2
 70
     0
  9
$USERI3
 70
     0
  9
$USERI4
 70
     0
  9
$USERI5
 70
     0
  9
$USERR1
 40
0.0
  9
$USERR2
 40
0.0
  9
$USERR3
 40
0.0
  9
$USERR4
 40
0.0
  9
$USERR5
 40
0.0
  9
$WORLDVIEW
 70
     1
  9
$SHADEDGE
 70
     3
  9
$SHADEDIF
 70
    70
  9
$TILEMODE
 70
     1
  9
$MAXACTVP
 70
    64
  9
$PINSBASE
 10
0.0
 20
0.0
 30
0.0
  9
$PLIMCHECK
 70
     0
  9
$PEXTMIN
 10
1.000000000000000E+20
 20
1.000000000000000E+20
 30
1.000000000000000E+20
  9
$PEXTMAX
 10
-1.000000000000000E+20
 20
-1.000000000000000E+20
 30
-1.000000000000000E+20
  9
$PLIMMIN
 10
0.0
 20
0.0
  9
$PLIMMAX
 10
12.0
 20
9.0
  9
$UNITMODE
 70
     0
  9
$VISRETAIN
 70
     1
  9
$PLINEGEN
 70
     0
  9
$PSLTSCALE
 70
     1
  9
$TREEDEPTH
 70
  3020
  9
$CMLSTYLE
  2
Standard
  9
$CMLJUST
 70
     0
  9
$CMLSCALE
 40
1.0
  9
$PROXYGRAPHICS
 70
     1
  9
$MEASUREMENT
 70
     1
  9
$CELWEIGHT
370
    -1
  9
$ENDCAPS
280
     0
  9
$JOINSTYLE
280
     0
  9
$LWDISPLAY
290
     0
  9
$INSUNITS
 70
     0
  9
$HYPERLINKBASE
  1

  9
$STYLESHEET
  1

  9
$XEDIT
290
     1
  9
$CEPSNTYPE
380
     0
  9
$PSTYLEMODE
290
     1
  9
$FINGERPRINTGUID
  2
{FA143636-0336-F242-A844-D38630AFEC12}
  9
$VERSIONGUID
  2
{F9E851EB-3608-5546-8904-96211C3ADB4C}
  9
$EXTNAMES
290
     1
  9
$PSVPSCALE
 40
0.0
  9
$OLESTARTUP
290
     0
  9
$SORTENTS
280
   127
  9
$INDEXCTL
280
     0
  9
$HIDETEXT
280
     0
  9
$XCLIPFRAME
280
     2
  9
$HALOGAP
280
     0
  9
$OBSCOLOR
 70
   257
  9
$OBSLTYPE
280
     0
  9
$INTERSECTIONDISPLAY
280
     0
  9
$INTERSECTIONCOLOR
 70
   257
  9
$DIMASSOC
280
     1
  9
$PROJECTNAME
  1

  9
$CAMERADISPLAY
290
     0
  9
$LENSLENGTH
 40
50.0
  9
$CAMERAHEIGHT
 40
0.0
  9
$STEPSPERSEC
 40
2.0
  9
$STEPSIZE
 40
6.0
  9
$3DDWFPREC
 40
2.0
  9
$PSOLWIDTH
 40
0.25
  9
$PSOLHEIGHT
 40
4.0
  9
$LOFTANG1
 40
1.570796326794896
  9
$LOFTANG2
 40
1.570796326794896
  9
$LOFTMAG1
 40
0.0
  9
$LOFTMAG2
 40
0.0
  9
$LOFTPARAM
 70
     7
  9
$LOFTNORMALS
280
     1
  9
$LATITUDE
 40
37.795
  9
$LONGITUDE
 40
-122.394
  9
$NORTHDIRECTION
 40
0.0
  9
$TIMEZONE
 70
 -8000
  9
$LIGHTGLYPHDISPLAY
280
     1
  9
$TILEMODELIGHTSYNCH
280
     1
  9
$CMATERIAL
347
11
  9
$SOLIDHIST
280
     0
  9
$SHOWHIST
280
     1
  9
$DWFFRAME
280
     2
  9
$DGNFRAME
280
     0
  9
$REALWORLDSCALE
290
     1
  9
$INTERFERECOLOR
 62
     1
  9
$INTERFEREOBJVS
345
33
  9
$INTERFEREVPVS
346
30
  9
$CSHADOW
280
     0
  9
$SHADOWPLANELOCATION
 40
0.0
  0
ENDSEC
  0
SECTION
  2
CLASSES
  0
CLASS
  1
ACDBDICTIONARYWDFLT
  2
AcDbDictionaryWithDefault
  3
ObjectDBX Classes
 90
        0
 91
        1
280
     0
281
     0
  0
CLASS
  1
MATERIAL
  2
AcDbMaterial
  3
ObjectDBX Classes
 90
     1153
 91
        3
280
     0
281
     0
  0
CLASS
  1
VISUALSTYLE
  2
AcDbVisualStyle
  3
ObjectDBX Classes
 90
     4095
 91
       24
280
     0
281
     0
  0
CLASS
  1
SCALE
  2
AcDbScale
  3
ObjectDBX Classes
 90
     1153
 91
       17
280
     0
281
     0
  0
CLASS
  1
TABLESTYLE
  2
AcDbTableStyle
  3
ObjectDBX Classes
 90
     4095
 91
        1
280
     0
281
     0
  0
CLASS
  1
MLEADERSTYLE
  2
AcDbMLeaderStyle
  3
ACDB_MLEADERSTYLE_CLASS
 90
     4095
 91
        1
280
     0
281
     0
  0
CLASS
  1
ACDBSECTIONVIEWSTYLE
  2
AcDbSectionViewStyle
  3
ObjectDBX Classes
 90
     1025
 91
        2
280
     0
281
     0
  0
CLASS
  1
ACDBDETAILVIEWSTYLE
  2
AcDbDetailViewStyle
  3
ObjectDBX Classes
 90
     1025
 91
        2
280
     0
281
     0
  0
CLASS
  1
DICTIONARYVAR
  2
AcDbDictionaryVar
  3
ObjectDBX Classes
 90
        0
 91
       17
280
     0
281
     0
  0
CLASS
  1
CELLSTYLEMAP
  2
AcDbCellStyleMap
  3
ObjectDBX Classes
 90
     1152
 91
        2
280
     0
281
     0
  0
ENDSEC
  0
SECTION
  2
TABLES
  0
TABLE
  2
VPORT
  5
8
330
0
100
AcDbSymbolTable
 70
     1
  0
VPORT
  5
83
330
8
100
AcDbSymbolTableRecord
100
AcDbViewportTableRecord
  2
*Active
 70
     0
 10
0.0
 20
0.0
 11
1.0
 21
1.0
 12
413.4207748899741
 22
301.0922717165577
 13
0.0
 23
0.0
 14
1.0
 24
1.0
 15
0.0
 25
0.0
 16
0.0
 26
0.0
 36
1.0
 17
0.0
 27
0.0
 37
0.0
 40
551.1585385477198
 41
2.295757575757575
 42
50.0
 43
0.0
 44
0.0
 50
0.0
 51
0.0
 71
     0
 72
   100
 73
     1
 74
     0
 75
     1
 76
     0
 77
     0
 78
     0
281
     0
 65
     1
110
0.0
120
0.0
130
0.0
111
1.0
121
0.0
131
0.0
112
0.0
122
1.0
132
0.0
 79
     0
146
0.0
348
2F
 60
     3
 61
     5
292
     1
282
     1
141
0.0
142
0.0
 63
   250
421
  3355443
1001
ACAD_NAV_VCDISPLAY
1070
     3
  0
ENDTAB
  0
TABLE
  2
LTYPE
  5
5
330
0
100
AcDbSymbolTable
 70
     4
  0
LTYPE
  5
5A
330
5
100
AcDbSymbolTableRecord
100
AcDbLinetypeTableRecord
  2
ByBlock
 70
     0
  3

 72
    65
 73
     0
 40
0.0
  0
LTYPE
  5
5B
330
5
100
AcDbSymbolTableRecord
100
AcDbLinetypeTableRecord
  2
ByLayer
 70
     0
  3

 72
    65
 73
     0
 40
0.0
  0
LTYPE
  5
5C
330
5
100
AcDbSymbolTableRecord
100
AcDbLinetypeTableRecord
  2
CONTINUOUS
 70
     0
  3
Solid line (NEC CAE2D for Win R13.1 : 2017.01.12)
 72
    65
 73
     0
 40
0.0
  0
LTYPE
  5
73
330
5
100
AcDbSymbolTableRecord
100
AcDbLinetypeTableRecord
  2
HIDDEN
 70
     0
  3
__ __ __ __ __ __ __ __ __ __ __ __ __ __
 72
    65
 73
     2
 40
0.375
 49
0.25
 74
     0
 49
-0.125
 74
     0
  0
LTYPE
  5
74
330
5
100
AcDbSymbolTableRecord
100
AcDbLinetypeTableRecord
  2
CENTER
 70
     0
  3
____ _ ____ _ ____ _ ____ _ ____ _ ____
 72
    65
 73
     4
 40
2.0
 49
1.25
 74
     0
 49
-0.25
 74
     0
 49
0.25
 74
     0
 49
-0.25
 74
     0
  0
ENDTAB
  0
TABLE
  2
LAYER
  5
2
330
0
100
AcDbSymbolTable
 70
     8
  0
LAYER
  5
54
102
{ACAD_XDICTIONARY
360
48F
102
}
330
2
100
AcDbSymbolTableRecord
100
AcDbLayerTableRecord
  2
0
 70
     0
 62
     7
  6
CONTINUOUS
370
    -3
390
F
347
21
348
0
  0
LAYER
  5
76
102
{ACAD_XDICTIONARY
360
491
102
}
330
2
100
AcDbSymbolTableRecord
100
AcDbLayerTableRecord
  2
LOUVER
 70
     0
 62
     4
  6
CONTINUOUS
370
    -3
390
F
347
21
348
0
  0
LAYER
  5
77
102
{ACAD_XDICTIONARY
360
493
102
}
330
2
100
AcDbSymbolTableRecord
100
AcDbLayerTableRecord
  2
UKEZAI
 70
     0
 62
     5
  6
CONTINUOUS
370
    -3
390
F
347
21
348
0
  0
LAYER
  5
78
102
{ACAD_XDICTIONARY
360
495
102
}
330
2
100
AcDbSymbolTableRecord
100
AcDbLayerTableRecord
  2
ANCHOR
 70
     0
 62
     2
  6
CONTINUOUS
370
    -3
390
F
347
21
348
0
  0
LAYER
  5
79
102
{ACAD_XDICTIONARY
360
497
102
}
330
2
100
AcDbSymbolTableRecord
100
AcDbLayerTableRecord
  2
KUTAI
 70
     0
 62
     6
  6
CONTINUOUS
370
    -3
390
F
347
21
348
0
  0
LAYER
  5
7A
102
{ACAD_XDICTIONARY
360
499
102
}
330
2
100
AcDbSymbolTableRecord
100
AcDbLayerTableRecord
  2
WASHER
 70
     0
 62
     2
  6
CONTINUOUS
370
    -3
390
F
347
21
348
0
  0
LAYER
  5
7B
102
{ACAD_XDICTIONARY
360
49B
102
}
330
2
100
AcDbSymbolTableRecord
100
AcDbLayerTableRecord
  2
COMMENT
 70
     0
 62
     3
  6
CONTINUOUS
370
    -3
390
F
347
21
348
0
  0
LAYER
  5
7C
102
{ACAD_XDICTIONARY
360
49D
102
}
330
2
100
AcDbSymbolTableRecord
100
AcDbLayerTableRecord
  2
WAKU
 70
     0
 62
     1
  6
CONTINUOUS
370
    -3
390
F
347
21
348
0
  0
ENDTAB
  0
TABLE
  2
STYLE
  5
3
330
0
100
AcDbSymbolTable
 70
     5
  0
STYLE
  5
55
330
3
100
AcDbSymbolTableRecord
100
AcDbTextStyleTableRecord
  2
STANDARD
 70
     0
 40
0.0
 41
1.0
 50
0.0
 71
     0
 42
4.0
  3
TXT
  4

  0
STYLE
  5
59
330
3
100
AcDbSymbolTableRecord
100
AcDbTextStyleTableRecord
  2
Annotative
 70
     0
 40
0.0
 41
1.0
 50
0.0
 71
     0
 42
0.2
  3
txt
  4

1001
AcadAnnotative
1000
AnnotativeData
1002
{
1070
     1
1070
     1
1002
}
  0
STYLE
  5
7E
330
3
100
AcDbSymbolTableRecord
100
AcDbTextStyleTableRecord
  2
ANKTATE
 70
     4
 40
0.0
 41
1.0
 50
0.0
 71
     0
 42
4.0
  3
TXT
  4

  0
STYLE
  5
7F
330
3
100
AcDbSymbolTableRecord
100
AcDbTextStyleTableRecord
  2
KNJYOKO
 70
     0
 40
0.0
 41
1.0
 50
0.0
 71
     0
 42
4.0
  3
TXT
  4
BIGFONT
  0
STYLE
  5
80
330
3
100
AcDbSymbolTableRecord
100
AcDbTextStyleTableRecord
  2
KNJTATE
 70
     4
 40
0.0
 41
1.0
 50
0.0
 71
     0
 42
4.0
  3
TXT
  4
BIGFONT
  0
ENDTAB
  0
TABLE
  2
VIEW
  5
6
330
0
100
AcDbSymbolTable
 70
     0
  0
ENDTAB
  0
TABLE
  2
UCS
  5
7
330
0
100
AcDbSymbolTable
 70
     0
  0
ENDTAB
  0
TABLE
  2
APPID
  5
9
330
0
100
AcDbSymbolTable
 70
     5
  0
APPID
  5
56
330
9
100
AcDbSymbolTableRecord
100
AcDbRegAppTableRecord
  2
ACAD
 70
     0
  0
APPID
  5
5D
330
9
100
AcDbSymbolTableRecord
100
AcDbRegAppTableRecord
  2
AcadAnnotative
 70
     0
  0
APPID
  5
48D
330
9
100
AcDbSymbolTableRecord
100
AcDbRegAppTableRecord
  2
ACAD_EXEMPT_FROM_CAD_STANDARDS
 70
     0
  0
APPID
  5
4A9
330
9
100
AcDbSymbolTableRecord
100
AcDbRegAppTableRecord
  2
ACAD_NAV_VCDISPLAY
 70
     0
  0
APPID
  5
4E2
330
9
100
AcDbSymbolTableRecord
100
AcDbRegAppTableRecord
  2
ACAD_MLEADERVER
 70
     0
  0
ENDTAB
  0
TABLE
  2
DIMSTYLE
  5
A
330
0
100
AcDbSymbolTable
 70
     2
100
AcDbDimStyleTable
 71
     0
  0
DIMSTYLE
105
57
330
A
100
AcDbSymbolTableRecord
100
AcDbDimStyleTableRecord
  2
Standard
 70
     0
340
55
  0
DIMSTYLE
105
58
330
A
100
AcDbSymbolTableRecord
100
AcDbDimStyleTableRecord
  2
Annotative
 70
     0
340
55
1001
AcadAnnotative
1000
AnnotativeData
1002
{
1070
     1
1070
     1
1002
}
  0
ENDTAB
  0
TABLE
  2
BLOCK_RECORD
  5
1
330
0
100
AcDbSymbolTable
 70
     1
  0
BLOCK_RECORD
  5
6F
330
1
100
AcDbSymbolTableRecord
100
AcDbBlockTableRecord
  2
*Model_Space
340
72
 70
     0
280
     1
281
     0
  0
BLOCK_RECORD
  5
6B
330
1
100
AcDbSymbolTableRecord
100
AcDbBlockTableRecord
  2
*Paper_Space
340
6E
 70
     0
280
     1
281
     0
  0
BLOCK_RECORD
  5
84
330
1
100
AcDbSymbolTableRecord
100
AcDbBlockTableRecord
  2
*X0
340
0
102
{BLKREFS
331
13A
102
}
 70
     0
280
     1
281
     0
  0
ENDTAB
  0
ENDSEC
  0
SECTION
  2
BLOCKS
  0
BLOCK
  5
70
330
6F
100
AcDbEntity
  8
0
100
AcDbBlockBegin
  2
*Model_Space
 70
     0
 10
0.0
 20
0.0
 30
0.0
  3
*Model_Space
  1

  0
ENDBLK
  5
71
330
6F
100
AcDbEntity
  8
0
100
AcDbBlockEnd
  0
BLOCK
  5
6C
330
6B
100
AcDbEntity
 67
     1
  8
0
100
AcDbBlockBegin
  2
*Paper_Space
 70
     0
 10
0.0
 20
0.0
 30
0.0
  3
*Paper_Space
  1

  0
ENDBLK
  5
6D
330
6B
100
AcDbEntity
 67
     1
  8
0
100
AcDbBlockEnd
  0
BLOCK
  5
85
330
84
100
AcDbEntity
  8
KUTAI
  6
ByBlock
 62
    12
100
AcDbBlockBegin
  2
*X0
 70
     1
 10
0.0
 20
0.0
 30
0.0
  3
*X0
  1

  0
LINE
  5
86
330
84
100
AcDbEntity
  8
KUTAI
  6
ByBlock
 62
     0
100
AcDbLine
 10
212.7273721234332
 20
57.3364496096256
 30
0.0
 11
214.3273721234316
 21
58.93644960962365
 31
0.0
  0
LINE
  5
87
330
84
100
AcDbEntity
  8
KUTAI
  6
ByBlock
 62
     0
100
AcDbLine
 10
213.0509278357716
 20
56.24579175751659
 30
0.0
 11
214.3908846518858
 21
57.5857485750747
 31
0.0
  0
LINE
  5
88
330
84
100
AcDbEntity
  8
KUTAI
  6
ByBlock
 62
     0
100
AcDbLine
 10
212.7273721234332
 20
78.54965304522199
 30
0.0
 11
214.3273721234304
 21
80.14965304521959
 31
0.0
  0
LINE
  5
89
330
84
100
AcDbEntity
  8
KUTAI
  6
ByBlock
 62
     0
100
AcDbLine
 10
241.1273721234335
 20
106.9496530452222
 30
0.0
 11
242.727372123432
 21
108.5496530452207
 31
0.0
  0
LINE
  5
8A
330
84
100
AcDbEntity
  8
KUTAI
  6
ByBlock
 62
     0
100
AcDbLine
 10
212.7273721234328
 20
77.1354394828478
 30
0.0
 11
214.3273721234318
 21
78.73543948284723
 31
0.0
  0
LINE
  5
8B
330
84
100
AcDbEntity
  8
KUTAI
  6
ByBlock
 62
     0
100
AcDbLine
 10
241.1273721234338
 20
105.5354394828492
 30
0.0
 11
242.7273721234333
 21
107.1354394828488
 31
0.0
  0
LINE
  5
8C
330
84
100
AcDbEntity
  8
KUTAI
  6
ByBlock
 62
     0
100
AcDbLine
 10
212.7273721234315
 20
99.76285648081656
 30
0.0
 11
214.3273721234309
 21
101.362856480816
 31
0.0
  0
LINE
  5
8D
330
84
100
AcDbEntity
  8
KUTAI
  6
ByBlock
 62
     0
100
AcDbLine
 10
226.7009652522406
 20
113.7364496096257
 30
0.0
 11
228.3009652522401
 21
115.3364496096252
 31
0.0
  0
LINE
  5
8E
330
84
100
AcDbEntity
  8
KUTAI
  6
ByBlock
 62
     0
100
AcDbLine
 10
212.7273721234324
 20
98.34864291844416
 30
0.0
 11
214.3273721234314
 21
99.94864291844272
 31
0.0
  0
LINE
  5
8F
330
84
100
AcDbEntity
  8
KUTAI
  6
ByBlock
 62
     0
100
AcDbLine
 10
228.1151788146158
 20
113.7364496096272
 30
0.0
 11
229.7151788146125
 21
115.3364496096243
 31
0.0
  0
LINE
  5
90
330
84
100
AcDbEntity
  8
KUTAI
  6
ByBlock
 62
     0
100
AcDbLine
 10
231.9405755590291
 20
55.33644960962515
 30
0.0
 11
233.5405755590271
 21
56.93644960962277
 31
0.0
  0
LINE
  5
91
330
84
100
AcDbEntity
  8
KUTAI
  6
ByBlock
 62
     0
100
AcDbLine
 10
241.1273721234342
 20
64.52324617403023
 30
0.0
 11
241.9405755590263
 21
65.33644960962242
 31
0.0
  0
LINE
  5
92
330
84
100
AcDbEntity
  8
KUTAI
  6
ByBlock
 62
     0
100
AcDbLine
 10
233.3547891214029
 20
55.33644960962559
 30
0.0
 11
234.9547891214005
 21
56.93644960962322
 31
0.0
  0
LINE
  5
93
330
84
100
AcDbEntity
  8
KUTAI
  6
ByBlock
 62
     0
100
AcDbLine
 10
241.1273721234346
 20
63.10903261165691
 30
0.0
 11
242.7273721234309
 21
64.70903261165364
 31
0.0
  0
ENDBLK
  5
94
330
84
100
AcDbEntity
  8
KUTAI
  6
ByBlock
 62
    12
100
AcDbBlockEnd
  0
ENDSEC
  0
SECTION
  2
ENTITIES
  0
LINE
  5
95
330
6F
100
AcDbEntity
  8
WASHER
  6
HIDDEN
100
AcDbLine
 10
224.5273721234329
 20
372.2555691123014
 30
0.0
 11
224.5273721234329
 21
374.2555691122947
 31
0.0
  0
LINE
  5
96
330
6F
100
AcDbEntity
  8
WASHER
  6
HIDDEN
100
AcDbLine
 10
230.9273721234328
 20
372.2555691123014
 30
0.0
 11
230.9273721234328
 21
374.2555691123081
 31
0.0
  0
LINE
  5
97
330
6F
100
AcDbEntity
  8
KUTAI
  6
Continuous
100
AcDbLine
 10
269.0129803851767
 20
334.6987978358873
 30
0.0
 11
305.0697516615907
 21
370.7555691123013
 31
0.0
  0
LINE
  5
98
330
6F
100
AcDbEntity
  8
KUTAI
  6
Continuous
100
AcDbLine
 10
261.941912573311
 20
334.698797835887
 30
0.0
 11
297.9986838497251
 21
370.7555691123013
 31
0.0
  0
LINE
  5
99
330
6F
100
AcDbEntity
  8
KUTAI
  6
Continuous
100
AcDbLine
 10
254.8708447614456
 20
334.6987978358871
 30
0.0
 11
290.9276160378598
 21
370.7555691123012
 31
0.0
  0
LINE
  5
9A
330
6F
100
AcDbEntity
  8
KUTAI
  6
Continuous
100
AcDbLine
 10
133.4647851474592
 20
334.6987978358872
 30
0.0
 11
169.5215564238732
 21
370.7555691123013
 31
0.0
  0
LINE
  5
9B
330
6F
100
AcDbEntity
  8
KUTAI
  6
Continuous
100
AcDbLine
 10
126.3937173355936
 20
334.698797835887
 30
0.0
 11
162.4504886120079
 21
370.7555691123013
 31
0.0
  0
LINE
  5
9C
330
6F
100
AcDbEntity
  8
KUTAI
  6
Continuous
100
AcDbLine
 10
119.3226495237282
 20
334.6987978358871
 30
0.0
 11
155.3794208001424
 21
370.7555691123013
 31
0.0
  0
LINE
  5
9D
330
6F
100
AcDbEntity
  8
UKEZAI
  6
Continuous
100
AcDbLine
 10
629.4412277193402
 20
119.8364496096262
 30
0.0
 11
629.4412277193402
 21
126.8364496096261
 31
0.0
  0
LINE
  5
9E
330
6F
100
AcDbEntity
  8
UKEZAI
  6
Continuous
100
AcDbLine
 10
630.9412277193938
 20
118.8364496093392
 30
0.0
 11
630.75372771934
 21
119.8364496096261
 31
0.0
  0
LINE
  5
9F
330
6F
100
AcDbEntity
  8
UKEZAI
  6
Continuous
100
AcDbLine
 10
630.9412277193914
 20
116.8364496096258
 30
0.0
 11
630.9412277193937
 21
118.8364496093391
 31
0.0
  0
LINE
  5
A0
330
6F
100
AcDbEntity
  8
UKEZAI
  6
Continuous
100
AcDbLine
 10
627.9412277193403
 20
118.3364496096262
 30
0.0
 11
627.9412277193403
 21
131.0864496096261
 31
0.0
  0
LINE
  5
A1
330
6F
100
AcDbEntity
  8
UKEZAI
  6
Continuous
100
AcDbLine
 10
629.4412277193401
 20
126.8364496095804
 30
0.0
 11
630.7412277194397
 21
126.8364496095815
 31
0.0
  0
LINE
  5
A2
330
6F
100
AcDbEntity
  8
UKEZAI
  6
Continuous
100
AcDbLine
 10
629.4412277193402
 20
119.8364496096262
 30
0.0
 11
630.7537277193403
 21
119.8364496096262
 31
0.0
  0
LINE
  5
A3
330
6F
100
AcDbEntity
  8
UKEZAI
  6
Continuous
100
AcDbLine
 10
607.7412277193403
 20
116.8364496096264
 30
0.0
 11
630.9412277193918
 21
116.8364496096263
 31
0.0
  0
ARC
  5
A4
330
6F
100
AcDbEntity
  8
UKEZAI
  6
Continuous
100
AcDbCircle
 10
607.7412277193399
 20
118.3364496096262
 30
0.0
 40
0.3
100
AcDbArc
 50
270.0
 51
0.0
  0
ARC
  5
A5
330
6F
100
AcDbEntity
  8
UKEZAI
  6
Continuous
100
AcDbCircle
 10
628.6912277193403
 20
131.086449609626
 30
0.0
 40
0.75
100
AcDbArc
 50
19.88796430577377
 51
180.0
  0
ARC
  5
A6
330
6F
100
AcDbEntity
  8
UKEZAI
  6
Continuous
100
AcDbCircle
 10
630.7412277194393
 20
127.0364496095815
 30
0.0
 40
0.2
100
AcDbArc
 50
270.0
 51
19.88796430577186
  0
LINE
  5
A7
330
6F
100
AcDbEntity
  8
UKEZAI
  6
Continuous
100
AcDbLine
 10
630.9292996408879
 20
127.1044860142692
 30
0.0
 11
629.3964974247709
 21
131.3415861272044
 31
0.0
  0
ARC
  5
A8
330
6F
100
AcDbEntity
  8
UKEZAI
  6
HIDDEN
100
AcDbCircle
 10
609.7412277193402
 20
118.3364496096262
 30
0.0
 40
0.3
100
AcDbArc
 50
0.0
 51
180.0
  0
LINE
  5
A9
330
6F
100
AcDbEntity
  8
UKEZAI
  6
HIDDEN
100
AcDbLine
 10
608.0412277193397
 20
118.3364496096262
 30
0.0
 11
609.4412277193399
 21
118.3364496096262
 31
0.0
  0
LINE
  5
AA
330
6F
100
AcDbEntity
  8
UKEZAI
  6
Continuous
100
AcDbLine
 10
610.0412277193401
 20
118.3364496096262
 30
0.0
 11
627.9412277193403
 21
118.3364496096262
 31
0.0
  0
LINE
  5
AB
330
6F
100
AcDbEntity
  8
UKEZAI
  6
Continuous
100
AcDbLine
 10
586.04122771934
 20
119.8364496096262
 30
0.0
 11
586.04122771934
 21
126.8364496096261
 31
0.0
  0
LINE
  5
AC
330
6F
100
AcDbEntity
  8
UKEZAI
  6
Continuous
100
AcDbLine
 10
584.5412277192857
 20
118.8364496093391
 30
0.0
 11
584.7287277193397
 21
119.8364496096263
 31
0.0
  0
LINE
  5
AD
330
6F
100
AcDbEntity
  8
UKEZAI
  6
Continuous
100
AcDbLine
 10
584.5412277192886
 20
116.8364496096257
 30
0.0
 11
584.5412277192862
 21
118.8364496093387
 31
0.0
  0
LINE
  5
AE
330
6F
100
AcDbEntity
  8
UKEZAI
  6
Continuous
100
AcDbLine
 10
587.5412277193401
 20
118.3364496096262
 30
0.0
 11
587.5412277193401
 21
131.0864496096261
 31
0.0
  0
LINE
  5
AF
330
6F
100
AcDbEntity
  8
UKEZAI
  6
Continuous
100
AcDbLine
 10
586.04122771934
 20
126.8364496095808
 30
0.0
 11
584.7412277192402
 21
126.8364496095819
 31
0.0
  0
LINE
  5
B0
330
6F
100
AcDbEntity
  8
UKEZAI
  6
Continuous
100
AcDbLine
 10
586.04122771934
 20
119.8364496096262
 30
0.0
 11
584.7287277193401
 21
119.8364496096262
 31
0.0
  0
LINE
  5
B1
330
6F
100
AcDbEntity
  8
UKEZAI
  6
Continuous
100
AcDbLine
 10
607.74122771934
 20
116.8364496096261
 30
0.0
 11
584.5412277192884
 21
116.836449609626
 31
0.0
  0
ARC
  5
B2
330
6F
100
AcDbEntity
  8
UKEZAI
  6
Continuous
100
AcDbCircle
 10
607.7412277193403
 20
118.3364496096262
 30
0.0
 40
0.3
100
AcDbArc
 50
180.0
 51
270.0
  0
ARC
  5
B3
330
6F
100
AcDbEntity
  8
UKEZAI
  6
Continuous
100
AcDbCircle
 10
586.7912277193401
 20
131.0864496096262
 30
0.0
 40
0.75
100
AcDbArc
 50
0.0
 51
160.1120356942262
  0
ARC
  5
B4
330
6F
100
AcDbEntity
  8
UKEZAI
  6
Continuous
100
AcDbCircle
 10
584.7412277192407
 20
127.0364496095816
 30
0.0
 40
0.2
100
AcDbArc
 50
160.1120356942281
 51
270.0
  0
LINE
  5
B5
330
6F
100
AcDbEntity
  8
UKEZAI
  6
Continuous
100
AcDbLine
 10
584.5531557977928
 20
127.1044860142688
 30
0.0
 11
586.0859580139097
 21
131.3415861272038
 31
0.0
  0
ARC
  5
B6
330
6F
100
AcDbEntity
  8
UKEZAI
  6
HIDDEN
100
AcDbCircle
 10
605.7412277193402
 20
118.3364496096262
 30
0.0
 40
0.3
100
AcDbArc
 50
0.0
 51
180.0
  0
LINE
  5
B7
330
6F
100
AcDbEntity
  8
UKEZAI
  6
HIDDEN
100
AcDbLine
 10
607.4412277193403
 20
118.3364496096262
 30
0.0
 11
606.0412277193401
 21
118.3364496096262
 31
0.0
  0
LINE
  5
B8
330
6F
100
AcDbEntity
  8
UKEZAI
  6
Continuous
100
AcDbLine
 10
605.4412277193399
 20
118.3364496096262
 30
0.0
 11
587.5412277193401
 21
118.3364496096262
 31
0.0
  0
LINE
  5
B9
330
6F
100
AcDbEntity
  8
WASHER
  6
Continuous
100
AcDbLine
 10
592.7412277190032
 20
120.3364496096261
 30
0.0
 11
622.7412277190031
 21
120.3364496096261
 31
0.0
  0
LINE
  5
BA
330
6F
100
AcDbEntity
  8
WASHER
  6
Continuous
100
AcDbLine
 10
622.7412277190031
 20
118.3364496096261
 30
0.0
 11
622.7412277190031
 21
120.3364496096261
 31
0.0
  0
LINE
  5
BB
330
6F
100
AcDbEntity
  8
WASHER
  6
Continuous
100
AcDbLine
 10
592.7412277190032
 20
118.3364496096261
 30
0.0
 11
592.7412277190032
 21
120.3364496096261
 31
0.0
  0
LINE
  5
BC
330
6F
100
AcDbEntity
  8
ANCHOR
  6
HIDDEN
100
AcDbLine
 10
592.2412277204911
 20
128.8364496097355
 30
0.0
 11
582.7412277191625
 21
128.8364496097759
 31
0.0
  0
LINE
  5
BD
330
6F
100
AcDbEntity
  8
ANCHOR
  6
HIDDEN
100
AcDbLine
 10
592.2412277210462
 20
124.8364496097355
 30
0.0
 11
582.7412277191467
 21
124.8364496097759
 31
0.0
  0
LINE
  5
BE
330
6F
100
AcDbEntity
  8
ANCHOR
  6
HIDDEN
100
AcDbLine
 10
595.1638774512562
 20
127.8364496097441
 30
0.0
 11
593.2412277205018
 21
127.8364496097402
 31
0.0
  0
LINE
  5
BF
330
6F
100
AcDbEntity
  8
ANCHOR
  6
HIDDEN
100
AcDbLine
 10
595.163877451452
 20
125.8364496097441
 30
0.0
 11
593.2412277210397
 21
125.8364496097402
 31
0.0
  0
LINE
  5
C0
330
6F
100
AcDbEntity
  8
ANCHOR
  6
HIDDEN
100
AcDbLine
 10
595.7412277205441
 20
126.8364496095839
 30
0.0
 11
595.1638774512566
 21
127.8364496097446
 31
0.0
  0
LINE
  5
C1
330
6F
100
AcDbEntity
  8
ANCHOR
  6
HIDDEN
100
AcDbLine
 10
595.1638774514527
 20
125.8364496097453
 30
0.0
 11
595.7412277205447
 21
126.8364496095842
 31
0.0
  0
ARC
  5
C2
330
6F
100
AcDbEntity
  8
ANCHOR
  6
HIDDEN
100
AcDbCircle
 10
593.7412277210491
 20
126.8364496097425
 30
0.0
 40
0.5
100
AcDbArc
 50
97.20679386168658
 51
262.7932061387912
  0
LINE
  5
C3
330
6F
100
AcDbEntity
  8
ANCHOR
  6
HIDDEN
100
AcDbLine
 10
593.6785022845842
 20
126.3403996932814
 30
0.0
 11
595.1638774514527
 21
125.8364496097437
 31
0.0
  0
LINE
  5
C4
330
6F
100
AcDbEntity
  8
ANCHOR
  6
HIDDEN
100
AcDbLine
 10
593.6785022845807
 20
127.3324995262023
 30
0.0
 11
595.1638774512562
 21
127.8364496097443
 31
0.0
  0
LINE
  5
C5
330
6F
100
AcDbEntity
  8
ANCHOR
  6
HIDDEN
100
AcDbLine
 10
593.2412277205002
 20
127.8364496097398
 30
0.0
 11
592.2412277204907
 21
128.8364496097371
 31
0.0
  0
LINE
  5
C6
330
6F
100
AcDbEntity
  8
ANCHOR
  6
HIDDEN
100
AcDbLine
 10
592.2412277210462
 20
124.8364496097388
 30
0.0
 11
593.2412277210387
 21
125.836449609739
 31
0.0
  0
LINE
  5
C7
330
6F
100
AcDbEntity
  8
ANCHOR
  6
HIDDEN
100
AcDbLine
 10
592.2412277207777
 20
124.8364496097379
 30
0.0
 11
592.2412277207627
 21
128.8364496097379
 31
0.0
  0
LINE
  5
C8
330
6F
100
AcDbEntity
  8
ANCHOR
  6
HIDDEN
100
AcDbLine
 10
593.2412277205432
 20
125.8364496097379
 30
0.0
 11
593.2412277205337
 21
127.8364496097379
 31
0.0
  0
LINE
  5
C9
330
6F
100
AcDbEntity
  8
ANCHOR
  6
HIDDEN
100
AcDbLine
 10
593.0412277210414
 20
125.6364496097384
 30
0.0
 11
582.7412277191507
 21
125.6364496097795
 31
0.0
  0
LINE
  5
CA
330
6F
100
AcDbEntity
  8
ANCHOR
  6
HIDDEN
100
AcDbLine
 10
593.0412277205002
 20
128.036449609738
 30
0.0
 11
582.7412277191598
 21
128.0364496097791
 31
0.0
  0
LINE
  5
CB
330
6F
100
AcDbEntity
  8
ANCHOR
  6
Continuous
100
AcDbLine
 10
580.7189171380128
 20
127.3346478573683
 30
0.0
 11
580.7189171380132
 21
126.3382513618861
 31
0.0
  0
LINE
  5
CC
330
6F
100
AcDbEntity
  8
ANCHOR
  6
Continuous
100
AcDbLine
 10
580.7189171380124
 20
127.3346478573685
 30
0.0
 11
580.2412277193381
 21
127.3346478573685
 31
0.0
  0
LINE
  5
CD
330
6F
100
AcDbEntity
  8
ANCHOR
  6
Continuous
100
AcDbLine
 10
580.7189171380128
 20
126.3382513618863
 30
0.0
 11
580.2412277193385
 21
126.3382513618863
 31
0.0
  0
LINE
  5
CE
330
6F
100
AcDbEntity
  8
ANCHOR
  6
Continuous
100
AcDbLine
 10
582.2412277193548
 20
122.1364496096253
 30
0.0
 11
582.7412277193547
 21
122.1364496096257
 31
0.0
  0
ARC
  5
CF
330
6F
100
AcDbEntity
  8
ANCHOR
  6
Continuous
100
AcDbCircle
 10
586.3326931136611
 20
126.66081817631
 30
0.0
 40
6.099999999999998
100
AcDbArc
 50
183.0312034848472
 51
227.876411461438
  0
LINE
  5
D0
330
6F
100
AcDbEntity
  8
ANCHOR
  6
Continuous
100
AcDbLine
 10
582.2412277193209
 20
131.5364496096272
 30
0.0
 11
582.2412277193556
 21
122.1364496096256
 31
0.0
  0
ARC
  5
D1
330
6F
100
AcDbEntity
  8
ANCHOR
  6
Continuous
100
AcDbCircle
 10
586.3326931136611
 20
127.0120810429476
 30
0.0
 40
6.099999999999998
100
AcDbArc
 50
132.1235885386251
 51
176.9687965152159
  0
LINE
  5
D2
330
6F
100
AcDbEntity
  8
ANCHOR
  6
Continuous
100
AcDbLine
 10
582.7412277193217
 20
131.5364496096285
 30
0.0
 11
582.7412277193565
 21
122.1364496096271
 31
0.0
  0
LINE
  5
D3
330
6F
100
AcDbEntity
  8
ANCHOR
  6
Continuous
100
AcDbLine
 10
582.2412277193507
 20
131.5364496096269
 30
0.0
 11
582.7412277193507
 21
131.5364496096273
 31
0.0
  0
LINE
  5
D4
330
6F
100
AcDbEntity
  8
WASHER
  6
Continuous
100
AcDbLine
 10
592.7412277190032
 20
118.3364496096261
 30
0.0
 11
622.7412277190031
 21
118.3364496096261
 31
0.0
  0
LINE
  5
D5
330
6F
100
AcDbEntity
  8
WASHER
  6
HIDDEN
100
AcDbLine
 10
610.9412277190032
 20
118.336449609626
 30
0.0
 11
610.9412277190032
 21
120.3364496096327
 31
0.0
  0
LINE
  5
D6
330
6F
100
AcDbEntity
  8
WASHER
  6
HIDDEN
100
AcDbLine
 10
604.5412277190032
 20
118.336449609626
 30
0.0
 11
604.5412277190032
 21
120.3364496096192
 31
0.0
  0
LINE
  5
D7
330
6F
100
AcDbEntity
  8
KUTAI
  6
Continuous
100
AcDbLine
 10
117.4720475945935
 20
118.336449609626
 30
0.0
 11
319.6456117066339
 21
118.336449609626
 31
0.0
  0
LINE
  5
D8
330
6F
100
AcDbEntity
  8
UKEZAI
  6
Continuous
100
AcDbLine
 10
249.4273721237698
 20
121.3364496096258
 30
0.0
 11
249.4273721237698
 21
128.3364496096257
 31
0.0
  0
LINE
  5
D9
330
6F
100
AcDbEntity
  8
UKEZAI
  6
Continuous
100
AcDbLine
 10
250.9273721238236
 20
120.3364496093389
 30
0.0
 11
250.7398721237699
 21
121.3364496096258
 31
0.0
  0
LINE
  5
DA
330
6F
100
AcDbEntity
  8
UKEZAI
  6
Continuous
100
AcDbLine
 10
250.9273721238212
 20
118.3364496096255
 30
0.0
 11
250.9273721238234
 21
120.3364496093388
 31
0.0
  0
LINE
  5
DB
330
6F
100
AcDbEntity
  8
UKEZAI
  6
Continuous
100
AcDbLine
 10
247.9273721237698
 20
119.8364496096258
 30
0.0
 11
247.9273721237698
 21
132.5864496096257
 31
0.0
  0
LINE
  5
DC
330
6F
100
AcDbEntity
  8
UKEZAI
  6
Continuous
100
AcDbLine
 10
249.4273721237695
 20
128.3364496095801
 30
0.0
 11
250.7273721238693
 21
128.3364496095811
 31
0.0
  0
LINE
  5
DD
330
6F
100
AcDbEntity
  8
UKEZAI
  6
Continuous
100
AcDbLine
 10
249.4273721237698
 20
121.3364496096258
 30
0.0
 11
250.7398721237698
 21
121.3364496096258
 31
0.0
  0
LINE
  5
DE
330
6F
100
AcDbEntity
  8
UKEZAI
  6
Continuous
100
AcDbLine
 10
227.7273721237698
 20
118.336449609626
 30
0.0
 11
250.9273721238213
 21
118.3364496096259
 31
0.0
  0
ARC
  5
DF
330
6F
100
AcDbEntity
  8
UKEZAI
  6
Continuous
100
AcDbCircle
 10
227.7273721237696
 20
119.8364496096258
 30
0.0
 40
0.3
100
AcDbArc
 50
270.0
 51
0.0
  0
ARC
  5
E0
330
6F
100
AcDbEntity
  8
UKEZAI
  6
Continuous
100
AcDbCircle
 10
248.6773721237698
 20
132.5864496096257
 30
0.0
 40
0.75
100
AcDbArc
 50
19.88796430577377
 51
180.0
  0
ARC
  5
E1
330
6F
100
AcDbEntity
  8
UKEZAI
  6
Continuous
100
AcDbCircle
 10
250.7273721238692
 20
128.5364496095812
 30
0.0
 40
0.2
100
AcDbArc
 50
270.0
 51
19.88796430577186
  0
LINE
  5
E2
330
6F
100
AcDbEntity
  8
UKEZAI
  6
Continuous
100
AcDbLine
 10
250.9154440453175
 20
128.6044860142688
 30
0.0
 11
249.3826418292005
 21
132.8415861272041
 31
0.0
  0
ARC
  5
E3
330
6F
100
AcDbEntity
  8
UKEZAI
  6
HIDDEN
100
AcDbCircle
 10
229.7273721237698
 20
119.8364496096258
 30
0.0
 40
0.3
100
AcDbArc
 50
0.0
 51
180.0
  0
LINE
  5
E4
330
6F
100
AcDbEntity
  8
UKEZAI
  6
HIDDEN
100
AcDbLine
 10
228.0273721237695
 20
119.8364496096258
 30
0.0
 11
229.4273721237696
 21
119.8364496096258
 31
0.0
  0
LINE
  5
E5
330
6F
100
AcDbEntity
  8
UKEZAI
  6
Continuous
100
AcDbLine
 10
230.0273721237698
 20
119.8364496096258
 30
0.0
 11
247.9273721237699
 21
119.8364496096258
 31
0.0
  0
LINE
  5
E6
330
6F
100
AcDbEntity
  8
UKEZAI
  6
Continuous
100
AcDbLine
 10
206.0273721237697
 20
121.3364496096258
 30
0.0
 11
206.0273721237697
 21
128.3364496096257
 31
0.0
  0
LINE
  5
E7
330
6F
100
AcDbEntity
  8
UKEZAI
  6
Continuous
100
AcDbLine
 10
204.5273721237158
 20
120.3364496093387
 30
0.0
 11
204.7148721237696
 21
121.3364496096259
 31
0.0
  0
LINE
  5
E8
330
6F
100
AcDbEntity
  8
UKEZAI
  6
Continuous
100
AcDbLine
 10
204.5273721237182
 20
118.3364496096253
 30
0.0
 11
204.527372123716
 21
120.3364496093384
 31
0.0
  0
LINE
  5
E9
330
6F
100
AcDbEntity
  8
UKEZAI
  6
Continuous
100
AcDbLine
 10
207.5273721237697
 20
119.8364496096258
 30
0.0
 11
207.5273721237697
 21
132.5864496096257
 31
0.0
  0
LINE
  5
EA
330
6F
100
AcDbEntity
  8
UKEZAI
  6
Continuous
100
AcDbLine
 10
206.0273721237699
 20
128.3364496095805
 30
0.0
 11
204.7273721236701
 21
128.3364496095815
 31
0.0
  0
LINE
  5
EB
330
6F
100
AcDbEntity
  8
UKEZAI
  6
Continuous
100
AcDbLine
 10
206.0273721237697
 20
121.3364496096258
 30
0.0
 11
204.7148721237697
 21
121.3364496096258
 31
0.0
  0
LINE
  5
EC
330
6F
100
AcDbEntity
  8
UKEZAI
  6
Continuous
100
AcDbLine
 10
227.7273721237697
 20
118.3364496096257
 30
0.0
 11
204.527372123718
 21
118.3364496096257
 31
0.0
  0
ARC
  5
ED
330
6F
100
AcDbEntity
  8
UKEZAI
  6
Continuous
100
AcDbCircle
 10
227.7273721237698
 20
119.8364496096258
 30
0.0
 40
0.3
100
AcDbArc
 50
180.0
 51
270.0
  0
ARC
  5
EE
330
6F
100
AcDbEntity
  8
UKEZAI
  6
Continuous
100
AcDbCircle
 10
206.7773721237697
 20
132.5864496096258
 30
0.0
 40
0.75
100
AcDbArc
 50
0.0
 51
160.1120356942262
  0
ARC
  5
EF
330
6F
100
AcDbEntity
  8
UKEZAI
  6
Continuous
100
AcDbCircle
 10
204.7273721236704
 20
128.5364496095813
 30
0.0
 40
0.2
100
AcDbArc
 50
160.1120356942281
 51
270.0
  0
LINE
  5
F0
330
6F
100
AcDbEntity
  8
UKEZAI
  6
Continuous
100
AcDbLine
 10
204.5393002022221
 20
128.6044860142683
 30
0.0
 11
206.0721024183391
 21
132.8415861272034
 31
0.0
  0
ARC
  5
F1
330
6F
100
AcDbEntity
  8
UKEZAI
  6
HIDDEN
100
AcDbCircle
 10
225.7273721237698
 20
119.8364496096258
 30
0.0
 40
0.3
100
AcDbArc
 50
0.0
 51
180.0
  0
LINE
  5
F2
330
6F
100
AcDbEntity
  8
UKEZAI
  6
HIDDEN
100
AcDbLine
 10
227.4273721237698
 20
119.8364496096258
 30
0.0
 11
226.0273721237697
 21
119.8364496096258
 31
0.0
  0
LINE
  5
F3
330
6F
100
AcDbEntity
  8
UKEZAI
  6
Continuous
100
AcDbLine
 10
225.4273721237696
 20
119.8364496096258
 30
0.0
 11
207.5273721237697
 21
119.8364496096258
 31
0.0
  0
LINE
  5
F4
330
6F
100
AcDbEntity
  8
WASHER
  6
Continuous
100
AcDbLine
 10
212.7273721234328
 20
121.8364496096258
 30
0.0
 11
242.7273721234328
 21
121.8364496096258
 31
0.0
  0
LINE
  5
F5
330
6F
100
AcDbEntity
  8
WASHER
  6
Continuous
100
AcDbLine
 10
242.7273721234328
 20
119.8364496096258
 30
0.0
 11
242.7273721234328
 21
121.8364496096258
 31
0.0
  0
LINE
  5
F6
330
6F
100
AcDbEntity
  8
WASHER
  6
Continuous
100
AcDbLine
 10
212.7273721234328
 20
119.8364496096258
 30
0.0
 11
212.7273721234328
 21
121.8364496096258
 31
0.0
  0
LINE
  5
F7
330
6F
100
AcDbEntity
  8
ANCHOR
  6
HIDDEN
100
AcDbLine
 10
212.2273721249208
 20
130.3364496097352
 30
0.0
 11
202.727372123592
 21
130.3364496097755
 31
0.0
  0
LINE
  5
F8
330
6F
100
AcDbEntity
  8
ANCHOR
  6
HIDDEN
100
AcDbLine
 10
212.2273721254759
 20
126.3364496097352
 30
0.0
 11
202.7273721235764
 21
126.3364496097755
 31
0.0
  0
LINE
  5
F9
330
6F
100
AcDbEntity
  8
ANCHOR
  6
HIDDEN
100
AcDbLine
 10
215.150021855686
 20
129.3364496097438
 30
0.0
 11
213.2273721249314
 21
129.3364496097398
 31
0.0
  0
LINE
  5
FA
330
6F
100
AcDbEntity
  8
ANCHOR
  6
HIDDEN
100
AcDbLine
 10
215.1500218558819
 20
127.3364496097437
 30
0.0
 11
213.2273721254694
 21
127.3364496097398
 31
0.0
  0
LINE
  5
FB
330
6F
100
AcDbEntity
  8
ANCHOR
  6
HIDDEN
100
AcDbLine
 10
215.7273721249739
 20
128.3364496095836
 30
0.0
 11
215.1500218556863
 21
129.3364496097443
 31
0.0
  0
LINE
  5
FC
330
6F
100
AcDbEntity
  8
ANCHOR
  6
HIDDEN
100
AcDbLine
 10
215.1500218558826
 20
127.336449609745
 30
0.0
 11
215.7273721249743
 21
128.3364496095839
 31
0.0
  0
ARC
  5
FD
330
6F
100
AcDbEntity
  8
ANCHOR
  6
HIDDEN
100
AcDbCircle
 10
213.7273721254787
 20
128.3364496097421
 30
0.0
 40
0.5
100
AcDbArc
 50
97.20679386168658
 51
262.7932061387912
  0
LINE
  5
FE
330
6F
100
AcDbEntity
  8
ANCHOR
  6
HIDDEN
100
AcDbLine
 10
213.6646466890138
 20
127.840399693281
 30
0.0
 11
215.1500218558822
 21
127.3364496097432
 31
0.0
  0
LINE
  5
FF
330
6F
100
AcDbEntity
  8
ANCHOR
  6
HIDDEN
100
AcDbLine
 10
213.6646466890101
 20
128.8324995262019
 30
0.0
 11
215.1500218556859
 21
129.3364496097439
 31
0.0
  0
LINE
  5
100
330
6F
100
AcDbEntity
  8
ANCHOR
  6
HIDDEN
100
AcDbLine
 10
213.2273721249297
 20
129.3364496097394
 30
0.0
 11
212.2273721249203
 21
130.3364496097367
 31
0.0
  0
LINE
  5
101
330
6F
100
AcDbEntity
  8
ANCHOR
  6
HIDDEN
100
AcDbLine
 10
212.2273721254759
 20
126.3364496097385
 30
0.0
 11
213.2273721254686
 21
127.3364496097387
 31
0.0
  0
LINE
  5
102
330
6F
100
AcDbEntity
  8
ANCHOR
  6
HIDDEN
100
AcDbLine
 10
212.2273721252073
 20
126.3364496097375
 30
0.0
 11
212.2273721251925
 21
130.3364496097375
 31
0.0
  0
LINE
  5
103
330
6F
100
AcDbEntity
  8
ANCHOR
  6
HIDDEN
100
AcDbLine
 10
213.2273721249726
 20
127.3364496097376
 30
0.0
 11
213.2273721249634
 21
129.3364496097376
 31
0.0
  0
LINE
  5
104
330
6F
100
AcDbEntity
  8
ANCHOR
  6
HIDDEN
100
AcDbLine
 10
213.0273721254709
 20
127.136449609738
 30
0.0
 11
202.7273721235803
 21
127.1364496097791
 31
0.0
  0
LINE
  5
105
330
6F
100
AcDbEntity
  8
ANCHOR
  6
HIDDEN
100
AcDbLine
 10
213.0273721249297
 20
129.5364496097376
 30
0.0
 11
202.7273721235894
 21
129.5364496097787
 31
0.0
  0
LINE
  5
106
330
6F
100
AcDbEntity
  8
ANCHOR
  6
Continuous
100
AcDbLine
 10
200.7050615424424
 20
128.8346478573679
 30
0.0
 11
200.7050615424429
 21
127.8382513618857
 31
0.0
  0
LINE
  5
107
330
6F
100
AcDbEntity
  8
ANCHOR
  6
Continuous
100
AcDbLine
 10
200.7050615424421
 20
128.8346478573681
 30
0.0
 11
200.2273721237678
 21
128.8346478573681
 31
0.0
  0
LINE
  5
108
330
6F
100
AcDbEntity
  8
ANCHOR
  6
Continuous
100
AcDbLine
 10
200.7050615424426
 20
127.8382513618859
 30
0.0
 11
200.2273721237682
 21
127.8382513618859
 31
0.0
  0
LINE
  5
109
330
6F
100
AcDbEntity
  8
ANCHOR
  6
Continuous
100
AcDbLine
 10
202.2273721237846
 20
123.6364496096249
 30
0.0
 11
202.7273721237846
 21
123.6364496096253
 31
0.0
  0
ARC
  5
10A
330
6F
100
AcDbEntity
  8
ANCHOR
  6
Continuous
100
AcDbCircle
 10
206.3188375180907
 20
128.1608181763096
 30
0.0
 40
6.099999999999998
100
AcDbArc
 50
183.0312034848472
 51
227.876411461438
  0
LINE
  5
10B
330
6F
100
AcDbEntity
  8
ANCHOR
  6
Continuous
100
AcDbLine
 10
202.2273721237506
 20
133.0364496096268
 30
0.0
 11
202.2273721237854
 21
123.6364496096252
 31
0.0
  0
ARC
  5
10C
330
6F
100
AcDbEntity
  8
ANCHOR
  6
Continuous
100
AcDbCircle
 10
206.3188375180907
 20
128.5120810429472
 30
0.0
 40
6.099999999999998
100
AcDbArc
 50
132.1235885386251
 51
176.9687965152159
  0
LINE
  5
10D
330
6F
100
AcDbEntity
  8
ANCHOR
  6
Continuous
100
AcDbLine
 10
202.7273721237515
 20
133.0364496096282
 30
0.0
 11
202.7273721237862
 21
123.6364496096267
 31
0.0
  0
LINE
  5
10E
330
6F
100
AcDbEntity
  8
ANCHOR
  6
Continuous
100
AcDbLine
 10
202.2273721237803
 20
133.0364496096265
 30
0.0
 11
202.7273721237803
 21
133.0364496096269
 31
0.0
  0
LINE
  5
10F
330
6F
100
AcDbEntity
  8
WASHER
  6
Continuous
100
AcDbLine
 10
212.7273721234328
 20
119.8364496096258
 30
0.0
 11
242.7273721234328
 21
119.8364496096258
 31
0.0
  0
LINE
  5
110
330
6F
100
AcDbEntity
  8
WASHER
  6
HIDDEN
100
AcDbLine
 10
230.9273721234329
 20
119.8364496096256
 30
0.0
 11
230.9273721234329
 21
121.8364496096323
 31
0.0
  0
LINE
  5
111
330
6F
100
AcDbEntity
  8
WASHER
  6
HIDDEN
100
AcDbLine
 10
224.527372123433
 20
119.8364496096256
 30
0.0
 11
224.527372123433
 21
121.8364496096188
 31
0.0
  0
LINE
  5
112
330
6F
100
AcDbEntity
  8
ANCHOR
  6
Continuous
100
AcDbLine
 10
233.2273721234651
 20
121.8364496096299
 30
0.0
 11
222.2273721234651
 21
121.8364496096218
 31
0.0
  0
LINE
  5
113
330
6F
100
AcDbEntity
  8
ANCHOR
  6
Continuous
100
AcDbLine
 10
233.2273721234645
 20
121.8364496096304
 30
0.0
 11
233.2273721234648
 21
122.6364496096301
 31
0.0
  0
LINE
  5
114
330
6F
100
AcDbEntity
  8
ANCHOR
  6
Continuous
100
AcDbLine
 10
222.2273721234645
 20
121.8364496096219
 30
0.0
 11
222.2273721234648
 21
122.6364496096221
 31
0.0
  0
LINE
  5
115
330
6F
100
AcDbEntity
  8
ANCHOR
  6
Continuous
100
AcDbLine
 10
233.2273721234645
 20
122.6364496096301
 30
0.0
 11
222.2273721234645
 21
122.636449609622
 31
0.0
  0
ARC
  5
116
330
6F
100
AcDbEntity
  8
ANCHOR
  6
Continuous
100
AcDbCircle
 10
227.7273721234668
 20
118.7805672566849
 30
0.0
 40
5.555882352941173
100
AcDbArc
 50
43.94901598298635
 51
136.0509840170985
  0
LINE
  5
117
330
6F
100
AcDbEntity
  8
ANCHOR
  6
HIDDEN
100
AcDbLine
 10
225.7273721233263
 20
85.33644960967823
 30
0.0
 11
225.7273721232859
 21
121.8364496098018
 31
0.0
  0
LINE
  5
118
330
6F
100
AcDbEntity
  8
ANCHOR
  6
HIDDEN
100
AcDbLine
 10
229.7273721233263
 20
85.33644960912322
 30
0.0
 11
229.7273721232859
 21
121.8364496098174
 31
0.0
  0
LINE
  5
119
330
6F
100
AcDbEntity
  8
ANCHOR
  6
HIDDEN
100
AcDbLine
 10
226.7273721233181
 20
82.41379987891312
 30
0.0
 11
226.727372123322
 21
84.33644960966764
 31
0.0
  0
LINE
  5
11A
330
6F
100
AcDbEntity
  8
ANCHOR
  6
HIDDEN
100
AcDbLine
 10
228.7273721233181
 20
82.41379987871717
 30
0.0
 11
228.727372123322
 21
84.33644960912973
 31
0.0
  0
LINE
  5
11B
330
6F
100
AcDbEntity
  8
ANCHOR
  6
HIDDEN
100
AcDbLine
 10
227.7273721234785
 20
81.83644960962501
 30
0.0
 11
226.7273721233178
 21
82.41379987891244
 31
0.0
  0
LINE
  5
11C
330
6F
100
AcDbEntity
  8
ANCHOR
  6
HIDDEN
100
AcDbLine
 10
228.727372123317
 20
82.41379987871676
 30
0.0
 11
227.7273721234781
 21
81.83644960962499
 31
0.0
  0
ARC
  5
11D
330
6F
100
AcDbEntity
  8
ANCHOR
  6
HIDDEN
100
AcDbCircle
 10
227.7273721233194
 20
83.8364496091199
 30
0.0
 40
0.5
100
AcDbArc
 50
7.206793861208892
 51
172.7932061383134
  0
LINE
  5
11E
330
6F
100
AcDbEntity
  8
ANCHOR
  6
HIDDEN
100
AcDbLine
 10
228.2234220397804
 20
83.89917504558477
 30
0.0
 11
228.7273721233182
 21
82.41379987871637
 31
0.0
  0
LINE
  5
11F
330
6F
100
AcDbEntity
  8
ANCHOR
  6
HIDDEN
100
AcDbLine
 10
227.2313222068598
 20
83.89917504558829
 30
0.0
 11
226.7273721233179
 21
82.41379987891283
 31
0.0
  0
LINE
  5
120
330
6F
100
AcDbEntity
  8
ANCHOR
  6
HIDDEN
100
AcDbLine
 10
226.7273721233227
 20
84.33644960966963
 30
0.0
 11
225.7273721233254
 21
85.33644960967901
 31
0.0
  0
LINE
  5
121
330
6F
100
AcDbEntity
  8
ANCHOR
  6
HIDDEN
100
AcDbLine
 10
229.7273721233233
 20
85.33644960912315
 30
0.0
 11
228.7273721233232
 21
84.33644960913071
 31
0.0
  0
LINE
  5
122
330
6F
100
AcDbEntity
  8
ANCHOR
  6
HIDDEN
100
AcDbLine
 10
229.727372123324
 20
85.33644960939161
 30
0.0
 11
225.727372123324
 21
85.33644960940639
 31
0.0
  0
LINE
  5
123
330
6F
100
AcDbEntity
  8
ANCHOR
  6
HIDDEN
100
AcDbLine
 10
228.7273721233241
 20
84.33644960962629
 30
0.0
 11
226.7273721233241
 21
84.33644960963551
 31
0.0
  0
LINE
  5
124
330
6F
100
AcDbEntity
  8
ANCHOR
  6
HIDDEN
100
AcDbLine
 10
228.9273721233239
 20
84.53644960912807
 30
0.0
 11
228.9273721232827
 21
121.8364496098135
 31
0.0
  0
LINE
  5
125
330
6F
100
AcDbEntity
  8
ANCHOR
  6
HIDDEN
100
AcDbLine
 10
226.5273721233242
 20
84.53644960966929
 30
0.0
 11
226.5273721232831
 21
121.8364496098043
 31
0.0
  0
LINE
  5
126
330
6F
100
AcDbEntity
  8
KUTAI
  6
Continuous
100
AcDbLine
 10
212.7273721234328
 20
57.33644960962596
 30
0.0
 11
212.7273721234328
 21
113.336449609626
 31
0.0
  0
LINE
  5
127
330
6F
100
AcDbEntity
  8
KUTAI
  6
Continuous
100
AcDbLine
 10
214.7273721234328
 20
55.33644960962596
 30
0.0
 11
240.7273721234328
 21
55.33644960962596
 31
0.0
  0
LINE
  5
128
330
6F
100
AcDbEntity
  8
KUTAI
  6
Continuous
100
AcDbLine
 10
215.3273721234328
 20
113.736449609626
 30
0.0
 11
240.1273721234328
 21
113.736449609626
 31
0.0
  0
LINE
  5
129
330
6F
100
AcDbEntity
  8
KUTAI
  6
Continuous
100
AcDbLine
 10
214.3273721234328
 20
57.93644960962595
 30
0.0
 11
214.3273721234328
 21
112.736449609626
 31
0.0
  0
LINE
  5
12A
330
6F
100
AcDbEntity
  8
KUTAI
  6
Continuous
100
AcDbLine
 10
215.3273721234328
 20
56.93644960962595
 30
0.0
 11
240.1273721234329
 21
56.93644960962595
 31
0.0
  0
LINE
  5
12B
330
6F
100
AcDbEntity
  8
KUTAI
  6
Continuous
100
AcDbLine
 10
241.1273721234328
 20
105.336449609626
 30
0.0
 11
242.7273721234328
 21
105.336449609626
 31
0.0
  0
LINE
  5
12C
330
6F
100
AcDbEntity
  8
KUTAI
  6
Continuous
100
AcDbLine
 10
241.1273721234328
 20
65.33644960962596
 30
0.0
 11
242.7273721234328
 21
65.33644960962596
 31
0.0
  0
LINE
  5
12D
330
6F
100
AcDbEntity
  8
KUTAI
  6
Continuous
100
AcDbLine
 10
241.1273721234328
 20
57.93644960962595
 30
0.0
 11
241.1273721234328
 21
65.33644960962596
 31
0.0
  0
LINE
  5
12E
330
6F
100
AcDbEntity
  8
KUTAI
  6
Continuous
100
AcDbLine
 10
241.1273721234328
 20
105.336449609626
 30
0.0
 11
241.1273721234328
 21
112.736449609626
 31
0.0
  0
LINE
  5
12F
330
6F
100
AcDbEntity
  8
KUTAI
  6
Continuous
100
AcDbLine
 10
242.7273721234328
 20
57.33644960962596
 30
0.0
 11
242.7273721234328
 21
65.33644960962596
 31
0.0
  0
LINE
  5
130
330
6F
100
AcDbEntity
  8
KUTAI
  6
Continuous
100
AcDbLine
 10
242.7273721234328
 20
105.336449609626
 30
0.0
 11
242.7273721234328
 21
113.336449609626
 31
0.0
  0
ARC
  5
131
330
6F
100
AcDbEntity
  8
KUTAI
  6
Continuous
100
AcDbCircle
 10
240.7273721234328
 20
113.336449609626
 30
0.0
 40
2.0
100
AcDbArc
 50
0.0
 51
90.0
  0
ARC
  5
132
330
6F
100
AcDbEntity
  8
KUTAI
  6
Continuous
100
AcDbCircle
 10
214.7273721234328
 20
113.336449609626
 30
0.0
 40
2.0
100
AcDbArc
 50
90.0
 51
180.0
  0
ARC
  5
133
330
6F
100
AcDbEntity
  8
KUTAI
  6
Continuous
100
AcDbCircle
 10
214.7273721234328
 20
57.33644960962596
 30
0.0
 40
2.0
100
AcDbArc
 50
180.0
 51
270.0
  0
ARC
  5
134
330
6F
100
AcDbEntity
  8
KUTAI
  6
Continuous
100
AcDbCircle
 10
240.7273721234328
 20
57.33644960962596
 30
0.0
 40
2.0
100
AcDbArc
 50
270.0
 51
0.0
  0
ARC
  5
135
330
6F
100
AcDbEntity
  8
KUTAI
  6
Continuous
100
AcDbCircle
 10
240.1273721234329
 20
57.93644960962595
 30
0.0
 40
1.0
100
AcDbArc
 50
270.0
 51
0.0
  0
ARC
  5
136
330
6F
100
AcDbEntity
  8
KUTAI
  6
Continuous
100
AcDbCircle
 10
240.1273721234328
 20
112.736449609626
 30
0.0
 40
1.0
100
AcDbArc
 50
0.0
 51
90.0
  0
ARC
  5
137
330
6F
100
AcDbEntity
  8
KUTAI
  6
Continuous
100
AcDbCircle
 10
215.3273721234328
 20
112.736449609626
 30
0.0
 40
1.0
100
AcDbArc
 50
90.0
 51
180.0
  0
ARC
  5
138
330
6F
100
AcDbEntity
  8
KUTAI
  6
Continuous
100
AcDbCircle
 10
215.3273721234328
 20
57.93644960962595
 30
0.0
 40
1.0
100
AcDbArc
 50
180.0
 51
270.0
  0
LINE
  5
139
330
6F
100
AcDbEntity
  8
KUTAI
  6
Continuous
100
AcDbLine
 10
117.4720475945935
 20
115.336449609626
 30
0.0
 11
319.6456117066339
 21
115.336449609626
 31
0.0
  0
INSERT
  5
13A
330
6F
100
AcDbEntity
  8
KUTAI
  6
Continuous
100
AcDbBlockReference
  2
*X0
 10
0.0
 20
0.0
 30
0.0
  0
TEXT
  5
13B
330
6F
100
AcDbEntity
  8
COMMENT
  6
Continuous
100
AcDbText
 10
349.9418172490461
 20
322.2594101746117
 30
0.0
 40
6.0
  1
RC納まり図
  7
KNJYOKO
100
AcDbText
  0
LINE
  5
13C
330
6F
100
AcDbEntity
  8
COMMENT
  6
Continuous
100
AcDbLine
 10
343.7194436660042
 20
316.0977062953458
 30
0.0
 11
393.4272863119038
 21
316.0977062953458
 31
0.0
  0
LINE
  5
13D
330
6F
100
AcDbEntity
  8
COMMENT
  6
Continuous
100
AcDbLine
 10
393.4272863119038
 20
316.0977062953458
 30
0.0
 11
393.4272863119038
 21
332.4572886387153
 31
0.0
  0
LINE
  5
13E
330
6F
100
AcDbEntity
  8
COMMENT
  6
Continuous
100
AcDbLine
 10
393.4272863119038
 20
332.4572886387153
 30
0.0
 11
343.7194436660042
 21
332.4572886387153
 31
0.0
  0
LINE
  5
13F
330
6F
100
AcDbEntity
  8
COMMENT
  6
Continuous
100
AcDbLine
 10
343.7194436660042
 20
332.4572886387153
 30
0.0
 11
343.7194436660042
 21
316.0977062953458
 31
0.0
  0
TEXT
  5
140
330
6F
100
AcDbEntity
  8
COMMENT
  6
Continuous
100
AcDbText
 10
585.1912113687183
 20
425.8689710000671
 30
0.0
 40
6.0
  1
ALC取付不可
  7
KNJYOKO
100
AcDbText
  0
LINE
  5
141
330
6F
100
AcDbEntity
  8
COMMENT
  6
Continuous
100
AcDbLine
 10
581.4243090664972
 20
420.2653276143522
 30
0.0
 11
631.1321517123968
 21
420.2653276143522
 31
0.0
  0
LINE
  5
142
330
6F
100
AcDbEntity
  8
COMMENT
  6
Continuous
100
AcDbLine
 10
631.1321517123968
 20
420.2653276143522
 30
0.0
 11
631.1321517123968
 21
436.6249099577218
 31
0.0
  0
LINE
  5
143
330
6F
100
AcDbEntity
  8
COMMENT
  6
Continuous
100
AcDbLine
 10
631.1321517123968
 20
436.6249099577218
 30
0.0
 11
581.4243090664972
 21
436.6249099577218
 31
0.0
  0
LINE
  5
144
330
6F
100
AcDbEntity
  8
COMMENT
  6
Continuous
100
AcDbLine
 10
581.4243090664972
 20
436.6249099577218
 30
0.0
 11
581.4243090664972
 21
420.2653276143522
 31
0.0
  0
TEXT
  5
145
330
6F
100
AcDbEntity
  8
COMMENT
  6
Continuous
100
AcDbText
 10
727.6696757584102
 20
53.68204903107908
 30
0.0
 40
6.0
  1
ECP納まり図
  7
KNJYOKO
100
AcDbText
  0
LINE
  5
146
330
6F
100
AcDbEntity
  8
COMMENT
  6
Continuous
100
AcDbLine
 10
723.8888328008928
 20
47.52034515181314
 30
0.0
 11
773.5966754467924
 21
47.52034515181314
 31
0.0
  0
LINE
  5
147
330
6F
100
AcDbEntity
  8
COMMENT
  6
Continuous
100
AcDbLine
 10
773.5966754467924
 20
47.52034515181314
 30
0.0
 11
773.5966754467924
 21
63.87992749518264
 31
0.0
  0
LINE
  5
148
330
6F
100
AcDbEntity
  8
COMMENT
  6
Continuous
100
AcDbLine
 10
773.5966754467924
 20
63.87992749518264
 30
0.0
 11
723.8888328008928
 21
63.87992749518264
 31
0.0
  0
LINE
  5
149
330
6F
100
AcDbEntity
  8
COMMENT
  6
Continuous
100
AcDbLine
 10
723.8888328008928
 20
63.87992749518264
 30
0.0
 11
723.8888328008928
 21
47.52034515181314
 31
0.0
  0
TEXT
  5
14A
330
6F
100
AcDbEntity
  8
COMMENT
  6
Continuous
100
AcDbText
 10
349.941817249046
 20
53.68204903107908
 30
0.0
 40
6.0
  1
鉄骨納まり図
  7
KNJYOKO
100
AcDbText
  0
LINE
  5
14B
330
6F
100
AcDbEntity
  8
COMMENT
  6
Continuous
100
AcDbLine
 10
343.7194436660041
 20
47.52034515181314
 30
0.0
 11
393.4272863119038
 21
47.52034515181314
 31
0.0
  0
LINE
  5
14C
330
6F
100
AcDbEntity
  8
COMMENT
  6
Continuous
100
AcDbLine
 10
393.4272863119038
 20
47.52034515181314
 30
0.0
 11
393.4272863119038
 21
63.87992749518264
 31
0.0
  0
LINE
  5
14D
330
6F
100
AcDbEntity
  8
COMMENT
  6
Continuous
100
AcDbLine
 10
393.4272863119038
 20
63.87992749518264
 30
0.0
 11
343.7194436660041
 21
63.87992749518264
 31
0.0
  0
LINE
  5
14E
330
6F
100
AcDbEntity
  8
COMMENT
  6
Continuous
100
AcDbLine
 10
343.7194436660041
 20
63.87992749518264
 30
0.0
 11
343.7194436660041
 21
47.52034515181314
 31
0.0
  0
LINE
  5
14F
330
6F
100
AcDbEntity
  8
WAKU
  6
Continuous
100
AcDbLine
 10
33.25789717601344
 20
27.52034515181316
 30
0.0
 11
793.5966754467925
 21
27.52034515181316
 31
0.0
  0
LINE
  5
150
330
6F
100
AcDbEntity
  8
WAKU
  6
Continuous
100
AcDbLine
 10
793.5966754467925
 20
27.52034515181316
 30
0.0
 11
793.5966754467925
 21
574.6750674359868
 31
0.0
  0
LINE
  5
151
330
6F
100
AcDbEntity
  8
WAKU
  6
Continuous
100
AcDbLine
 10
33.25789717601344
 20
574.6750674359868
 30
0.0
 11
33.25789717601344
 21
27.52034515181316
 31
0.0
  0
LINE
  5
152
330
6F
100
AcDbEntity
  8
WAKU
  6
Continuous
100
AcDbLine
 10
793.5966754467925
 20
296.0977062953458
 30
0.0
 11
33.25789717601344
 21
296.0977062953458
 31
0.0
  0
LINE
  5
153
330
6F
100
AcDbEntity
  8
WAKU
  6
Continuous
100
AcDbLine
 10
413.4272863119038
 20
27.52034515181315
 30
0.0
 11
413.4272863119038
 21
549.6750674359868
 31
0.0
  0
LINE
  5
154
330
6F
100
AcDbEntity
  8
WAKU
  6
Continuous
100
AcDbLine
 10
793.5966754467925
 20
574.6750674359868
 30
0.0
 11
33.25789717601344
 21
574.6750674359868
 31
0.0
  0
LINE
  5
155
330
6F
100
AcDbEntity
  8
WAKU
  6
Continuous
100
AcDbLine
 10
793.5966754467925
 20
549.6750674359868
 30
0.0
 11
33.25789717601344
 21
549.6750674359868
 31
0.0
  0
LINE
  5
156
330
6F
100
AcDbEntity
  8
ANCHOR
  6
CENTER
100
AcDbLine
 10
227.7273721236393
 20
130.64850397211
 30
0.0
 11
227.727372123726
 21
75.38446659772448
 31
0.0
  0
LINE
  5
157
330
6F
100
AcDbEntity
  8
ANCHOR
  6
CENTER
100
AcDbLine
 10
195.4969337619797
 20
128.336449609626
 30
0.0
 11
219.8423238575598
 21
128.336449609626
 31
0.0
  0
LINE
  5
158
330
6F
100
AcDbEntity
  8
ANCHOR
  6
CENTER
100
AcDbLine
 10
607.7412277206577
 20
129.1485039721115
 30
0.0
 11
607.7412277207444
 21
73.88446659772596
 31
0.0
  0
LINE
  5
159
330
6F
100
AcDbEntity
  8
ANCHOR
  6
CENTER
100
AcDbLine
 10
575.5107893589983
 20
126.8364496096274
 30
0.0
 11
599.8561794545783
 21
126.8364496096274
 31
0.0
  0
LINE
  5
15A
330
6F
100
AcDbEntity
  8
ANCHOR
  6
CENTER
100
AcDbLine
 10
227.7273721250871
 20
383.0676234747873
 30
0.0
 11
227.7273721252
 21
311.0622285511648
 31
0.0
  0
LINE
  5
15B
330
6F
100
AcDbEntity
  8
ANCHOR
  6
CENTER
100
AcDbLine
 10
195.4969337634275
 20
380.7555691123031
 30
0.0
 11
219.8423238590077
 21
380.7555691123031
 31
0.0
  0
LINE
  5
15C
330
6F
100
AcDbEntity
  8
COMMENT
  6
Continuous
100
AcDbLine
 10
202.7273721237684
 20
118.5364495977032
 30
0.0
 11
202.7273721237684
 21
75.76763683275044
 31
0.0
  0
LINE
  5
15D
330
6F
100
AcDbEntity
  8
COMMENT
  6
Continuous
100
AcDbLine
 10
202.7273721237684
 20
76.76763683275044
 30
0.0
 11
227.727372123726
 21
76.76763683275044
 31
0.0
  0
CIRCLE
  5
15E
330
6F
100
AcDbEntity
  8
COMMENT
  6
Continuous
100
AcDbCircle
 10
202.7273721237684
 20
76.76763683275044
 30
0.0
 40
0.5
  0
CIRCLE
  5
15F
330
6F
100
AcDbEntity
  8
COMMENT
  6
Continuous
100
AcDbCircle
 10
227.727372123726
 20
76.76763683275044
 30
0.0
 40
0.5
  0
TEXT
  5
160
330
6F
100
AcDbEntity
  8
COMMENT
  6
Continuous
100
AcDbText
 10
215.0608721042755
 20
77.26763683275044
 30
0.0
 40
3.099999904632568
  1
25
100
AcDbText
  0
LINE
  5
161
330
6F
100
AcDbEntity
  8
COMMENT
  6
Continuous
100
AcDbLine
 10
227.727372123726
 20
76.76763683275044
 30
0.0
 11
252.7273721223207
 21
76.76763683275044
 31
0.0
  0
CIRCLE
  5
162
330
6F
100
AcDbEntity
  8
COMMENT
  6
Continuous
100
AcDbCircle
 10
227.727372123726
 20
76.76763683275044
 30
0.0
 40
0.5
  0
CIRCLE
  5
163
330
6F
100
AcDbEntity
  8
COMMENT
  6
Continuous
100
AcDbCircle
 10
252.7273721223207
 20
76.76763683275044
 30
0.0
 40
0.5
  0
TEXT
  5
164
330
6F
100
AcDbEntity
  8
COMMENT
  6
Continuous
100
AcDbText
 10
237.6273720395768
 20
77.26763683275044
 30
0.0
 40
3.099999904632568
  1
25
100
AcDbText
  0
LINE
  5
165
330
6F
100
AcDbEntity
  8
COMMENT
  6
Continuous
100
AcDbLine
 10
252.7273721223207
 20
118.5364495988187
 30
0.0
 11
252.7273721223207
 21
75.76763683275044
 31
0.0
  0
LINE
  5
166
330
6F
100
AcDbEntity
  8
COMMENT
  6
Continuous
100
AcDbLine
 10
632.7412277178912
 20
117.03644960034
 30
0.0
 11
632.7412277178912
 21
74.79315050967966
 31
0.0
  0
LINE
  5
167
330
6F
100
AcDbEntity
  8
COMMENT
  6
Continuous
100
AcDbLine
 10
632.7412277178912
 20
75.79315050967966
 30
0.0
 11
607.7412277207444
 21
75.79315050967966
 31
0.0
  0
CIRCLE
  5
168
330
6F
100
AcDbEntity
  8
COMMENT
  6
Continuous
100
AcDbCircle
 10
632.7412277178912
 20
75.79315050967966
 30
0.0
 40
0.5
  0
CIRCLE
  5
169
330
6F
100
AcDbEntity
  8
COMMENT
  6
Continuous
100
AcDbCircle
 10
607.7412277207444
 20
75.79315050967966
 30
0.0
 40
0.5
  0
TEXT
  5
16A
330
6F
100
AcDbEntity
  8
COMMENT
  6
Continuous
100
AcDbText
 10
617.6412276358712
 20
76.29315050967966
 30
0.0
 40
3.099999904632568
  1
25
100
AcDbText
  0
LINE
  5
16B
330
6F
100
AcDbEntity
  8
COMMENT
  6
Continuous
100
AcDbLine
 10
607.7412277207444
 20
75.79315050967966
 30
0.0
 11
582.7412277193388
 21
75.79315050967966
 31
0.0
  0
CIRCLE
  5
16C
330
6F
100
AcDbEntity
  8
COMMENT
  6
Continuous
100
AcDbCircle
 10
607.7412277207444
 20
75.79315050967966
 30
0.0
 40
0.5
  0
CIRCLE
  5
16D
330
6F
100
AcDbEntity
  8
COMMENT
  6
Continuous
100
AcDbCircle
 10
582.7412277193388
 20
75.79315050967966
 30
0.0
 40
0.5
  0
TEXT
  5
16E
330
6F
100
AcDbEntity
  8
COMMENT
  6
Continuous
100
AcDbText
 10
592.6412276365952
 20
76.29315050967966
 30
0.0
 40
3.099999904632568
  1
25
100
AcDbText
  0
LINE
  5
16F
330
6F
100
AcDbEntity
  8
COMMENT
  6
Continuous
100
AcDbLine
 10
582.7412277193388
 20
117.0364495977036
 30
0.0
 11
582.7412277193388
 21
74.79315050967966
 31
0.0
  0
LINE
  5
170
330
6F
100
AcDbEntity
  8
COMMENT
  6
Continuous
100
AcDbLine
 10
581.9412277074174
 20
266.8364496096256
 30
0.0
 11
550.138364187666
 21
266.8364496096256
 31
0.0
  0
LINE
  5
171
330
6F
100
AcDbEntity
  8
COMMENT
  6
Continuous
100
AcDbLine
 10
551.138364187666
 20
266.8364496096256
 30
0.0
 11
551.138364187666
 21
116.8364496096263
 31
0.0
  0
CIRCLE
  5
172
330
6F
100
AcDbEntity
  8
COMMENT
  6
Continuous
100
AcDbCircle
 10
551.138364187666
 20
266.8364496096256
 30
0.0
 40
0.5
  0
CIRCLE
  5
173
330
6F
100
AcDbEntity
  8
COMMENT
  6
Continuous
100
AcDbCircle
 10
551.138364187666
 20
116.8364496096263
 30
0.0
 40
0.5
  0
TEXT
  5
174
330
6F
100
AcDbEntity
  8
COMMENT
  6
Continuous
100
AcDbText
 10
550.638364187666
 20
187.8414494856483
 30
0.0
 40
3.099999904632568
  1
150
 50
90.0
100
AcDbText
  0
LINE
  5
175
330
6F
100
AcDbEntity
  8
COMMENT
  6
Continuous
100
AcDbLine
 10
574.7107893470772
 20
126.8364496096274
 30
0.0
 11
562.8742848343968
 21
126.8364496096274
 31
0.0
  0
LINE
  5
176
330
6F
100
AcDbEntity
  8
COMMENT
  6
Continuous
100
AcDbLine
 10
563.8742848343967
 20
126.8364496096274
 30
0.0
 11
563.8742848343967
 21
116.8364496096263
 31
0.0
  0
CIRCLE
  5
177
330
6F
100
AcDbEntity
  8
COMMENT
  6
Continuous
100
AcDbCircle
 10
563.8742848343967
 20
126.8364496096274
 30
0.0
 40
0.5
  0
CIRCLE
  5
178
330
6F
100
AcDbEntity
  8
COMMENT
  6
Continuous
100
AcDbCircle
 10
563.8742848343967
 20
116.8364496096263
 30
0.0
 40
0.5
  0
TEXT
  5
179
330
6F
100
AcDbEntity
  8
COMMENT
  6
Continuous
100
AcDbText
 10
563.3742848343967
 20
119.2364495261804
 30
0.0
 40
3.099999904632568
  1
10
 50
90.0
100
AcDbText
  0
LINE
  5
17A
330
6F
100
AcDbEntity
  8
COMMENT
  6
Continuous
100
AcDbLine
 10
581.9412277074174
 20
117.8364496096255
 30
0.0
 11
573.9002450035338
 21
117.8364496096255
 31
0.0
  0
LINE
  5
17B
330
6F
100
AcDbEntity
  8
COMMENT
  6
Continuous
100
AcDbLine
 10
574.9002450035337
 20
122.3845662935855
 30
0.0
 11
574.9002450035337
 21
116.8364496096263
 31
0.0
  0
CIRCLE
  5
17C
330
6F
100
AcDbEntity
  8
COMMENT
  6
Continuous
100
AcDbCircle
 10
574.9002450035337
 20
117.8364496096255
 30
0.0
 40
0.5
  0
CIRCLE
  5
17D
330
6F
100
AcDbEntity
  8
COMMENT
  6
Continuous
100
AcDbCircle
 10
574.9002450035337
 20
116.8364496096263
 30
0.0
 40
0.5
  0
TEXT
  5
17E
330
6F
100
AcDbEntity
  8
COMMENT
  6
Continuous
100
AcDbText
 10
574.4002450035337
 20
119.7845662425187
 30
0.0
 40
3.099999904632568
  1
1
 50
90.0
100
AcDbText
  0
LINE
  5
17F
330
6F
100
AcDbEntity
  8
COMMENT
  6
Continuous
100
AcDbLine
 10
582.741227719338
 20
267.6364496215465
 30
0.0
 11
582.741227719338
 21
281.5323122056417
 31
0.0
  0
LINE
  5
180
330
6F
100
AcDbEntity
  8
COMMENT
  6
Continuous
100
AcDbLine
 10
582.741227719338
 20
280.5323122056417
 30
0.0
 11
632.7412277185121
 21
280.5323122056417
 31
0.0
  0
CIRCLE
  5
181
330
6F
100
AcDbEntity
  8
COMMENT
  6
Continuous
100
AcDbCircle
 10
582.741227719338
 20
280.5323122056417
 30
0.0
 40
0.5
  0
CIRCLE
  5
182
330
6F
100
AcDbEntity
  8
COMMENT
  6
Continuous
100
AcDbCircle
 10
632.7412277185121
 20
280.5323122056417
 30
0.0
 40
0.5
  0
TEXT
  5
183
330
6F
100
AcDbEntity
  8
COMMENT
  6
Continuous
100
AcDbText
 10
605.1412276354787
 20
281.0323122056417
 30
0.0
 40
3.099999904632568
  1
50
100
AcDbText
  0
LINE
  5
184
330
6F
100
AcDbEntity
  8
COMMENT
  6
Continuous
100
AcDbLine
 10
632.7412277185121
 20
267.6364496215465
 30
0.0
 11
632.7412277185121
 21
281.5323122056417
 31
0.0
  0
LINE
  5
185
330
6F
100
AcDbEntity
  8
COMMENT
  6
Continuous
100
AcDbLine
 10
252.7273721229414
 20
521.555569124222
 30
0.0
 11
252.7273721229414
 21
535.0578237264476
 31
0.0
  0
LINE
  5
186
330
6F
100
AcDbEntity
  8
COMMENT
  6
Continuous
100
AcDbLine
 10
252.7273721229414
 20
534.0578237264476
 30
0.0
 11
202.7273721237677
 21
534.0578237264476
 31
0.0
  0
CIRCLE
  5
187
330
6F
100
AcDbEntity
  8
COMMENT
  6
Continuous
100
AcDbCircle
 10
252.7273721229414
 20
534.0578237264476
 30
0.0
 40
0.5
  0
CIRCLE
  5
188
330
6F
100
AcDbEntity
  8
COMMENT
  6
Continuous
100
AcDbCircle
 10
202.7273721237677
 20
534.0578237264476
 30
0.0
 40
0.5
  0
TEXT
  5
189
330
6F
100
AcDbEntity
  8
COMMENT
  6
Continuous
100
AcDbText
 10
225.127372039908
 20
534.5578237264476
 30
0.0
 40
3.099999904632568
  1
50
100
AcDbText
  0
LINE
  5
18A
330
6F
100
AcDbEntity
  8
COMMENT
  6
Continuous
100
AcDbLine
 10
202.7273721237677
 20
521.555569124222
 30
0.0
 11
202.7273721237677
 21
535.0578237264476
 31
0.0
  0
LINE
  5
18B
330
6F
100
AcDbEntity
  8
COMMENT
  6
Continuous
100
AcDbLine
 10
252.7273721229416
 20
269.136449621546
 30
0.0
 11
252.7273721229416
 21
282.2982677848802
 31
0.0
  0
LINE
  5
18C
330
6F
100
AcDbEntity
  8
COMMENT
  6
Continuous
100
AcDbLine
 10
252.7273721229416
 20
281.2982677848802
 30
0.0
 11
202.7273721237679
 21
281.2982677848802
 31
0.0
  0
CIRCLE
  5
18D
330
6F
100
AcDbEntity
  8
COMMENT
  6
Continuous
100
AcDbCircle
 10
252.7273721229416
 20
281.2982677848802
 30
0.0
 40
0.5
  0
CIRCLE
  5
18E
330
6F
100
AcDbEntity
  8
COMMENT
  6
Continuous
100
AcDbCircle
 10
202.7273721237679
 20
281.2982677848802
 30
0.0
 40
0.5
  0
TEXT
  5
18F
330
6F
100
AcDbEntity
  8
COMMENT
  6
Continuous
100
AcDbText
 10
225.1273720399082
 20
281.7982677848802
 30
0.0
 40
3.099999904632568
  1
50
100
AcDbText
  0
LINE
  5
190
330
6F
100
AcDbEntity
  8
COMMENT
  6
Continuous
100
AcDbLine
 10
202.7273721237679
 20
269.136449621546
 30
0.0
 11
202.7273721237679
 21
282.2982677848802
 31
0.0
  0
LINE
  5
191
330
6F
100
AcDbEntity
  8
COMMENT
  6
Continuous
100
AcDbLine
 10
201.9273721118467
 20
520.7555691123011
 30
0.0
 11
172.420753923119
 21
520.7555691123011
 31
0.0
  0
LINE
  5
192
330
6F
100
AcDbEntity
  8
COMMENT
  6
Continuous
100
AcDbLine
 10
173.420753923119
 20
520.7555691123011
 30
0.0
 11
173.420753923119
 21
370.7555691123014
 31
0.0
  0
CIRCLE
  5
193
330
6F
100
AcDbEntity
  8
COMMENT
  6
Continuous
100
AcDbCircle
 10
173.420753923119
 20
520.7555691123011
 30
0.0
 40
0.5
  0
CIRCLE
  5
194
330
6F
100
AcDbEntity
  8
COMMENT
  6
Continuous
100
AcDbCircle
 10
173.420753923119
 20
370.7555691123014
 30
0.0
 40
0.5
  0
TEXT
  5
195
330
6F
100
AcDbEntity
  8
COMMENT
  6
Continuous
100
AcDbText
 10
172.920753923119
 20
441.7605689883235
 30
0.0
 40
3.099999904632568
  1
150
 50
90.0
100
AcDbText
  0
LINE
  5
196
330
6F
100
AcDbEntity
  8
COMMENT
  6
Continuous
100
AcDbLine
 10
201.927372111847
 20
268.3364496096251
 30
0.0
 11
173.1866948932484
 21
268.3364496096251
 31
0.0
  0
LINE
  5
197
330
6F
100
AcDbEntity
  8
COMMENT
  6
Continuous
100
AcDbLine
 10
174.1866948932484
 20
268.3364496096251
 30
0.0
 11
174.1866948932484
 21
118.336449609626
 31
0.0
  0
CIRCLE
  5
198
330
6F
100
AcDbEntity
  8
COMMENT
  6
Continuous
100
AcDbCircle
 10
174.1866948932484
 20
268.3364496096251
 30
0.0
 40
0.5
  0
CIRCLE
  5
199
330
6F
100
AcDbEntity
  8
COMMENT
  6
Continuous
100
AcDbCircle
 10
174.1866948932484
 20
118.336449609626
 30
0.0
 40
0.5
  0
TEXT
  5
19A
330
6F
100
AcDbEntity
  8
COMMENT
  6
Continuous
100
AcDbText
 10
173.6866948932485
 20
189.3414494856479
 30
0.0
 40
3.099999904632568
  1
150
 50
90.0
100
AcDbText
  0
LINE
  5
19B
330
6F
100
AcDbEntity
  8
COMMENT
  6
Continuous
100
AcDbLine
 10
194.6969337500588
 20
128.336449609626
 30
0.0
 11
187.7367351705698
 21
128.336449609626
 31
0.0
  0
LINE
  5
19C
330
6F
100
AcDbEntity
  8
COMMENT
  6
Continuous
100
AcDbLine
 10
188.7367351705698
 20
128.336449609626
 30
0.0
 11
188.7367351705698
 21
118.336449609626
 31
0.0
  0
CIRCLE
  5
19D
330
6F
100
AcDbEntity
  8
COMMENT
  6
Continuous
100
AcDbCircle
 10
188.7367351705698
 20
128.336449609626
 30
0.0
 40
0.5
  0
CIRCLE
  5
19E
330
6F
100
AcDbEntity
  8
COMMENT
  6
Continuous
100
AcDbCircle
 10
188.7367351705698
 20
118.336449609626
 30
0.0
 40
0.5
  0
TEXT
  5
19F
330
6F
100
AcDbEntity
  8
COMMENT
  6
Continuous
100
AcDbText
 10
188.2367351705698
 20
120.7364495261795
 30
0.0
 40
3.099999904632568
  1
10
 50
90.0
100
AcDbText
  0
LINE
  5
1A0
330
6F
100
AcDbEntity
  8
COMMENT
  6
Continuous
100
AcDbLine
 10
201.927372111847
 20
119.3364496096251
 30
0.0
 11
195.0767392890435
 21
119.3364496096251
 31
0.0
  0
LINE
  5
1A1
330
6F
100
AcDbEntity
  8
COMMENT
  6
Continuous
100
AcDbLine
 10
196.0767392890435
 20
123.5647439821837
 30
0.0
 11
196.0767392890435
 21
118.336449609626
 31
0.0
  0
CIRCLE
  5
1A2
330
6F
100
AcDbEntity
  8
COMMENT
  6
Continuous
100
AcDbCircle
 10
196.0767392890435
 20
119.3364496096251
 30
0.0
 40
0.5
  0
CIRCLE
  5
1A3
330
6F
100
AcDbEntity
  8
COMMENT
  6
Continuous
100
AcDbCircle
 10
196.0767392890435
 20
118.336449609626
 30
0.0
 40
0.5
  0
TEXT
  5
1A4
330
6F
100
AcDbEntity
  8
COMMENT
  6
Continuous
100
AcDbText
 10
195.5767392890435
 20
120.9647438125578
 30
0.0
 40
3.099999904632568
  1
1
 50
90.0
100
AcDbText
  0
LINE
  5
1A5
330
6F
100
AcDbEntity
  8
COMMENT
  6
Continuous
100
AcDbLine
 10
194.6969337515066
 20
380.7555691123031
 30
0.0
 11
185.271816249213
 21
380.7555691123031
 31
0.0
  0
LINE
  5
1A6
330
6F
100
AcDbEntity
  8
COMMENT
  6
Continuous
100
AcDbLine
 10
186.271816249213
 20
380.7555691123031
 30
0.0
 11
186.271816249213
 21
370.7555691123014
 31
0.0
  0
CIRCLE
  5
1A7
330
6F
100
AcDbEntity
  8
COMMENT
  6
Continuous
100
AcDbCircle
 10
186.271816249213
 20
380.7555691123031
 30
0.0
 40
0.5
  0
CIRCLE
  5
1A8
330
6F
100
AcDbEntity
  8
COMMENT
  6
Continuous
100
AcDbCircle
 10
186.271816249213
 20
370.7555691123014
 30
0.0
 40
0.5
  0
TEXT
  5
1A9
330
6F
100
AcDbEntity
  8
COMMENT
  6
Continuous
100
AcDbText
 10
185.771816249213
 20
373.1555690288557
 30
0.0
 40
3.099999904632568
  1
10
 50
90.0
100
AcDbText
  0
LINE
  5
1AA
330
6F
100
AcDbEntity
  8
COMMENT
  6
Continuous
100
AcDbLine
 10
201.9273721118467
 20
371.7555691123012
 30
0.0
 11
196.2428328616005
 21
371.7555691123012
 31
0.0
  0
LINE
  5
1AB
330
6F
100
AcDbEntity
  8
COMMENT
  6
Continuous
100
AcDbLine
 10
197.2428328616005
 20
375.9585176825527
 30
0.0
 11
197.2428328616005
 21
370.7555691123014
 31
0.0
  0
CIRCLE
  5
1AC
330
6F
100
AcDbEntity
  8
COMMENT
  6
Continuous
100
AcDbCircle
 10
197.2428328616005
 20
371.7555691123012
 30
0.0
 40
0.5
  0
CIRCLE
  5
1AD
330
6F
100
AcDbEntity
  8
COMMENT
  6
Continuous
100
AcDbCircle
 10
197.2428328616005
 20
370.7555691123014
 30
0.0
 40
0.5
  0
TEXT
  5
1AE
330
6F
100
AcDbEntity
  8
COMMENT
  6
Continuous
100
AcDbText
 10
196.7428328616005
 20
373.3585174290123
 30
0.0
 40
3.099999904632568
  1
1
 50
90.0
100
AcDbText
  0
LINE
  5
1AF
330
6F
100
AcDbEntity
  8
COMMENT
  6
Continuous
100
AcDbLine
 10
252.7273721223205
 20
370.9555691003791
 30
0.0
 11
252.7273721223205
 21
312.6354272753915
 31
0.0
  0
LINE
  5
1B0
330
6F
100
AcDbEntity
  8
COMMENT
  6
Continuous
100
AcDbLine
 10
252.7273721223205
 20
313.6354272753915
 30
0.0
 11
227.7273721252
 21
313.6354272753915
 31
0.0
  0
CIRCLE
  5
1B1
330
6F
100
AcDbEntity
  8
COMMENT
  6
Continuous
100
AcDbCircle
 10
252.7273721223205
 20
313.6354272753915
 30
0.0
 40
0.5
  0
CIRCLE
  5
1B2
330
6F
100
AcDbEntity
  8
COMMENT
  6
Continuous
100
AcDbCircle
 10
227.7273721252
 20
313.6354272753915
 30
0.0
 40
0.5
  0
TEXT
  5
1B3
330
6F
100
AcDbEntity
  8
COMMENT
  6
Continuous
100
AcDbText
 10
237.6273720403137
 20
314.1354272753915
 30
0.0
 40
3.099999904632568
  1
25
100
AcDbText
  0
LINE
  5
1B4
330
6F
100
AcDbEntity
  8
COMMENT
  6
Continuous
100
AcDbLine
 10
227.7273721252
 20
313.6354272753915
 30
0.0
 11
202.7273721237681
 21
313.6354272753915
 31
0.0
  0
CIRCLE
  5
1B5
330
6F
100
AcDbEntity
  8
COMMENT
  6
Continuous
100
AcDbCircle
 10
227.7273721252
 20
313.6354272753915
 30
0.0
 40
0.5
  0
CIRCLE
  5
1B6
330
6F
100
AcDbEntity
  8
COMMENT
  6
Continuous
100
AcDbCircle
 10
202.7273721237681
 20
313.6354272753915
 30
0.0
 40
0.5
  0
TEXT
  5
1B7
330
6F
100
AcDbEntity
  8
COMMENT
  6
Continuous
100
AcDbText
 10
212.6273720410376
 20
314.1354272753915
 30
0.0
 40
3.099999904632568
  1
25
100
AcDbText
  0
LINE
  5
1B8
330
6F
100
AcDbEntity
  8
COMMENT
  6
Continuous
100
AcDbLine
 10
202.7273721237681
 20
370.9555691003793
 30
0.0
 11
202.7273721237681
 21
312.6354272753915
 31
0.0
  0
TEXT
  5
1B9
330
6F
100
AcDbEntity
  8
WAKU
  6
Continuous
100
AcDbText
 10
38.64675006063919
 20
555.4024753726626
 30
0.0
 40
12.0
  1
直付タイプ
  7
KNJYOKO
100
AcDbText
  0
LINE
  5
1BA
330
6F
100
AcDbEntity
  8
UKEZAI
  6
Continuous
100
AcDbLine
 10
249.4273721237698
 20
373.7555691123014
 30
0.0
 11
249.4273721237698
 21
380.7555691123014
 31
0.0
  0
LINE
  5
1BB
330
6F
100
AcDbEntity
  8
UKEZAI
  6
Continuous
100
AcDbLine
 10
250.9273721238236
 20
372.7555691120144
 30
0.0
 11
250.7398721237698
 21
373.7555691123017
 31
0.0
  0
LINE
  5
1BC
330
6F
100
AcDbEntity
  8
UKEZAI
  6
Continuous
100
AcDbLine
 10
250.9273721238213
 20
370.7555691123012
 30
0.0
 11
250.9273721238235
 21
372.7555691120145
 31
0.0
  0
LINE
  5
1BD
330
6F
100
AcDbEntity
  8
UKEZAI
  6
Continuous
100
AcDbLine
 10
247.9273721237698
 20
372.2555691123014
 30
0.0
 11
247.9273721237698
 21
385.0055691123015
 31
0.0
  0
LINE
  5
1BE
330
6F
100
AcDbEntity
  8
UKEZAI
  6
Continuous
100
AcDbLine
 10
249.4273721237693
 20
380.7555691122558
 30
0.0
 11
250.7273721238691
 21
380.7555691122569
 31
0.0
  0
LINE
  5
1BF
330
6F
100
AcDbEntity
  8
UKEZAI
  6
Continuous
100
AcDbLine
 10
249.4273721237698
 20
373.7555691123014
 30
0.0
 11
250.7398721237698
 21
373.7555691123014
 31
0.0
  0
LINE
  5
1C0
330
6F
100
AcDbEntity
  8
UKEZAI
  6
Continuous
100
AcDbLine
 10
227.7273721237697
 20
370.7555691123013
 30
0.0
 11
250.9273721238212
 21
370.7555691123013
 31
0.0
  0
ARC
  5
1C1
330
6F
100
AcDbEntity
  8
UKEZAI
  6
Continuous
100
AcDbCircle
 10
227.7273721237696
 20
372.2555691123016
 30
0.0
 40
0.3
100
AcDbArc
 50
270.0
 51
0.0
  0
ARC
  5
1C2
330
6F
100
AcDbEntity
  8
UKEZAI
  6
Continuous
100
AcDbCircle
 10
248.6773721237696
 20
385.0055691123017
 30
0.0
 40
0.75
100
AcDbArc
 50
19.88796430577382
 51
180.0
  0
ARC
  5
1C3
330
6F
100
AcDbEntity
  8
UKEZAI
  6
Continuous
100
AcDbCircle
 10
250.7273721238689
 20
380.9555691122568
 30
0.0
 40
0.2
100
AcDbArc
 50
270.0
 51
19.88796430577186
  0
LINE
  5
1C4
330
6F
100
AcDbEntity
  8
UKEZAI
  6
Continuous
100
AcDbLine
 10
250.9154440453173
 20
381.0236055169444
 30
0.0
 11
249.3826418292004
 21
385.2607056298796
 31
0.0
  0
ARC
  5
1C5
330
6F
100
AcDbEntity
  8
UKEZAI
  6
HIDDEN
100
AcDbCircle
 10
229.7273721237696
 20
372.2555691123016
 30
0.0
 40
0.3
100
AcDbArc
 50
0.0
 51
180.0
  0
LINE
  5
1C6
330
6F
100
AcDbEntity
  8
UKEZAI
  6
HIDDEN
100
AcDbLine
 10
228.0273721237697
 20
372.2555691123014
 30
0.0
 11
229.4273721237698
 21
372.2555691123014
 31
0.0
  0
LINE
  5
1C7
330
6F
100
AcDbEntity
  8
UKEZAI
  6
Continuous
100
AcDbLine
 10
230.0273721237697
 20
372.2555691123014
 30
0.0
 11
247.9273721237698
 21
372.2555691123014
 31
0.0
  0
LINE
  5
1C8
330
6F
100
AcDbEntity
  8
UKEZAI
  6
Continuous
100
AcDbLine
 10
206.0273721237697
 20
373.7555691123014
 30
0.0
 11
206.0273721237697
 21
380.7555691123014
 31
0.0
  0
LINE
  5
1C9
330
6F
100
AcDbEntity
  8
UKEZAI
  6
Continuous
100
AcDbLine
 10
204.5273721237157
 20
372.7555691120145
 30
0.0
 11
204.7148721237696
 21
373.7555691123017
 31
0.0
  0
LINE
  5
1CA
330
6F
100
AcDbEntity
  8
UKEZAI
  6
Continuous
100
AcDbLine
 10
204.527372123718
 20
370.7555691123013
 30
0.0
 11
204.5273721237158
 21
372.7555691120143
 31
0.0
  0
LINE
  5
1CB
330
6F
100
AcDbEntity
  8
UKEZAI
  6
Continuous
100
AcDbLine
 10
207.5273721237697
 20
372.2555691123014
 30
0.0
 11
207.5273721237697
 21
385.0055691123015
 31
0.0
  0
LINE
  5
1CC
330
6F
100
AcDbEntity
  8
UKEZAI
  6
Continuous
100
AcDbLine
 10
206.0273721237699
 20
380.7555691122561
 30
0.0
 11
204.7273721236701
 21
380.7555691122571
 31
0.0
  0
LINE
  5
1CD
330
6F
100
AcDbEntity
  8
UKEZAI
  6
Continuous
100
AcDbLine
 10
206.0273721237697
 20
373.7555691123014
 30
0.0
 11
204.7148721237697
 21
373.7555691123014
 31
0.0
  0
LINE
  5
1CE
330
6F
100
AcDbEntity
  8
UKEZAI
  6
Continuous
100
AcDbLine
 10
227.7273721237696
 20
370.7555691123014
 30
0.0
 11
204.5273721237179
 21
370.7555691123014
 31
0.0
  0
ARC
  5
1CF
330
6F
100
AcDbEntity
  8
UKEZAI
  6
Continuous
100
AcDbCircle
 10
227.7273721237696
 20
372.2555691123016
 30
0.0
 40
0.3
100
AcDbArc
 50
180.0
 51
270.0
  0
ARC
  5
1D0
330
6F
100
AcDbEntity
  8
UKEZAI
  6
Continuous
100
AcDbCircle
 10
206.7773721237695
 20
385.0055691123017
 30
0.0
 40
0.75
100
AcDbArc
 50
0.0
 51
160.1120356942262
  0
ARC
  5
1D1
330
6F
100
AcDbEntity
  8
UKEZAI
  6
Continuous
100
AcDbCircle
 10
204.7273721236702
 20
380.9555691122568
 30
0.0
 40
0.2
100
AcDbArc
 50
160.1120356942281
 51
270.0
  0
LINE
  5
1D2
330
6F
100
AcDbEntity
  8
UKEZAI
  6
Continuous
100
AcDbLine
 10
204.5393002022222
 20
381.023605516944
 30
0.0
 11
206.0721024183391
 21
385.2607056298792
 31
0.0
  0
ARC
  5
1D3
330
6F
100
AcDbEntity
  8
UKEZAI
  6
HIDDEN
100
AcDbCircle
 10
225.7273721237696
 20
372.2555691123016
 30
0.0
 40
0.3
100
AcDbArc
 50
0.0
 51
180.0
  0
LINE
  5
1D4
330
6F
100
AcDbEntity
  8
UKEZAI
  6
HIDDEN
100
AcDbLine
 10
227.4273721237698
 20
372.2555691123014
 30
0.0
 11
226.0273721237697
 21
372.2555691123014
 31
0.0
  0
LINE
  5
1D5
330
6F
100
AcDbEntity
  8
UKEZAI
  6
Continuous
100
AcDbLine
 10
225.4273721237698
 20
372.2555691123014
 30
0.0
 11
207.5273721237697
 21
372.2555691123014
 31
0.0
  0
LINE
  5
1D6
330
6F
100
AcDbEntity
  8
WASHER
  6
Continuous
100
AcDbLine
 10
212.7273721234328
 20
374.2555691123016
 30
0.0
 11
242.7273721234328
 21
374.2555691123016
 31
0.0
  0
LINE
  5
1D7
330
6F
100
AcDbEntity
  8
WASHER
  6
Continuous
100
AcDbLine
 10
242.7273721234328
 20
372.2555691123016
 30
0.0
 11
242.7273721234328
 21
374.2555691123016
 31
0.0
  0
LINE
  5
1D8
330
6F
100
AcDbEntity
  8
WASHER
  6
Continuous
100
AcDbLine
 10
212.7273721234328
 20
372.2555691123016
 30
0.0
 11
212.7273721234328
 21
374.2555691123016
 31
0.0
  0
LINE
  5
1D9
330
6F
100
AcDbEntity
  8
KUTAI
  6
Continuous
100
AcDbLine
 10
320.1307796053935
 20
370.7555691123014
 30
0.0
 11
117.957215493353
 21
370.7555691123014
 31
0.0
  0
LINE
  5
1DA
330
6F
100
AcDbEntity
  8
ANCHOR
  6
HIDDEN
100
AcDbLine
 10
212.2273721249206
 20
382.7555691124107
 30
0.0
 11
202.7273721235919
 21
382.7555691124511
 31
0.0
  0
LINE
  5
1DB
330
6F
100
AcDbEntity
  8
ANCHOR
  6
HIDDEN
100
AcDbLine
 10
212.2273721254757
 20
378.7555691124107
 30
0.0
 11
202.7273721235762
 21
378.7555691124511
 31
0.0
  0
LINE
  5
1DC
330
6F
100
AcDbEntity
  8
ANCHOR
  6
HIDDEN
100
AcDbLine
 10
215.1500218556861
 20
381.7555691124194
 30
0.0
 11
213.2273721249313
 21
381.7555691124155
 31
0.0
  0
LINE
  5
1DD
330
6F
100
AcDbEntity
  8
ANCHOR
  6
HIDDEN
100
AcDbLine
 10
215.150021855882
 20
379.7555691124194
 30
0.0
 11
213.2273721254693
 21
379.7555691124155
 31
0.0
  0
LINE
  5
1DE
330
6F
100
AcDbEntity
  8
ANCHOR
  6
HIDDEN
100
AcDbLine
 10
215.7273721249735
 20
380.7555691122592
 30
0.0
 11
215.1500218556861
 21
381.7555691124201
 31
0.0
  0
LINE
  5
1DF
330
6F
100
AcDbEntity
  8
ANCHOR
  6
HIDDEN
100
AcDbLine
 10
215.1500218558827
 20
379.755569112421
 30
0.0
 11
215.7273721249744
 21
380.7555691122599
 31
0.0
  0
ARC
  5
1E0
330
6F
100
AcDbEntity
  8
ANCHOR
  6
HIDDEN
100
AcDbCircle
 10
213.7273721254787
 20
380.7555691124179
 30
0.0
 40
0.5
100
AcDbArc
 50
97.20679386168658
 51
262.7932061387912
  0
LINE
  5
1E1
330
6F
100
AcDbEntity
  8
ANCHOR
  6
HIDDEN
100
AcDbLine
 10
213.6646466890138
 20
380.2595191959569
 30
0.0
 11
215.1500218558819
 21
379.7555691124192
 31
0.0
  0
LINE
  5
1E2
330
6F
100
AcDbEntity
  8
ANCHOR
  6
HIDDEN
100
AcDbLine
 10
213.6646466890101
 20
381.2516190288782
 30
0.0
 11
215.1500218556859
 21
381.7555691124202
 31
0.0
  0
LINE
  5
1E3
330
6F
100
AcDbEntity
  8
ANCHOR
  6
HIDDEN
100
AcDbLine
 10
213.2273721249297
 20
381.7555691124148
 30
0.0
 11
212.2273721249203
 21
382.7555691124121
 31
0.0
  0
LINE
  5
1E4
330
6F
100
AcDbEntity
  8
ANCHOR
  6
HIDDEN
100
AcDbLine
 10
212.2273721254761
 20
378.7555691124146
 30
0.0
 11
213.2273721254688
 21
379.7555691124148
 31
0.0
  0
LINE
  5
1E5
330
6F
100
AcDbEntity
  8
ANCHOR
  6
HIDDEN
100
AcDbLine
 10
212.2273721252072
 20
378.7555691124132
 30
0.0
 11
212.2273721251924
 21
382.7555691124132
 31
0.0
  0
LINE
  5
1E6
330
6F
100
AcDbEntity
  8
ANCHOR
  6
HIDDEN
100
AcDbLine
 10
213.2273721249732
 20
379.7555691124134
 30
0.0
 11
213.2273721249639
 21
381.7555691124134
 31
0.0
  0
LINE
  5
1E7
330
6F
100
AcDbEntity
  8
ANCHOR
  6
HIDDEN
100
AcDbLine
 10
213.0273721254709
 20
379.5555691124135
 30
0.0
 11
202.7273721235803
 21
379.5555691124546
 31
0.0
  0
LINE
  5
1E8
330
6F
100
AcDbEntity
  8
ANCHOR
  6
HIDDEN
100
AcDbLine
 10
213.0273721249297
 20
381.9555691124132
 30
0.0
 11
202.7273721235894
 21
381.9555691124543
 31
0.0
  0
LINE
  5
1E9
330
6F
100
AcDbEntity
  8
ANCHOR
  6
Continuous
100
AcDbLine
 10
200.7050615424423
 20
381.2537673600436
 30
0.0
 11
200.7050615424429
 21
380.2573708645613
 31
0.0
  0
LINE
  5
1EA
330
6F
100
AcDbEntity
  8
ANCHOR
  6
Continuous
100
AcDbLine
 10
200.7050615424421
 20
381.2537673600439
 30
0.0
 11
200.2273721237677
 21
381.2537673600439
 31
0.0
  0
LINE
  5
1EB
330
6F
100
AcDbEntity
  8
ANCHOR
  6
Continuous
100
AcDbLine
 10
200.7050615424425
 20
380.2573708645616
 30
0.0
 11
200.2273721237682
 21
380.2573708645616
 31
0.0
  0
LINE
  5
1EC
330
6F
100
AcDbEntity
  8
ANCHOR
  6
Continuous
100
AcDbLine
 10
202.2273721237847
 20
376.0555691123007
 30
0.0
 11
202.7273721237847
 21
376.055569112301
 31
0.0
  0
ARC
  5
1ED
330
6F
100
AcDbEntity
  8
ANCHOR
  6
Continuous
100
AcDbCircle
 10
206.3188375180907
 20
380.5799376789855
 30
0.0
 40
6.099999999999998
100
AcDbArc
 50
183.0312034848472
 51
227.876411461438
  0
LINE
  5
1EE
330
6F
100
AcDbEntity
  8
ANCHOR
  6
Continuous
100
AcDbLine
 10
202.2273721237507
 20
385.4555691123026
 30
0.0
 11
202.2273721237855
 21
376.0555691123012
 31
0.0
  0
ARC
  5
1EF
330
6F
100
AcDbEntity
  8
ANCHOR
  6
Continuous
100
AcDbCircle
 10
206.3188375180907
 20
380.9312005456231
 30
0.0
 40
6.099999999999998
100
AcDbArc
 50
132.1235885386251
 51
176.9687965152159
  0
LINE
  5
1F0
330
6F
100
AcDbEntity
  8
ANCHOR
  6
Continuous
100
AcDbLine
 10
202.7273721237513
 20
385.455569112304
 30
0.0
 11
202.727372123786
 21
376.0555691123025
 31
0.0
  0
LINE
  5
1F1
330
6F
100
AcDbEntity
  8
ANCHOR
  6
Continuous
100
AcDbLine
 10
202.2273721237802
 20
385.4555691123023
 30
0.0
 11
202.7273721237802
 21
385.4555691123027
 31
0.0
  0
LINE
  5
1F2
330
6F
100
AcDbEntity
  8
WASHER
  6
Continuous
100
AcDbLine
 10
212.7273721234328
 20
372.2555691123016
 30
0.0
 11
242.7273721234328
 21
372.2555691123016
 31
0.0
  0
LINE
  5
1F3
330
6F
100
AcDbEntity
  8
ANCHOR
  6
HIDDEN
100
AcDbLine
 10
227.7273721234749
 20
363.7555691123123
 30
0.0
 11
228.0273721234833
 21
363.7555691123123
 31
0.0
  0
LINE
  5
1F4
330
6F
100
AcDbEntity
  8
ANCHOR
  6
HIDDEN
100
AcDbLine
 10
228.0273721235101
 20
338.2555691123125
 30
0.0
 11
228.0273721234819
 21
363.7555691123126
 31
0.0
  0
LINE
  5
1F5
330
6F
100
AcDbEntity
  8
ANCHOR
  6
HIDDEN
100
AcDbLine
 10
226.0689159441695
 20
330.4272652920453
 30
0.0
 11
223.6982166493242
 21
330.6863360534823
 31
0.0
  0
LINE
  5
1F6
330
6F
100
AcDbEntity
  8
ANCHOR
  6
HIDDEN
100
AcDbLine
 10
223.7273721234807
 20
365.7555691123034
 30
0.0
 11
223.0273721234752
 21
370.7555691123013
 31
0.0
  0
LINE
  5
1F7
330
6F
100
AcDbEntity
  8
ANCHOR
  6
HIDDEN
100
AcDbLine
 10
227.7273721234893
 20
363.7555691123116
 30
0.0
 11
227.4273721234827
 21
363.7555691123109
 31
0.0
  0
LINE
  5
1F8
330
6F
100
AcDbEntity
  8
ANCHOR
  6
HIDDEN
100
AcDbLine
 10
227.4273721235109
 20
338.255569112311
 30
0.0
 11
227.4273721234825
 21
363.7555691123114
 31
0.0
  0
LINE
  5
1F9
330
6F
100
AcDbEntity
  8
ANCHOR
  6
HIDDEN
100
AcDbLine
 10
223.7273721234866
 20
360.2555691123031
 30
0.0
 11
224.7273721234866
 21
359.7555691123057
 31
0.0
  0
LINE
  5
1FA
330
6F
100
AcDbEntity
  8
ANCHOR
  6
HIDDEN
100
AcDbLine
 10
224.7273721234872
 20
359.7555691123062
 30
0.0
 11
224.9773721234958
 21
351.7555691123066
 31
0.0
  0
LINE
  5
1FB
330
6F
100
AcDbEntity
  8
ANCHOR
  6
HIDDEN
100
AcDbLine
 10
223.7273721234875
 20
360.2555691123035
 30
0.0
 11
223.7273721234759
 21
370.7555691123035
 31
0.0
  0
LINE
  5
1FC
330
6F
100
AcDbEntity
  8
ANCHOR
  6
HIDDEN
100
AcDbLine
 10
226.8918576058291
 20
333.3551940858354
 30
0.0
 11
222.6324027755069
 21
333.8206686437424
 31
0.0
  0
LINE
  5
1FD
330
6F
100
AcDbEntity
  8
ANCHOR
  6
HIDDEN
100
AcDbLine
 10
227.0004911829199
 20
334.3492759466139
 30
0.0
 11
223.3871895621033
 21
334.7441386794126
 31
0.0
  0
LINE
  5
1FE
330
6F
100
AcDbEntity
  8
ANCHOR
  6
HIDDEN
100
AcDbLine
 10
223.6982166493257
 20
330.6863360534813
 30
0.0
 11
222.6324027755077
 21
333.8206686437419
 31
0.0
  0
LINE
  5
1FF
330
6F
100
AcDbEntity
  8
ANCHOR
  6
HIDDEN
100
AcDbLine
 10
222.6324027755062
 20
333.8206686437413
 30
0.0
 11
223.3871895621033
 21
334.7441386794121
 31
0.0
  0
LINE
  5
200
330
6F
100
AcDbEntity
  8
ANCHOR
  6
HIDDEN
100
AcDbLine
 10
227.1091247600114
 20
335.3433578073913
 30
0.0
 11
222.8496699296875
 21
335.8088323652983
 31
0.0
  0
LINE
  5
201
330
6F
100
AcDbEntity
  8
ANCHOR
  6
HIDDEN
100
AcDbLine
 10
223.387189562104
 20
334.7441386794116
 30
0.0
 11
222.8496699296887
 21
335.8088323652979
 31
0.0
  0
LINE
  5
202
330
6F
100
AcDbEntity
  8
ANCHOR
  6
HIDDEN
100
AcDbLine
 10
227.2720751256487
 20
336.8344805985589
 30
0.0
 11
223.0126202953246
 21
337.299955156466
 31
0.0
  0
LINE
  5
203
330
6F
100
AcDbEntity
  8
ANCHOR
  6
HIDDEN
100
AcDbLine
 10
222.8496699296879
 20
335.8088323652984
 30
0.0
 11
223.0126202953239
 21
337.2999551564658
 31
0.0
  0
LINE
  5
204
330
6F
100
AcDbEntity
  8
ANCHOR
  6
HIDDEN
100
AcDbLine
 10
223.1918656975243
 20
338.9401902267449
 30
0.0
 11
223.4471546036877
 21
341.2762825995788
 31
0.0
  0
LINE
  5
205
330
6F
100
AcDbEntity
  8
ANCHOR
  6
HIDDEN
100
AcDbLine
 10
227.3263919141914
 20
337.3315215289492
 30
0.0
 11
223.7130902933712
 21
337.7263842617481
 31
0.0
  0
LINE
  5
206
330
6F
100
AcDbEntity
  8
ANCHOR
  6
HIDDEN
100
AcDbLine
 10
227.3807087027382
 20
337.8285624593378
 30
0.0
 11
223.7674070819163
 21
338.223425192137
 31
0.0
  0
LINE
  5
207
330
6F
100
AcDbEntity
  8
ANCHOR
  6
HIDDEN
100
AcDbLine
 10
223.713090293372
 20
337.7263842617474
 30
0.0
 11
223.0126202953234
 21
337.2999551564657
 31
0.0
  0
LINE
  5
208
330
6F
100
AcDbEntity
  8
ANCHOR
  6
HIDDEN
100
AcDbLine
 10
223.7130902933732
 20
337.7263842617469
 30
0.0
 11
223.7674070819173
 21
338.2234251921362
 31
0.0
  0
LINE
  5
209
330
6F
100
AcDbEntity
  8
ANCHOR
  6
HIDDEN
100
AcDbLine
 10
223.7674070819152
 20
338.2234251921371
 30
0.0
 11
223.191865697522
 21
338.9401902267457
 31
0.0
  0
LINE
  5
20A
330
6F
100
AcDbEntity
  8
ANCHOR
  6
HIDDEN
100
AcDbLine
 10
227.0258493024886
 20
340.8852017220568
 30
0.0
 11
223.4471546036859
 21
341.2762825995792
 31
0.0
  0
LINE
  5
20B
330
6F
100
AcDbEntity
  8
ANCHOR
  6
HIDDEN
100
AcDbLine
 10
224.0933078131907
 20
341.2056707744711
 30
0.0
 11
224.1476246017349
 21
341.7027117048601
 31
0.0
  0
LINE
  5
20C
330
6F
100
AcDbEntity
  8
ANCHOR
  6
HIDDEN
100
AcDbLine
 10
227.0801660910341
 20
341.3822426524467
 30
0.0
 11
224.1476246017333
 21
341.7027117048613
 31
0.0
  0
LINE
  5
20D
330
6F
100
AcDbEntity
  8
ANCHOR
  6
HIDDEN
100
AcDbLine
 10
224.1476246017321
 20
341.702711704859
 30
0.0
 11
223.5720832173387
 21
342.4194767394674
 31
0.0
  0
LINE
  5
20E
330
6F
100
AcDbEntity
  8
ANCHOR
  6
HIDDEN
100
AcDbLine
 10
223.8273721235076
 20
342.4055691122989
 30
0.0
 11
223.8273721235049
 21
344.7555691123039
 31
0.0
  0
LINE
  5
20F
330
6F
100
AcDbEntity
  8
ANCHOR
  6
HIDDEN
100
AcDbLine
 10
227.4273721235044
 20
344.755569112311
 30
0.0
 11
223.8273721235041
 21
344.7555691123032
 31
0.0
  0
LINE
  5
210
330
6F
100
AcDbEntity
  8
ANCHOR
  6
HIDDEN
100
AcDbLine
 10
224.4773721234997
 20
344.7555691123043
 30
0.0
 11
224.4773721234979
 21
345.2555691123043
 31
0.0
  0
LINE
  5
211
330
6F
100
AcDbEntity
  8
ANCHOR
  6
HIDDEN
100
AcDbLine
 10
227.4273721235045
 20
345.2555691123116
 30
0.0
 11
224.4773721234983
 21
345.255569112305
 31
0.0
  0
LINE
  5
212
330
6F
100
AcDbEntity
  8
ANCHOR
  6
HIDDEN
100
AcDbLine
 10
224.4773721234977
 20
345.2555691123055
 30
0.0
 11
223.8273721235015
 21
345.905569112299
 31
0.0
  0
LINE
  5
213
330
6F
100
AcDbEntity
  8
ANCHOR
  6
HIDDEN
100
AcDbLine
 10
223.8273721235035
 20
345.9055691122987
 30
0.0
 11
223.8273721235008
 21
348.2555691123037
 31
0.0
  0
LINE
  5
214
330
6F
100
AcDbEntity
  8
ANCHOR
  6
HIDDEN
100
AcDbLine
 10
227.427372123501
 20
348.2555691123121
 30
0.0
 11
223.8273721235007
 21
348.255569112304
 31
0.0
  0
LINE
  5
215
330
6F
100
AcDbEntity
  8
ANCHOR
  6
HIDDEN
100
AcDbLine
 10
224.4773721234977
 20
348.2555691123051
 30
0.0
 11
224.4773721234961
 21
348.7555691123051
 31
0.0
  0
LINE
  5
216
330
6F
100
AcDbEntity
  8
ANCHOR
  6
HIDDEN
100
AcDbLine
 10
227.4273721235005
 20
348.7555691123121
 30
0.0
 11
224.4773721234961
 21
348.7555691123055
 31
0.0
  0
LINE
  5
217
330
6F
100
AcDbEntity
  8
ANCHOR
  6
HIDDEN
100
AcDbLine
 10
224.4773721234946
 20
348.7555691123051
 30
0.0
 11
223.8273721234984
 21
349.4055691122985
 31
0.0
  0
LINE
  5
218
330
6F
100
AcDbEntity
  8
ANCHOR
  6
HIDDEN
100
AcDbLine
 10
223.8273721235006
 20
348.2555691123039
 30
0.0
 11
223.8273721234967
 21
351.7555691123042
 31
0.0
  0
LINE
  5
219
330
6F
100
AcDbEntity
  8
ANCHOR
  6
HIDDEN
100
AcDbLine
 10
227.4273721234962
 20
351.7555691123116
 30
0.0
 11
223.7273721233555
 21
351.7555691123034
 31
0.0
  0
LINE
  5
21A
330
6F
100
AcDbEntity
  8
ANCHOR
  6
HIDDEN
100
AcDbLine
 10
227.4273721234953
 20
352.2555691123118
 30
0.0
 11
224.9617471234946
 21
352.2555691123063
 31
0.0
  0
LINE
  5
21B
330
6F
100
AcDbEntity
  8
ANCHOR
  6
HIDDEN
100
AcDbLine
 10
227.4273721234893
 20
355.2555691123123
 30
0.0
 11
224.8679971234922
 21
355.2555691123066
 31
0.0
  0
LINE
  5
21C
330
6F
100
AcDbEntity
  8
ANCHOR
  6
HIDDEN
100
AcDbLine
 10
227.4273721234866
 20
355.7555691123118
 30
0.0
 11
224.8523721234914
 21
355.7555691123062
 31
0.0
  0
LINE
  5
21D
330
6F
100
AcDbEntity
  8
ANCHOR
  6
HIDDEN
100
AcDbLine
 10
227.4273721234815
 20
358.7555691123115
 30
0.0
 11
224.758622123488
 21
358.7555691123056
 31
0.0
  0
LINE
  5
21E
330
6F
100
AcDbEntity
  8
ANCHOR
  6
HIDDEN
100
AcDbLine
 10
227.4273721234794
 20
359.2555691123118
 30
0.0
 11
224.7429971234878
 21
359.2555691123059
 31
0.0
  0
LINE
  5
21F
330
6F
100
AcDbEntity
  8
ANCHOR
  6
HIDDEN
100
AcDbLine
 10
227.4273721235093
 20
338.2555691122996
 30
0.0
 11
226.6202736631017
 21
330.8699894338886
 31
0.0
  0
ARC
  5
220
330
6F
100
AcDbEntity
  8
ANCHOR
  6
HIDDEN
100
AcDbCircle
 10
226.123232732715
 20
330.9243062224343
 30
0.0
 40
0.5
100
AcDbArc
 50
263.7634467283077
 51
353.7634467282444
  0
LINE
  5
221
330
6F
100
AcDbEntity
  8
ANCHOR
  6
HIDDEN
100
AcDbLine
 10
227.7273720779525
 20
363.7555691123127
 30
0.0
 11
227.4273720779441
 21
363.7555691123101
 31
0.0
  0
LINE
  5
222
330
6F
100
AcDbEntity
  8
ANCHOR
  6
HIDDEN
100
AcDbLine
 10
227.4273720781444
 20
338.2555691123096
 30
0.0
 11
227.4273720779464
 21
363.7555691123097
 31
0.0
  0
LINE
  5
223
330
6F
100
AcDbEntity
  8
ANCHOR
  6
HIDDEN
100
AcDbLine
 10
229.3858282575543
 20
330.4272652920598
 30
0.0
 11
231.7565275523973
 21
330.6863360535178
 31
0.0
  0
LINE
  5
224
330
6F
100
AcDbEntity
  8
ANCHOR
  6
HIDDEN
100
AcDbLine
 10
231.7273720779321
 20
365.7555691123387
 30
0.0
 11
232.4273720778932
 21
370.7555691123437
 31
0.0
  0
LINE
  5
225
330
6F
100
AcDbEntity
  8
ANCHOR
  6
HIDDEN
100
AcDbLine
 10
227.7273720779369
 20
363.7555691123117
 30
0.0
 11
228.0273720779453
 21
363.7555691123138
 31
0.0
  0
LINE
  5
226
330
6F
100
AcDbEntity
  8
ANCHOR
  6
HIDDEN
100
AcDbLine
 10
228.0273720781441
 20
338.2555691123139
 30
0.0
 11
228.0273720779462
 21
363.7555691123138
 31
0.0
  0
LINE
  5
227
330
6F
100
AcDbEntity
  8
ANCHOR
  6
HIDDEN
100
AcDbLine
 10
231.7273720779745
 20
360.255569112339
 30
0.0
 11
230.7273720779772
 21
359.7555691123321
 31
0.0
  0
LINE
  5
228
330
6F
100
AcDbEntity
  8
ANCHOR
  6
HIDDEN
100
AcDbLine
 10
230.7273720779774
 20
359.7555691123321
 30
0.0
 11
230.4773720780397
 21
351.7555691123304
 31
0.0
  0
LINE
  5
229
330
6F
100
AcDbEntity
  8
ANCHOR
  6
HIDDEN
100
AcDbLine
 10
231.727372077972
 20
360.2555691123393
 30
0.0
 11
231.7273720778905
 21
370.7555691123394
 31
0.0
  0
LINE
  5
22A
330
6F
100
AcDbEntity
  8
ANCHOR
  6
HIDDEN
100
AcDbLine
 10
228.5628865958694
 20
333.3551940858422
 30
0.0
 11
232.8223414261874
 21
333.820668643787
 31
0.0
  0
LINE
  5
22B
330
6F
100
AcDbEntity
  8
ANCHOR
  6
HIDDEN
100
AcDbLine
 10
228.4542530187665
 20
334.3492759466191
 30
0.0
 11
232.0675546395796
 21
334.7441386794498
 31
0.0
  0
LINE
  5
22C
330
6F
100
AcDbEntity
  8
ANCHOR
  6
HIDDEN
100
AcDbLine
 10
231.7565275523973
 20
330.6863360535178
 30
0.0
 11
232.8223414261875
 21
333.8206686437874
 31
0.0
  0
LINE
  5
22D
330
6F
100
AcDbEntity
  8
ANCHOR
  6
HIDDEN
100
AcDbLine
 10
232.8223414261859
 20
333.8206686437875
 30
0.0
 11
232.0675546395812
 21
334.7441386794509
 31
0.0
  0
LINE
  5
22E
330
6F
100
AcDbEntity
  8
ANCHOR
  6
HIDDEN
100
AcDbLine
 10
228.3456194416708
 20
335.3433578073972
 30
0.0
 11
232.6050742719883
 21
335.8088323653417
 31
0.0
  0
LINE
  5
22F
330
6F
100
AcDbEntity
  8
ANCHOR
  6
HIDDEN
100
AcDbLine
 10
232.0675546395805
 20
334.7441386794516
 30
0.0
 11
232.6050742719866
 21
335.8088323653429
 31
0.0
  0
LINE
  5
230
330
6F
100
AcDbEntity
  8
ANCHOR
  6
HIDDEN
100
AcDbLine
 10
228.1826690760212
 20
336.8344805985627
 30
0.0
 11
232.442123906341
 21
337.2999551565073
 31
0.0
  0
LINE
  5
231
330
6F
100
AcDbEntity
  8
ANCHOR
  6
HIDDEN
100
AcDbLine
 10
232.6050742719887
 20
335.8088323653416
 30
0.0
 11
232.4421239063395
 21
337.2999551565077
 31
0.0
  0
LINE
  5
232
330
6F
100
AcDbEntity
  8
ANCHOR
  6
HIDDEN
100
AcDbLine
 10
232.2628785041255
 20
338.940190226785
 30
0.0
 11
232.0075895979413
 21
341.2762825996169
 31
0.0
  0
LINE
  5
233
330
6F
100
AcDbEntity
  8
ANCHOR
  6
HIDDEN
100
AcDbLine
 10
228.1283522874706
 20
337.3315215289523
 30
0.0
 11
231.7416539082872
 21
337.7263842617832
 31
0.0
  0
LINE
  5
234
330
6F
100
AcDbEntity
  8
ANCHOR
  6
HIDDEN
100
AcDbLine
 10
228.0740354989202
 20
337.8285624593407
 30
0.0
 11
231.6873371197385
 21
338.2234251921722
 31
0.0
  0
LINE
  5
235
330
6F
100
AcDbEntity
  8
ANCHOR
  6
HIDDEN
100
AcDbLine
 10
231.7416539082859
 20
337.7263842617834
 30
0.0
 11
232.4421239063382
 21
337.2999551565081
 31
0.0
  0
LINE
  5
236
330
6F
100
AcDbEntity
  8
ANCHOR
  6
HIDDEN
100
AcDbLine
 10
231.7416539082868
 20
337.7263842617829
 30
0.0
 11
231.6873371197382
 21
338.2234251921716
 31
0.0
  0
LINE
  5
237
330
6F
100
AcDbEntity
  8
ANCHOR
  6
HIDDEN
100
AcDbLine
 10
231.6873371197379
 20
338.2234251921718
 30
0.0
 11
232.2628785041248
 21
338.9401902267853
 31
0.0
  0
LINE
  5
238
330
6F
100
AcDbEntity
  8
ANCHOR
  6
HIDDEN
100
AcDbLine
 10
228.4288948991427
 20
340.885201722063
 30
0.0
 11
232.007589597942
 21
341.2762825996168
 31
0.0
  0
LINE
  5
239
330
6F
100
AcDbEntity
  8
ANCHOR
  6
HIDDEN
100
AcDbLine
 10
231.3614363884375
 20
341.2056707745027
 30
0.0
 11
231.3071195998889
 21
341.7027117048919
 31
0.0
  0
LINE
  5
23A
330
6F
100
AcDbEntity
  8
ANCHOR
  6
HIDDEN
100
AcDbLine
 10
228.3745781105925
 20
341.3822426524522
 30
0.0
 11
231.3071195998904
 21
341.7027117048928
 31
0.0
  0
LINE
  5
23B
330
6F
100
AcDbEntity
  8
ANCHOR
  6
HIDDEN
100
AcDbLine
 10
231.3071195998912
 20
341.7027117048919
 30
0.0
 11
231.8826609842782
 21
342.4194767395053
 31
0.0
  0
LINE
  5
23C
330
6F
100
AcDbEntity
  8
ANCHOR
  6
HIDDEN
100
AcDbLine
 10
231.6273720781127
 20
342.4055691123329
 30
0.0
 11
231.6273720780944
 21
344.7555691123378
 31
0.0
  0
LINE
  5
23D
330
6F
100
AcDbEntity
  8
ANCHOR
  6
HIDDEN
100
AcDbLine
 10
228.027372078093
 20
344.7555691123138
 30
0.0
 11
231.6273720780934
 21
344.7555691123378
 31
0.0
  0
LINE
  5
23E
330
6F
100
AcDbEntity
  8
ANCHOR
  6
HIDDEN
100
AcDbLine
 10
230.977372078096
 20
344.7555691123339
 30
0.0
 11
230.9773720780933
 21
345.2555691123339
 31
0.0
  0
LINE
  5
23F
330
6F
100
AcDbEntity
  8
ANCHOR
  6
HIDDEN
100
AcDbLine
 10
228.0273720780882
 20
345.255569112315
 30
0.0
 11
230.9773720780926
 21
345.2555691123346
 31
0.0
  0
LINE
  5
240
330
6F
100
AcDbEntity
  8
ANCHOR
  6
HIDDEN
100
AcDbLine
 10
230.9773720780935
 20
345.2555691123318
 30
0.0
 11
231.627372078084
 21
345.905569112331
 31
0.0
  0
LINE
  5
241
330
6F
100
AcDbEntity
  8
ANCHOR
  6
HIDDEN
100
AcDbLine
 10
231.6273720780855
 20
345.9055691123329
 30
0.0
 11
231.6273720780672
 21
348.2555691123378
 31
0.0
  0
LINE
  5
242
330
6F
100
AcDbEntity
  8
ANCHOR
  6
HIDDEN
100
AcDbLine
 10
228.0273720780668
 20
348.2555691123138
 30
0.0
 11
231.6273720780671
 21
348.2555691123378
 31
0.0
  0
LINE
  5
243
330
6F
100
AcDbEntity
  8
ANCHOR
  6
HIDDEN
100
AcDbLine
 10
230.9773720780699
 20
348.2555691123334
 30
0.0
 11
230.9773720780672
 21
348.7555691123334
 31
0.0
  0
LINE
  5
244
330
6F
100
AcDbEntity
  8
ANCHOR
  6
HIDDEN
100
AcDbLine
 10
228.0273720780612
 20
348.7555691123147
 30
0.0
 11
230.9773720780656
 21
348.7555691123343
 31
0.0
  0
LINE
  5
245
330
6F
100
AcDbEntity
  8
ANCHOR
  6
HIDDEN
100
AcDbLine
 10
230.9773720780665
 20
348.7555691123338
 30
0.0
 11
231.627372078057
 21
349.4055691123331
 31
0.0
  0
LINE
  5
246
330
6F
100
AcDbEntity
  8
ANCHOR
  6
HIDDEN
100
AcDbLine
 10
231.6273720780676
 20
348.2555691123383
 30
0.0
 11
231.6273720780405
 21
351.7555691123388
 31
0.0
  0
LINE
  5
247
330
6F
100
AcDbEntity
  8
ANCHOR
  6
HIDDEN
100
AcDbLine
 10
228.0273720780384
 20
351.7555691123144
 30
0.0
 11
231.727372078181
 21
351.755569112339
 31
0.0
  0
LINE
  5
248
330
6F
100
AcDbEntity
  8
ANCHOR
  6
HIDDEN
100
AcDbLine
 10
228.0273720780356
 20
352.2555691123141
 30
0.0
 11
230.4929970780345
 21
352.2555691123307
 31
0.0
  0
LINE
  5
249
330
6F
100
AcDbEntity
  8
ANCHOR
  6
HIDDEN
100
AcDbLine
 10
228.0273720780167
 20
355.2555691123147
 30
0.0
 11
230.586747078012
 21
355.2555691123318
 31
0.0
  0
LINE
  5
24A
330
6F
100
AcDbEntity
  8
ANCHOR
  6
HIDDEN
100
AcDbLine
 10
228.027372078013
 20
355.7555691123138
 30
0.0
 11
230.6023720780082
 21
355.7555691123309
 31
0.0
  0
LINE
  5
24B
330
6F
100
AcDbEntity
  8
ANCHOR
  6
HIDDEN
100
AcDbLine
 10
228.0273720779926
 20
358.7555691123137
 30
0.0
 11
230.6961220779842
 21
358.7555691123314
 31
0.0
  0
LINE
  5
24C
330
6F
100
AcDbEntity
  8
ANCHOR
  6
HIDDEN
100
AcDbLine
 10
228.0273720779903
 20
359.255569112314
 30
0.0
 11
230.7117470779819
 21
359.2555691123318
 31
0.0
  0
LINE
  5
24D
330
6F
100
AcDbEntity
  8
ANCHOR
  6
HIDDEN
100
AcDbLine
 10
228.0273720781428
 20
338.2555691123026
 30
0.0
 11
228.8344705386159
 21
330.8699894338989
 31
0.0
  0
ARC
  5
24E
330
6F
100
AcDbEntity
  8
ANCHOR
  6
HIDDEN
100
AcDbCircle
 10
229.3315114690056
 20
330.9243062224484
 30
0.0
 40
0.5
100
AcDbArc
 50
186.2365532722638
 51
276.2365532722005
  0
LINE
  5
24F
330
6F
100
AcDbEntity
  8
ANCHOR
  6
HIDDEN
100
AcDbLine
 10
223.727372123356
 20
351.7555691123039
 30
0.0
 11
222.1158880971461
 21
359.5915833560878
 31
0.0
  0
LINE
  5
250
330
6F
100
AcDbEntity
  8
ANCHOR
  6
HIDDEN
100
AcDbLine
 10
223.2116887197267
 20
359.2275032425846
 30
0.0
 11
222.1158880971752
 21
359.5915833559479
 31
0.0
  0
LINE
  5
251
330
6F
100
AcDbEntity
  8
ANCHOR
  6
HIDDEN
100
AcDbLine
 10
224.7482993129744
 20
351.7555691123058
 30
0.0
 11
223.2116887197269
 21
359.2275032425848
 31
0.0
  0
LINE
  5
252
330
6F
100
AcDbEntity
  8
ANCHOR
  6
HIDDEN
100
AcDbLine
 10
231.7273720781786
 20
351.7555691123098
 30
0.0
 11
233.3388561043711
 21
359.5915833560975
 31
0.0
  0
LINE
  5
253
330
6F
100
AcDbEntity
  8
ANCHOR
  6
HIDDEN
100
AcDbLine
 10
232.2430554817934
 20
359.2275032425915
 30
0.0
 11
233.3388561043439
 21
359.5915833559574
 31
0.0
  0
LINE
  5
254
330
6F
100
AcDbEntity
  8
ANCHOR
  6
HIDDEN
100
AcDbLine
 10
230.7064448885614
 20
351.7555691123089
 30
0.0
 11
232.2430554817921
 21
359.2275032425908
 31
0.0
  0
LINE
  5
255
330
6F
100
AcDbEntity
  8
ANCHOR
  6
HIDDEN
100
AcDbLine
 10
227.7273721689339
 20
318.7555691123112
 30
0.0
 11
224.9773721344774
 21
329.0187089614264
 31
0.0
  0
LINE
  5
256
330
6F
100
AcDbEntity
  8
ANCHOR
  6
HIDDEN
100
AcDbLine
 10
227.7273721234753
 20
318.7555691123109
 30
0.0
 11
230.4773721342489
 21
329.0187088734046
 31
0.0
  0
LINE
  5
257
330
6F
100
AcDbEntity
  8
ANCHOR
  6
HIDDEN
100
AcDbLine
 10
224.977372134479
 20
329.0187089614267
 30
0.0
 11
224.9773721339327
 21
330.5465495414958
 31
0.0
  0
LINE
  5
258
330
6F
100
AcDbEntity
  8
ANCHOR
  6
HIDDEN
100
AcDbLine
 10
230.477372134249
 20
329.0187088734045
 30
0.0
 11
230.4773721338875
 21
330.5465495487437
 31
0.0
  0
ARC
  5
259
330
6F
100
AcDbEntity
  8
ANCHOR
  6
Continuous
100
AcDbCircle
 10
227.727372123424
 20
364.1555691123021
 30
0.0
 40
14.0
100
AcDbArc
 50
74.63751496329646
 51
105.3624850364064
  0
LINE
  5
25A
330
6F
100
AcDbEntity
  8
ANCHOR
  6
Continuous
100
AcDbLine
 10
222.4773721234012
 20
374.855569112291
 30
0.0
 11
222.4857134320941
 21
374.9179062927615
 31
0.0
  0
LINE
  5
25B
330
6F
100
AcDbEntity
  8
ANCHOR
  6
Continuous
100
AcDbLine
 10
232.9773721234049
 20
374.8555691123132
 30
0.0
 11
232.8257322491111
 21
375.988820806653
 31
0.0
  0
ARC
  5
25C
330
6F
100
AcDbEntity
  8
ANCHOR
  6
Continuous
100
AcDbCircle
 10
230.9329623227175
 20
375.8232248953987
 30
0.0
 40
1.9
100
AcDbArc
 50
5.000000000119887
 51
74.63751496329646
  0
LINE
  5
25D
330
6F
100
AcDbEntity
  8
ANCHOR
  6
Continuous
100
AcDbLine
 10
234.2273721234341
 20
374.8555691123153
 30
0.0
 11
221.2273721234414
 21
374.855569112288
 31
0.0
  0
LINE
  5
25E
330
6F
100
AcDbEntity
  8
ANCHOR
  6
Continuous
100
AcDbLine
 10
221.2273721234336
 20
374.2555691122892
 30
0.0
 11
221.2273721234337
 21
374.2899579990402
 31
0.0
  0
LINE
  5
25F
330
6F
100
AcDbEntity
  8
ANCHOR
  6
Continuous
100
AcDbLine
 10
234.2273721234325
 20
374.2555691123162
 30
0.0
 11
234.227372123433
 21
374.8555691123161
 31
0.0
  0
LINE
  5
260
330
6F
100
AcDbEntity
  8
ANCHOR
  6
HIDDEN
100
AcDbLine
 10
230.4773721246137
 20
369.2555691121238
 30
0.0
 11
230.4773721234311
 21
374.2555691123079
 31
0.0
  0
LINE
  5
261
330
6F
100
AcDbEntity
  8
ANCHOR
  6
HIDDEN
100
AcDbLine
 10
224.9773721252206
 20
369.255569112138
 30
0.0
 11
224.9773721234328
 21
374.2555691122967
 31
0.0
  0
LINE
  5
262
330
6F
100
AcDbEntity
  8
ANCHOR
  6
Continuous
100
AcDbLine
 10
234.2273721234336
 20
374.255569112315
 30
0.0
 11
221.2273721234336
 21
374.2555691122876
 31
0.0
  0
LINE
  5
263
330
6F
100
AcDbEntity
  8
ANCHOR
  6
Continuous
100
AcDbLine
 10
222.4773721234735
 20
374.8555691123848
 30
0.0
 11
222.629011997782
 21
375.9888208067217
 31
0.0
  0
ARC
  5
264
330
6F
100
AcDbEntity
  8
ANCHOR
  6
Continuous
100
AcDbCircle
 10
224.5217819241686
 20
375.8232248954422
 30
0.0
 40
1.9
100
AcDbArc
 50
105.3624850359274
 51
174.999999999104
  0
LINE
  5
265
330
6F
100
AcDbEntity
  8
ANCHOR
  6
Continuous
100
AcDbLine
 10
221.2273721234348
 20
374.2555691124042
 30
0.0
 11
221.2273721234426
 21
374.8555691124041
 31
0.0
  0
LINE
  5
266
330
6F
100
AcDbEntity
  8
KUTAI
  6
Continuous
100
AcDbLine
 10
632.7412277187526
 20
102.8364496096263
 30
0.0
 11
582.7412277187526
 21
102.8364496096263
 31
0.0
  0
LINE
  5
267
330
6F
100
AcDbEntity
  8
KUTAI
  6
Continuous
100
AcDbLine
 10
635.7412277187527
 20
73.83644960962633
 30
0.0
 11
635.7412277187527
 21
99.83644960962632
 31
0.0
  0
LINE
  5
268
330
6F
100
AcDbEntity
  8
KUTAI
  6
Continuous
100
AcDbLine
 10
579.7412277187527
 20
99.83644960962632
 30
0.0
 11
579.7412277187527
 21
73.83644960962633
 31
0.0
  0
LINE
  5
269
330
6F
100
AcDbEntity
  8
KUTAI
  6
Continuous
100
AcDbLine
 10
582.7412277187526
 20
70.83644960962633
 30
0.0
 11
632.7412277187526
 21
70.83644960962633
 31
0.0
  0
LINE
  5
26A
330
6F
100
AcDbEntity
  8
KUTAI
  6
Continuous
100
AcDbLine
 10
518.9620800525037
 20
102.8364496096263
 30
0.0
 11
562.7412277187528
 21
102.8364496096263
 31
0.0
  0
LINE
  5
26B
330
6F
100
AcDbEntity
  8
KUTAI
  6
Continuous
100
AcDbLine
 10
565.7412277187527
 20
73.83644960962633
 30
0.0
 11
565.7412277187527
 21
99.83644960962632
 31
0.0
  0
LINE
  5
26C
330
6F
100
AcDbEntity
  8
KUTAI
  6
Continuous
100
AcDbLine
 10
518.9620800525037
 20
70.83644960962633
 30
0.0
 11
562.7412277187528
 21
70.83644960962633
 31
0.0
  0
LINE
  5
26D
330
6F
100
AcDbEntity
  8
KUTAI
  6
Continuous
100
AcDbLine
 10
652.7412277187527
 20
102.8364496096263
 30
0.0
 11
694.1524096246031
 21
102.8364496096263
 31
0.0
  0
LINE
  5
26E
330
6F
100
AcDbEntity
  8
KUTAI
  6
Continuous
100
AcDbLine
 10
649.7412277187527
 20
99.83644960962632
 30
0.0
 11
649.7412277187527
 21
73.83644960962633
 31
0.0
  0
LINE
  5
26F
330
6F
100
AcDbEntity
  8
KUTAI
  6
Continuous
100
AcDbLine
 10
652.7412277187527
 20
70.83644960962633
 30
0.0
 11
694.1524096246031
 21
70.83644960962633
 31
0.0
  0
LINE
  5
270
330
6F
100
AcDbEntity
  8
KUTAI
  6
Continuous
100
AcDbLine
 10
518.9620800525037
 20
116.8364496096263
 30
0.0
 11
694.1524096246031
 21
116.8364496096263
 31
0.0
  0
LINE
  5
271
330
6F
100
AcDbEntity
  8
KUTAI
  6
Continuous
100
AcDbLine
 10
518.9620800525037
 20
56.83644960962633
 30
0.0
 11
694.1524096246031
 21
56.83644960962633
 31
0.0
  0
ARC
  5
272
330
6F
100
AcDbEntity
  8
KUTAI
  6
Continuous
100
AcDbCircle
 10
632.7412277187526
 20
99.83644960962632
 30
0.0
 40
3.000000191249998
100
AcDbArc
 50
0.0
 51
90.0
  0
ARC
  5
273
330
6F
100
AcDbEntity
  8
KUTAI
  6
Continuous
100
AcDbCircle
 10
582.7412277187526
 20
99.83644960962632
 30
0.0
 40
3.000000191249998
100
AcDbArc
 50
90.0
 51
180.0
  0
ARC
  5
274
330
6F
100
AcDbEntity
  8
KUTAI
  6
Continuous
100
AcDbCircle
 10
632.7412277187526
 20
73.83644960962633
 30
0.0
 40
3.000000191249998
100
AcDbArc
 50
270.0
 51
0.0
  0
ARC
  5
275
330
6F
100
AcDbEntity
  8
KUTAI
  6
Continuous
100
AcDbCircle
 10
582.7412277187526
 20
73.83644960962633
 30
0.0
 40
3.000000191249998
100
AcDbArc
 50
180.0
 51
270.0
  0
ARC
  5
276
330
6F
100
AcDbEntity
  8
KUTAI
  6
Continuous
100
AcDbCircle
 10
562.7412277187528
 20
99.83644960962632
 30
0.0
 40
3.000000191249998
100
AcDbArc
 50
0.0
 51
90.0
  0
ARC
  5
277
330
6F
100
AcDbEntity
  8
KUTAI
  6
Continuous
100
AcDbCircle
 10
562.7412277187528
 20
73.83644960962633
 30
0.0
 40
3.000000191249998
100
AcDbArc
 50
270.0
 51
0.0
  0
ARC
  5
278
330
6F
100
AcDbEntity
  8
KUTAI
  6
Continuous
100
AcDbCircle
 10
652.7412277187527
 20
99.83644960962632
 30
0.0
 40
3.000000191249998
100
AcDbArc
 50
90.0
 51
180.0
  0
ARC
  5
279
330
6F
100
AcDbEntity
  8
KUTAI
  6
Continuous
100
AcDbCircle
 10
652.7412277187527
 20
73.83644960962633
 30
0.0
 40
3.000000191249998
100
AcDbArc
 50
180.0
 51
270.0
  0
LINE
  5
27A
330
6F
100
AcDbEntity
  8
ANCHOR
  6
HIDDEN
100
AcDbLine
 10
611.2412277190031
 20
120.3364496094665
 30
0.0
 11
610.1812277190032
 21
119.2764496094665
 31
0.0
  0
LINE
  5
27B
330
6F
100
AcDbEntity
  8
ANCHOR
  6
HIDDEN
100
AcDbLine
 10
605.7412277190032
 20
89.83644960946676
 30
0.0
 11
605.7412277190032
 21
87.33644960946655
 31
0.0
  0
LINE
  5
27C
330
6F
100
AcDbEntity
  8
ANCHOR
  6
HIDDEN
100
AcDbLine
 10
609.7412277190032
 20
89.83644960946676
 30
0.0
 11
609.7412277190032
 21
87.33644960946655
 31
0.0
  0
LINE
  5
27D
330
6F
100
AcDbEntity
  8
ANCHOR
  6
Continuous
100
AcDbLine
 10
611.9912277190032
 20
122.7364496094666
 30
0.0
 11
603.4912277190032
 21
122.7364496094666
 31
0.0
  0
LINE
  5
27E
330
6F
100
AcDbEntity
  8
ANCHOR
  6
HIDDEN
100
AcDbLine
 10
609.8912277190033
 20
91.33644960946677
 30
0.0
 11
605.5912277190032
 21
91.33644960946677
 31
0.0
  0
LINE
  5
27F
330
6F
100
AcDbEntity
  8
ANCHOR
  6
HIDDEN
100
AcDbLine
 10
609.7412277190032
 20
87.33644960946655
 30
0.0
 11
605.7412277190032
 21
87.33644960946655
 31
0.0
  0
LINE
  5
280
330
6F
100
AcDbEntity
  8
ANCHOR
  6
HIDDEN
100
AcDbLine
 10
609.7412277190032
 20
89.83644960946676
 30
0.0
 11
605.7412277190032
 21
89.83644960946676
 31
0.0
  0
LINE
  5
281
330
6F
100
AcDbEntity
  8
ANCHOR
  6
HIDDEN
100
AcDbLine
 10
609.7412277190032
 20
89.83644960946671
 30
0.0
 11
609.8912277190033
 21
91.33644960946668
 31
0.0
  0
LINE
  5
282
330
6F
100
AcDbEntity
  8
ANCHOR
  6
HIDDEN
100
AcDbLine
 10
605.7412277190028
 20
89.83644960946666
 30
0.0
 11
605.5912277190032
 21
91.33644960946668
 31
0.0
  0
LINE
  5
283
330
6F
100
AcDbEntity
  8
ANCHOR
  6
HIDDEN
100
AcDbLine
 10
604.2412277190031
 20
120.3364496094665
 30
0.0
 11
605.3012277190031
 21
119.2764496094667
 31
0.0
  0
LINE
  5
284
330
6F
100
AcDbEntity
  8
ANCHOR
  6
HIDDEN
100
AcDbLine
 10
610.1812277190032
 20
119.2764496094666
 30
0.0
 11
605.3012277190032
 21
119.2764496094666
 31
0.0
  0
LINE
  5
285
330
6F
100
AcDbEntity
  8
ANCHOR
  6
HIDDEN
100
AcDbLine
 10
610.3912277190033
 20
103.8574496095208
 30
0.0
 11
609.8912277190033
 21
103.5687744749259
 31
0.0
  0
LINE
  5
286
330
6F
100
AcDbEntity
  8
ANCHOR
  6
HIDDEN
100
AcDbLine
 10
604.5412277190031
 20
103.8574496095206
 30
0.0
 11
605.5912277190032
 21
103.576102957468
 31
0.0
  0
LINE
  5
287
330
6F
100
AcDbEntity
  8
ANCHOR
  6
HIDDEN
100
AcDbLine
 10
610.9412277190037
 20
105.6714496095205
 30
0.0
 11
609.8912277190036
 21
105.9527962615731
 31
0.0
  0
LINE
  5
288
330
6F
100
AcDbEntity
  8
ANCHOR
  6
HIDDEN
100
AcDbLine
 10
610.3912277190032
 20
103.8574496095209
 30
0.0
 11
609.8912277190033
 21
104.1461247441158
 31
0.0
  0
LINE
  5
289
330
6F
100
AcDbEntity
  8
ANCHOR
  6
HIDDEN
100
AcDbLine
 10
605.0912277190034
 20
102.0434496095207
 30
0.0
 11
605.5912277190035
 21
102.3321247441155
 31
0.0
  0
LINE
  5
28A
330
6F
100
AcDbEntity
  8
ANCHOR
  6
HIDDEN
100
AcDbLine
 10
605.0912277190032
 20
102.0434496095205
 30
0.0
 11
605.5912277190032
 21
101.7547744749257
 31
0.0
  0
LINE
  5
28B
330
6F
100
AcDbEntity
  8
ANCHOR
  6
HIDDEN
100
AcDbLine
 10
610.9412277190031
 20
105.6714496095206
 30
0.0
 11
604.541227719003
 21
103.8574496095205
 31
0.0
  0
LINE
  5
28C
330
6F
100
AcDbEntity
  8
ANCHOR
  6
HIDDEN
100
AcDbLine
 10
605.5912277190032
 20
103.5761029574681
 30
0.0
 11
610.9412277190032
 21
105.6714496095207
 31
0.0
  0
LINE
  5
28D
330
6F
100
AcDbEntity
  8
ANCHOR
  6
HIDDEN
100
AcDbLine
 10
609.8912277190033
 20
105.9527962615731
 30
0.0
 11
604.5412277190032
 21
103.8574496095205
 31
0.0
  0
LINE
  5
28E
330
6F
100
AcDbEntity
  8
ANCHOR
  6
HIDDEN
100
AcDbLine
 10
609.891227719003
 20
104.1461247441155
 30
0.0
 11
605.591227719003
 21
102.3321247441155
 31
0.0
  0
LINE
  5
28F
330
6F
100
AcDbEntity
  8
ANCHOR
  6
HIDDEN
100
AcDbLine
 10
605.0912277190032
 20
102.0434496095206
 30
0.0
 11
610.3912277190032
 21
103.8574496095205
 31
0.0
  0
LINE
  5
290
330
6F
100
AcDbEntity
  8
ANCHOR
  6
HIDDEN
100
AcDbLine
 10
605.591227719003
 20
101.754774474926
 30
0.0
 11
609.8912277190028
 21
103.5687744749258
 31
0.0
  0
LINE
  5
291
330
6F
100
AcDbEntity
  8
ANCHOR
  6
HIDDEN
100
AcDbLine
 10
610.3912277190032
 20
100.2294496095344
 30
0.0
 11
609.8912277190033
 21
99.94077447493936
 31
0.0
  0
LINE
  5
292
330
6F
100
AcDbEntity
  8
ANCHOR
  6
HIDDEN
100
AcDbLine
 10
604.5412277190028
 20
100.229449609534
 30
0.0
 11
605.5912277190027
 21
99.94810295748138
 31
0.0
  0
LINE
  5
293
330
6F
100
AcDbEntity
  8
ANCHOR
  6
HIDDEN
100
AcDbLine
 10
610.9412277190036
 20
102.0434496095343
 30
0.0
 11
609.8912277190033
 21
102.3247962615869
 31
0.0
  0
LINE
  5
294
330
6F
100
AcDbEntity
  8
ANCHOR
  6
HIDDEN
100
AcDbLine
 10
610.3912277190032
 20
100.229449609534
 30
0.0
 11
609.8912277190033
 21
100.518124744129
 31
0.0
  0
LINE
  5
295
330
6F
100
AcDbEntity
  8
ANCHOR
  6
HIDDEN
100
AcDbLine
 10
605.0912277190032
 20
98.41544960953397
 30
0.0
 11
605.5912277190027
 21
98.7041247441288
 31
0.0
  0
LINE
  5
296
330
6F
100
AcDbEntity
  8
ANCHOR
  6
HIDDEN
100
AcDbLine
 10
605.0912277190028
 20
98.41544960953399
 30
0.0
 11
605.5912277190027
 21
98.1267744749392
 31
0.0
  0
LINE
  5
297
330
6F
100
AcDbEntity
  8
ANCHOR
  6
HIDDEN
100
AcDbLine
 10
610.9412277190036
 20
102.0434496095343
 30
0.0
 11
604.5412277190032
 21
100.2294496095342
 31
0.0
  0
LINE
  5
298
330
6F
100
AcDbEntity
  8
ANCHOR
  6
HIDDEN
100
AcDbLine
 10
605.5912277190032
 20
99.94810295748122
 30
0.0
 11
610.9412277190032
 21
102.0434496095339
 31
0.0
  0
LINE
  5
299
330
6F
100
AcDbEntity
  8
ANCHOR
  6
HIDDEN
100
AcDbLine
 10
609.8912277190028
 20
102.3247962615868
 30
0.0
 11
604.541227719003
 21
100.2294496095342
 31
0.0
  0
LINE
  5
29A
330
6F
100
AcDbEntity
  8
ANCHOR
  6
HIDDEN
100
AcDbLine
 10
609.8912277190028
 20
100.5181247441291
 30
0.0
 11
605.5912277190032
 21
98.70412474412908
 31
0.0
  0
LINE
  5
29B
330
6F
100
AcDbEntity
  8
ANCHOR
  6
HIDDEN
100
AcDbLine
 10
605.0912277190032
 20
98.41544960953408
 30
0.0
 11
610.3912277190032
 21
100.2294496095341
 31
0.0
  0
LINE
  5
29C
330
6F
100
AcDbEntity
  8
ANCHOR
  6
HIDDEN
100
AcDbLine
 10
605.5912277190032
 20
98.12677447493937
 30
0.0
 11
609.8912277190033
 21
99.94077447493928
 31
0.0
  0
LINE
  5
29D
330
6F
100
AcDbEntity
  8
ANCHOR
  6
HIDDEN
100
AcDbLine
 10
609.8912277190033
 20
100.5181247441291
 30
0.0
 11
609.8912277190033
 21
101.63221335072
 31
0.0
  0
LINE
  5
29E
330
6F
100
AcDbEntity
  8
ANCHOR
  6
HIDDEN
100
AcDbLine
 10
609.8912277190033
 20
102.3247962615868
 30
0.0
 11
609.8912277190033
 21
103.5687744749256
 31
0.0
  0
LINE
  5
29F
330
6F
100
AcDbEntity
  8
ANCHOR
  6
HIDDEN
100
AcDbLine
 10
609.8912277190033
 20
104.1461247441156
 30
0.0
 11
609.8912277190033
 21
105.2602133507066
 31
0.0
  0
LINE
  5
2A0
330
6F
100
AcDbEntity
  8
ANCHOR
  6
HIDDEN
100
AcDbLine
 10
605.5912277190032
 20
103.576102957468
 30
0.0
 11
605.5912277190032
 21
102.3321247441155
 31
0.0
  0
LINE
  5
2A1
330
6F
100
AcDbEntity
  8
ANCHOR
  6
HIDDEN
100
AcDbLine
 10
605.5912277190032
 20
101.7547744749258
 30
0.0
 11
605.5912277190032
 21
100.6406858683482
 31
0.0
  0
LINE
  5
2A2
330
6F
100
AcDbEntity
  8
ANCHOR
  6
HIDDEN
100
AcDbLine
 10
605.5912277190032
 20
99.94810295748164
 30
0.0
 11
605.5912277190032
 21
98.70412474412921
 31
0.0
  0
LINE
  5
2A3
330
6F
100
AcDbEntity
  8
ANCHOR
  6
HIDDEN
100
AcDbLine
 10
610.3912277190032
 20
107.4854496095069
 30
0.0
 11
609.8912277190033
 21
107.1967744749121
 31
0.0
  0
LINE
  5
2A4
330
6F
100
AcDbEntity
  8
ANCHOR
  6
HIDDEN
100
AcDbLine
 10
604.541227719003
 20
107.4854496095068
 30
0.0
 11
605.591227719003
 21
107.2041029574542
 31
0.0
  0
LINE
  5
2A5
330
6F
100
AcDbEntity
  8
ANCHOR
  6
HIDDEN
100
AcDbLine
 10
610.9412277190032
 20
109.2994496095072
 30
0.0
 11
609.8912277190033
 21
109.5807962615597
 31
0.0
  0
LINE
  5
2A6
330
6F
100
AcDbEntity
  8
ANCHOR
  6
HIDDEN
100
AcDbLine
 10
610.3912277190032
 20
107.485449609507
 30
0.0
 11
609.8912277190033
 21
107.7741247441019
 31
0.0
  0
LINE
  5
2A7
330
6F
100
AcDbEntity
  8
ANCHOR
  6
HIDDEN
100
AcDbLine
 10
605.0912277190034
 20
105.6714496095071
 30
0.0
 11
605.5912277190032
 21
105.9601247441018
 31
0.0
  0
LINE
  5
2A8
330
6F
100
AcDbEntity
  8
ANCHOR
  6
HIDDEN
100
AcDbLine
 10
605.0912277190027
 20
105.6714496095072
 30
0.0
 11
605.5912277190027
 21
105.3827744749123
 31
0.0
  0
LINE
  5
2A9
330
6F
100
AcDbEntity
  8
ANCHOR
  6
HIDDEN
100
AcDbLine
 10
610.9412277190032
 20
109.299449609507
 30
0.0
 11
604.5412277190031
 21
107.485449609507
 31
0.0
  0
LINE
  5
2AA
330
6F
100
AcDbEntity
  8
ANCHOR
  6
HIDDEN
100
AcDbLine
 10
605.5912277190035
 20
107.2041029574547
 30
0.0
 11
610.9412277190036
 21
109.2994496095073
 31
0.0
  0
LINE
  5
2AB
330
6F
100
AcDbEntity
  8
ANCHOR
  6
HIDDEN
100
AcDbLine
 10
609.8912277190028
 20
109.5807962615597
 30
0.0
 11
604.5412277190028
 21
107.4854496095071
 31
0.0
  0
LINE
  5
2AC
330
6F
100
AcDbEntity
  8
ANCHOR
  6
HIDDEN
100
AcDbLine
 10
609.8912277190033
 20
107.7741247441021
 30
0.0
 11
605.5912277190034
 21
105.960124744102
 31
0.0
  0
LINE
  5
2AD
330
6F
100
AcDbEntity
  8
ANCHOR
  6
HIDDEN
100
AcDbLine
 10
605.0912277190032
 20
105.6714496095071
 30
0.0
 11
610.3912277190032
 21
107.4854496095069
 31
0.0
  0
LINE
  5
2AE
330
6F
100
AcDbEntity
  8
ANCHOR
  6
HIDDEN
100
AcDbLine
 10
605.591227719003
 20
105.3827744749122
 30
0.0
 11
609.891227719003
 21
107.1967744749122
 31
0.0
  0
LINE
  5
2AF
330
6F
100
AcDbEntity
  8
ANCHOR
  6
HIDDEN
100
AcDbLine
 10
609.8912277190033
 20
105.9527962615731
 30
0.0
 11
609.8912277190033
 21
107.1967744749121
 31
0.0
  0
LINE
  5
2B0
330
6F
100
AcDbEntity
  8
ANCHOR
  6
HIDDEN
100
AcDbLine
 10
609.8912277190033
 20
107.7741247441021
 30
0.0
 11
609.8912277190033
 21
108.8882133506931
 31
0.0
  0
LINE
  5
2B1
330
6F
100
AcDbEntity
  8
ANCHOR
  6
HIDDEN
100
AcDbLine
 10
605.5912277190032
 20
107.2041029574544
 30
0.0
 11
605.5912277190034
 21
105.960124744102
 31
0.0
  0
LINE
  5
2B2
330
6F
100
AcDbEntity
  8
ANCHOR
  6
HIDDEN
100
AcDbLine
 10
605.5912277190032
 20
105.3827744749123
 30
0.0
 11
605.5912277190032
 21
104.2686858683347
 31
0.0
  0
LINE
  5
2B3
330
6F
100
AcDbEntity
  8
ANCHOR
  6
HIDDEN
100
AcDbLine
 10
610.3912277190032
 20
111.1134496094936
 30
0.0
 11
609.8912277190033
 21
110.8247744748988
 31
0.0
  0
LINE
  5
2B4
330
6F
100
AcDbEntity
  8
ANCHOR
  6
HIDDEN
100
AcDbLine
 10
604.5412277190032
 20
111.1134496094934
 30
0.0
 11
605.5912277190032
 21
110.8321029574407
 31
0.0
  0
LINE
  5
2B5
330
6F
100
AcDbEntity
  8
ANCHOR
  6
HIDDEN
100
AcDbLine
 10
610.9412277190036
 20
112.9274496094933
 30
0.0
 11
609.8912277190033
 21
113.2087962615459
 31
0.0
  0
LINE
  5
2B6
330
6F
100
AcDbEntity
  8
ANCHOR
  6
HIDDEN
100
AcDbLine
 10
610.3912277190032
 20
111.1134496094934
 30
0.0
 11
609.8912277190033
 21
111.4021247440883
 31
0.0
  0
LINE
  5
2B7
330
6F
100
AcDbEntity
  8
ANCHOR
  6
HIDDEN
100
AcDbLine
 10
605.0912277190032
 20
109.2994496094933
 30
0.0
 11
605.5912277190032
 21
109.5881247440883
 31
0.0
  0
LINE
  5
2B8
330
6F
100
AcDbEntity
  8
ANCHOR
  6
HIDDEN
100
AcDbLine
 10
605.0912277190032
 20
109.2994496094934
 30
0.0
 11
605.5912277190034
 21
109.0107744748985
 31
0.0
  0
LINE
  5
2B9
330
6F
100
AcDbEntity
  8
ANCHOR
  6
HIDDEN
100
AcDbLine
 10
610.9412277190032
 20
112.9274496094935
 30
0.0
 11
604.5412277190032
 21
111.1134496094935
 31
0.0
  0
LINE
  5
2BA
330
6F
100
AcDbEntity
  8
ANCHOR
  6
HIDDEN
100
AcDbLine
 10
605.5912277190032
 20
110.8321029574409
 30
0.0
 11
610.9412277190032
 21
112.9274496094936
 31
0.0
  0
LINE
  5
2BB
330
6F
100
AcDbEntity
  8
ANCHOR
  6
HIDDEN
100
AcDbLine
 10
609.8912277190033
 20
113.2087962615464
 30
0.0
 11
604.5412277190032
 21
111.1134496094937
 31
0.0
  0
LINE
  5
2BC
330
6F
100
AcDbEntity
  8
ANCHOR
  6
HIDDEN
100
AcDbLine
 10
609.891227719003
 20
111.4021247440883
 30
0.0
 11
605.5912277190032
 21
109.5881247440884
 31
0.0
  0
LINE
  5
2BD
330
6F
100
AcDbEntity
  8
ANCHOR
  6
HIDDEN
100
AcDbLine
 10
605.0912277190032
 20
109.2994496094935
 30
0.0
 11
610.3912277190032
 21
111.1134496094934
 31
0.0
  0
LINE
  5
2BE
330
6F
100
AcDbEntity
  8
ANCHOR
  6
HIDDEN
100
AcDbLine
 10
605.5912277190032
 20
109.010774474899
 30
0.0
 11
609.8912277190033
 21
110.824774474899
 31
0.0
  0
LINE
  5
2BF
330
6F
100
AcDbEntity
  8
ANCHOR
  6
HIDDEN
100
AcDbLine
 10
609.8912277190033
 20
109.5807962615596
 30
0.0
 11
609.8912277190033
 21
110.8247744748989
 31
0.0
  0
LINE
  5
2C0
330
6F
100
AcDbEntity
  8
ANCHOR
  6
HIDDEN
100
AcDbLine
 10
609.8912277190033
 20
111.4021247440884
 30
0.0
 11
609.8912277190033
 21
112.5162133506796
 31
0.0
  0
LINE
  5
2C1
330
6F
100
AcDbEntity
  8
ANCHOR
  6
HIDDEN
100
AcDbLine
 10
605.5912277190032
 20
110.8321029574408
 30
0.0
 11
605.5912277190032
 21
109.5881247440886
 31
0.0
  0
LINE
  5
2C2
330
6F
100
AcDbEntity
  8
ANCHOR
  6
HIDDEN
100
AcDbLine
 10
605.5912277190032
 20
109.0107744748988
 30
0.0
 11
605.5912277190032
 21
107.8966858683213
 31
0.0
  0
LINE
  5
2C3
330
6F
100
AcDbEntity
  8
ANCHOR
  6
HIDDEN
100
AcDbLine
 10
610.3912277190028
 20
114.7414496094802
 30
0.0
 11
609.8912277190028
 21
114.4527744748851
 31
0.0
  0
LINE
  5
2C4
330
6F
100
AcDbEntity
  8
ANCHOR
  6
HIDDEN
100
AcDbLine
 10
604.541227719003
 20
114.7414496094799
 30
0.0
 11
605.5912277190027
 21
114.4601029574273
 31
0.0
  0
LINE
  5
2C5
330
6F
100
AcDbEntity
  8
ANCHOR
  6
HIDDEN
100
AcDbLine
 10
610.9412277190032
 20
116.5554496094798
 30
0.0
 11
609.8912277190033
 21
116.8367962615324
 31
0.0
  0
LINE
  5
2C6
330
6F
100
AcDbEntity
  8
ANCHOR
  6
HIDDEN
100
AcDbLine
 10
610.3912277190032
 20
114.74144960948
 30
0.0
 11
609.8912277190033
 21
115.030124744075
 31
0.0
  0
LINE
  5
2C7
330
6F
100
AcDbEntity
  8
ANCHOR
  6
HIDDEN
100
AcDbLine
 10
605.0912277190032
 20
112.9274496094803
 30
0.0
 11
605.5912277190032
 21
113.2161247440751
 31
0.0
  0
LINE
  5
2C8
330
6F
100
AcDbEntity
  8
ANCHOR
  6
HIDDEN
100
AcDbLine
 10
605.0912277190032
 20
112.9274496094803
 30
0.0
 11
605.591227719003
 21
112.6387744748856
 31
0.0
  0
LINE
  5
2C9
330
6F
100
AcDbEntity
  8
ANCHOR
  6
HIDDEN
100
AcDbLine
 10
610.9412277190032
 20
116.5554496094801
 30
0.0
 11
604.5412277190032
 21
114.7414496094799
 31
0.0
  0
LINE
  5
2CA
330
6F
100
AcDbEntity
  8
ANCHOR
  6
HIDDEN
100
AcDbLine
 10
605.5912277190032
 20
114.4601029574274
 30
0.0
 11
610.9412277190032
 21
116.5554496094802
 31
0.0
  0
LINE
  5
2CB
330
6F
100
AcDbEntity
  8
ANCHOR
  6
HIDDEN
100
AcDbLine
 10
609.8912277190028
 20
116.8367962615327
 30
0.0
 11
604.5412277190028
 21
114.74144960948
 31
0.0
  0
LINE
  5
2CC
330
6F
100
AcDbEntity
  8
ANCHOR
  6
HIDDEN
100
AcDbLine
 10
609.8912277190033
 20
115.0301247440748
 30
0.0
 11
605.5912277190034
 21
113.2161247440751
 31
0.0
  0
LINE
  5
2CD
330
6F
100
AcDbEntity
  8
ANCHOR
  6
HIDDEN
100
AcDbLine
 10
605.0912277190028
 20
112.9274496094799
 30
0.0
 11
610.391227719003
 21
114.7414496094801
 31
0.0
  0
LINE
  5
2CE
330
6F
100
AcDbEntity
  8
ANCHOR
  6
HIDDEN
100
AcDbLine
 10
605.591227719003
 20
112.6387744748854
 30
0.0
 11
609.891227719003
 21
114.4527744748852
 31
0.0
  0
LINE
  5
2CF
330
6F
100
AcDbEntity
  8
ANCHOR
  6
HIDDEN
100
AcDbLine
 10
609.8912277190033
 20
113.2087962615464
 30
0.0
 11
609.8912277190033
 21
114.4527744748852
 31
0.0
  0
LINE
  5
2D0
330
6F
100
AcDbEntity
  8
ANCHOR
  6
HIDDEN
100
AcDbLine
 10
609.8912277190033
 20
115.0301247440749
 30
0.0
 11
609.8912277190033
 21
116.144213350666
 31
0.0
  0
LINE
  5
2D1
330
6F
100
AcDbEntity
  8
ANCHOR
  6
HIDDEN
100
AcDbLine
 10
605.5912277190032
 20
114.4601029574275
 30
0.0
 11
605.5912277190032
 21
113.216124744075
 31
0.0
  0
LINE
  5
2D2
330
6F
100
AcDbEntity
  8
ANCHOR
  6
HIDDEN
100
AcDbLine
 10
605.5912277190032
 20
112.6387744748853
 30
0.0
 11
605.5912277190032
 21
111.5246858683076
 31
0.0
  0
LINE
  5
2D3
330
6F
100
AcDbEntity
  8
ANCHOR
  6
HIDDEN
100
AcDbLine
 10
605.0912277190032
 20
116.5554496094666
 30
0.0
 11
605.5912277190035
 21
116.8441247440615
 31
0.0
  0
LINE
  5
2D4
330
6F
100
AcDbEntity
  8
ANCHOR
  6
HIDDEN
100
AcDbLine
 10
605.0912277190032
 20
116.5554496094665
 30
0.0
 11
605.5912277190034
 21
116.2667744748717
 31
0.0
  0
LINE
  5
2D5
330
6F
100
AcDbEntity
  8
ANCHOR
  6
HIDDEN
100
AcDbLine
 10
607.7412277190031
 20
119.2764496094666
 30
0.0
 11
604.9512277190038
 21
118.4856589844666
 31
0.0
  0
LINE
  5
2D6
330
6F
100
AcDbEntity
  8
ANCHOR
  6
HIDDEN
100
AcDbLine
 10
609.8912277190033
 20
116.8367962615327
 30
0.0
 11
609.8912277190033
 21
118.0807744748717
 31
0.0
  0
LINE
  5
2D7
330
6F
100
AcDbEntity
  8
ANCHOR
  6
HIDDEN
100
AcDbLine
 10
605.5912277190032
 20
118.3141715013107
 30
0.0
 11
605.5912277190032
 21
116.8441247440614
 31
0.0
  0
LINE
  5
2D8
330
6F
100
AcDbEntity
  8
ANCHOR
  6
HIDDEN
100
AcDbLine
 10
605.5912277190032
 20
116.2667744748718
 30
0.0
 11
605.5912277190032
 21
115.1526858682941
 31
0.0
  0
LINE
  5
2D9
330
6F
100
AcDbEntity
  8
ANCHOR
  6
HIDDEN
100
AcDbLine
 10
610.3912277190028
 20
96.60144960954768
 30
0.0
 11
609.8912277190028
 21
96.31277447495262
 31
0.0
  0
LINE
  5
2DA
330
6F
100
AcDbEntity
  8
ANCHOR
  6
HIDDEN
100
AcDbLine
 10
604.5412277190032
 20
96.60144960954808
 30
0.0
 11
605.5912277190032
 21
96.32010295749537
 31
0.0
  0
LINE
  5
2DB
330
6F
100
AcDbEntity
  8
ANCHOR
  6
HIDDEN
100
AcDbLine
 10
610.9412277190032
 20
98.41544960954784
 30
0.0
 11
609.8912277190033
 21
98.69679626160035
 31
0.0
  0
LINE
  5
2DC
330
6F
100
AcDbEntity
  8
ANCHOR
  6
HIDDEN
100
AcDbLine
 10
610.3912277190032
 20
96.60144960954788
 30
0.0
 11
609.8912277190033
 21
96.89012474414276
 31
0.0
  0
LINE
  5
2DD
330
6F
100
AcDbEntity
  8
ANCHOR
  6
HIDDEN
100
AcDbLine
 10
605.0912277190028
 20
94.78744960954744
 30
0.0
 11
605.591227719003
 21
95.07612474414241
 31
0.0
  0
LINE
  5
2DE
330
6F
100
AcDbEntity
  8
ANCHOR
  6
HIDDEN
100
AcDbLine
 10
605.0912277190028
 20
94.78744960954776
 30
0.0
 11
605.5912277190032
 21
94.49877447495293
 31
0.0
  0
LINE
  5
2DF
330
6F
100
AcDbEntity
  8
ANCHOR
  6
HIDDEN
100
AcDbLine
 10
610.9412277190032
 20
98.41544960954784
 30
0.0
 11
604.5412277190032
 21
96.60144960954795
 31
0.0
  0
LINE
  5
2E0
330
6F
100
AcDbEntity
  8
ANCHOR
  6
HIDDEN
100
AcDbLine
 10
605.5912277190032
 20
96.32010295749493
 30
0.0
 11
610.9412277190032
 21
98.41544960954756
 31
0.0
  0
LINE
  5
2E1
330
6F
100
AcDbEntity
  8
ANCHOR
  6
HIDDEN
100
AcDbLine
 10
609.8912277190033
 20
98.69679626160028
 30
0.0
 11
604.541227719003
 21
96.60144960954784
 31
0.0
  0
LINE
  5
2E2
330
6F
100
AcDbEntity
  8
ANCHOR
  6
HIDDEN
100
AcDbLine
 10
609.8912277190028
 20
96.89012474414269
 30
0.0
 11
605.5912277190027
 21
95.07612474414269
 31
0.0
  0
LINE
  5
2E3
330
6F
100
AcDbEntity
  8
ANCHOR
  6
HIDDEN
100
AcDbLine
 10
605.0912277190028
 20
94.78744960954763
 30
0.0
 11
610.3912277190032
 21
96.60144960954768
 31
0.0
  0
LINE
  5
2E4
330
6F
100
AcDbEntity
  8
ANCHOR
  6
HIDDEN
100
AcDbLine
 10
605.5912277190024
 20
94.49877447495271
 30
0.0
 11
609.8912277190028
 21
96.31277447495257
 31
0.0
  0
LINE
  5
2E5
330
6F
100
AcDbEntity
  8
ANCHOR
  6
HIDDEN
100
AcDbLine
 10
609.8912277190033
 20
96.89012474414257
 30
0.0
 11
609.8912277190033
 21
98.00421335073377
 31
0.0
  0
LINE
  5
2E6
330
6F
100
AcDbEntity
  8
ANCHOR
  6
HIDDEN
100
AcDbLine
 10
609.8912277190033
 20
98.69679626160021
 30
0.0
 11
609.8912277190033
 21
99.94077447493944
 31
0.0
  0
LINE
  5
2E7
330
6F
100
AcDbEntity
  8
ANCHOR
  6
HIDDEN
100
AcDbLine
 10
605.5912277190032
 20
98.12677447493923
 30
0.0
 11
605.5912277190032
 21
97.01268586836196
 31
0.0
  0
LINE
  5
2E8
330
6F
100
AcDbEntity
  8
ANCHOR
  6
HIDDEN
100
AcDbLine
 10
605.5912277190032
 20
96.32010295749516
 30
0.0
 11
605.5912277190032
 21
95.07612474414271
 31
0.0
  0
LINE
  5
2E9
330
6F
100
AcDbEntity
  8
ANCHOR
  6
HIDDEN
100
AcDbLine
 10
610.2912277190032
 20
92.93922319446716
 30
0.0
 11
609.8912277190033
 21
92.70828308679105
 31
0.0
  0
LINE
  5
2EA
330
6F
100
AcDbEntity
  8
ANCHOR
  6
HIDDEN
100
AcDbLine
 10
604.5412277190031
 20
92.97344960956115
 30
0.0
 11
605.591227719003
 21
92.6921029575085
 31
0.0
  0
LINE
  5
2EB
330
6F
100
AcDbEntity
  8
ANCHOR
  6
HIDDEN
100
AcDbLine
 10
610.9412277190028
 20
94.78744960956136
 30
0.0
 11
609.8912277190028
 21
95.06879626161396
 31
0.0
  0
LINE
  5
2EC
330
6F
100
AcDbEntity
  8
ANCHOR
  6
HIDDEN
100
AcDbLine
 10
610.2912277190032
 20
92.93922319446709
 30
0.0
 11
609.8912277190028
 21
93.17016330214329
 31
0.0
  0
LINE
  5
2ED
330
6F
100
AcDbEntity
  8
ANCHOR
  6
HIDDEN
100
AcDbLine
 10
610.9412277190032
 20
94.7874496095617
 30
0.0
 11
604.5412277190032
 21
92.97344960956184
 31
0.0
  0
LINE
  5
2EE
330
6F
100
AcDbEntity
  8
ANCHOR
  6
HIDDEN
100
AcDbLine
 10
605.5912277190032
 20
92.69210295750893
 30
0.0
 11
610.9412277190031
 21
94.78744960956156
 31
0.0
  0
LINE
  5
2EF
330
6F
100
AcDbEntity
  8
ANCHOR
  6
HIDDEN
100
AcDbLine
 10
609.891227719003
 20
95.06879626161412
 30
0.0
 11
604.5412277190028
 21
92.97344960956149
 31
0.0
  0
LINE
  5
2F0
330
6F
100
AcDbEntity
  8
ANCHOR
  6
HIDDEN
100
AcDbLine
 10
605.6083721509204
 20
91.33644960946657
 30
0.0
 11
610.2912277190032
 21
92.93922319446698
 31
0.0
  0
LINE
  5
2F1
330
6F
100
AcDbEntity
  8
ANCHOR
  6
HIDDEN
100
AcDbLine
 10
609.8912277190033
 20
93.17016330214338
 30
0.0
 11
609.8912277190033
 21
94.37621335074723
 31
0.0
  0
LINE
  5
2F2
330
6F
100
AcDbEntity
  8
ANCHOR
  6
HIDDEN
100
AcDbLine
 10
609.8912277190033
 20
95.06879626161405
 30
0.0
 11
609.8912277190033
 21
96.31277447495282
 31
0.0
  0
LINE
  5
2F3
330
6F
100
AcDbEntity
  8
ANCHOR
  6
HIDDEN
100
AcDbLine
 10
605.5912277190032
 20
94.49877447495294
 30
0.0
 11
605.5912277190032
 21
93.38468586837544
 31
0.0
  0
LINE
  5
2F4
330
6F
100
AcDbEntity
  8
ANCHOR
  6
HIDDEN
100
AcDbLine
 10
605.5912277190032
 20
92.6921029575085
 30
0.0
 11
605.5912277190032
 21
91.33644960946666
 31
0.0
  0
LINE
  5
2F5
330
6F
100
AcDbEntity
  8
ANCHOR
  6
HIDDEN
100
AcDbLine
 10
609.8912277190033
 20
91.33644960946677
 30
0.0
 11
609.8912277190033
 21
92.70828308679112
 31
0.0
  0
LINE
  5
2F6
330
6F
100
AcDbEntity
  8
ANCHOR
  6
HIDDEN
100
AcDbLine
 10
609.8912277190028
 20
93.17016330214329
 30
0.0
 11
605.6083721509202
 21
91.33644960946666
 31
0.0
  0
LINE
  5
2F7
330
6F
100
AcDbEntity
  8
ANCHOR
  6
HIDDEN
100
AcDbLine
 10
605.6083721509204
 20
91.33644960946668
 30
0.0
 11
609.891227719003
 21
92.70828308679105
 31
0.0
  0
LINE
  5
2F8
330
6F
100
AcDbEntity
  8
ANCHOR
  6
HIDDEN
100
AcDbLine
 10
610.3912277190032
 20
118.3694496094667
 30
0.0
 11
609.8912277190033
 21
118.0807744748718
 31
0.0
  0
LINE
  5
2F9
330
6F
100
AcDbEntity
  8
ANCHOR
  6
HIDDEN
100
AcDbLine
 10
610.391227719003
 20
118.3694496094669
 30
0.0
 11
610.0140585850757
 21
118.5872083104698
 31
0.0
  0
LINE
  5
2FA
330
6F
100
AcDbEntity
  8
ANCHOR
  6
HIDDEN
100
AcDbLine
 10
605.5912277190032
 20
116.2667744748717
 30
0.0
 11
609.891227719003
 21
118.0807744748717
 31
0.0
  0
LINE
  5
2FB
330
6F
100
AcDbEntity
  8
ANCHOR
  6
HIDDEN
100
AcDbLine
 10
610.3912277190032
 20
118.3694496094668
 30
0.0
 11
605.0912277190032
 21
116.5554496094667
 31
0.0
  0
LINE
  5
2FC
330
6F
100
AcDbEntity
  8
ANCHOR
  6
HIDDEN
100
AcDbLine
 10
610.1812277190028
 20
119.2764496094667
 30
0.0
 11
610.0140585850752
 21
118.5872083104697
 31
0.0
  0
LINE
  5
2FD
330
6F
100
AcDbEntity
  8
ANCHOR
  6
HIDDEN
100
AcDbLine
 10
610.0140585850757
 20
118.5872083104696
 30
0.0
 11
605.5912277190032
 21
116.8441247440613
 31
0.0
  0
LINE
  5
2FE
330
6F
100
AcDbEntity
  8
ANCHOR
  6
HIDDEN
100
AcDbLine
 10
605.3012277190031
 20
119.2764496094666
 30
0.0
 11
605.4460249435955
 21
118.6794480887647
 31
0.0
  0
LINE
  5
2FF
330
6F
100
AcDbEntity
  8
ANCHOR
  6
HIDDEN
100
AcDbLine
 10
604.951227719003
 20
118.4856589844668
 30
0.0
 11
605.5912277190032
 21
118.3141715013109
 31
0.0
  0
LINE
  5
300
330
6F
100
AcDbEntity
  8
ANCHOR
  6
HIDDEN
100
AcDbLine
 10
605.4460249435956
 20
118.6794480887646
 30
0.0
 11
604.9512277190032
 21
118.4856589844666
 31
0.0
  0
LINE
  5
301
330
6F
100
AcDbEntity
  8
ANCHOR
  6
HIDDEN
100
AcDbLine
 10
605.5912277190034
 20
118.3141715013108
 30
0.0
 11
607.7412277190034
 21
119.2764496094668
 31
0.0
  0
LINE
  5
302
330
6F
100
AcDbEntity
  8
ANCHOR
  6
HIDDEN
100
AcDbLine
 10
611.2412277190028
 20
120.3364496094664
 30
0.0
 11
610.1812277190031
 21
119.2764496094665
 31
0.0
  0
LINE
  5
303
330
6F
100
AcDbEntity
  8
ANCHOR
  6
HIDDEN
100
AcDbLine
 10
604.2412277190031
 20
120.3364496094665
 30
0.0
 11
605.3012277190031
 21
119.2764496094667
 31
0.0
  0
LINE
  5
304
330
6F
100
AcDbEntity
  8
ANCHOR
  6
Continuous
100
AcDbLine
 10
614.5912277183184
 20
121.9364496094664
 30
0.0
 11
600.8912277196882
 21
121.9364496094665
 31
0.0
  0
LINE
  5
305
330
6F
100
AcDbEntity
  8
ANCHOR
  6
Continuous
100
AcDbLine
 10
614.5912277183182
 20
121.9364496094665
 30
0.0
 11
614.5912277183182
 21
120.3364496096266
 31
0.0
  0
LINE
  5
306
330
6F
100
AcDbEntity
  8
ANCHOR
  6
Continuous
100
AcDbLine
 10
614.5912277183184
 20
120.3364496096263
 30
0.0
 11
600.8912277196882
 21
120.3364496096264
 31
0.0
  0
LINE
  5
307
330
6F
100
AcDbEntity
  8
ANCHOR
  6
Continuous
100
AcDbLine
 10
600.8912277196882
 20
120.3364496096266
 30
0.0
 11
600.8912277196882
 21
121.9364496094667
 31
0.0
  0
LINE
  5
308
330
6F
100
AcDbEntity
  8
ANCHOR
  6
Continuous
100
AcDbLine
 10
603.4912277190032
 20
122.7364496094668
 30
0.0
 11
602.7412277190031
 21
121.9364496094667
 31
0.0
  0
LINE
  5
309
330
6F
100
AcDbEntity
  8
ANCHOR
  6
Continuous
100
AcDbLine
 10
611.9912277190032
 20
122.7364496094663
 30
0.0
 11
612.7412277190035
 21
121.9364496094664
 31
0.0
  0
LINE
  5
30A
330
6F
100
AcDbEntity
  8
LOUVER
  6
Continuous
100
AcDbLine
 10
250.9273721238232
 20
119.3364496096251
 30
0.0
 11
250.9273721238243
 21
124.3364496093132
 31
0.0
  0
LINE
  5
30B
330
6F
100
AcDbEntity
  8
LOUVER
  6
Continuous
100
AcDbLine
 10
250.9273721238201
 20
119.3364496096252
 30
0.0
 11
252.7273721237687
 21
119.3364496096252
 31
0.0
  0
LINE
  5
30C
330
6F
100
AcDbEntity
  8
LOUVER
  6
Continuous
100
AcDbLine
 10
252.7273721237687
 20
268.3364496096251
 30
0.0
 11
227.7273721237687
 21
268.3364496096251
 31
0.0
  0
LINE
  5
30D
330
6F
100
AcDbEntity
  8
LOUVER
  6
Continuous
100
AcDbLine
 10
251.3273721237688
 20
133.3364496096257
 30
0.0
 11
247.4273721237687
 21
133.3364496096271
 31
0.0
  0
LINE
  5
30E
330
6F
100
AcDbEntity
  8
LOUVER
  6
Continuous
100
AcDbLine
 10
247.4273721237685
 20
133.3364496096274
 30
0.0
 11
247.4273721237686
 21
134.5364496096272
 31
0.0
  0
LINE
  5
30F
330
6F
100
AcDbEntity
  8
LOUVER
  6
Continuous
100
AcDbLine
 10
251.2273721237687
 20
165.836449609625
 30
0.0
 11
231.0844541900868
 21
165.8364496096249
 31
0.0
  0
LINE
  5
310
330
6F
100
AcDbEntity
  8
LOUVER
  6
Continuous
100
AcDbLine
 10
251.3273721237688
 20
134.5364496096258
 30
0.0
 11
247.4273721237691
 21
134.5364496096271
 31
0.0
  0
LINE
  5
311
330
6F
100
AcDbEntity
  8
LOUVER
  6
Continuous
100
AcDbLine
 10
251.3273721237688
 20
164.3364496096252
 30
0.0
 11
227.7273721237687
 21
164.3364496096252
 31
0.0
  0
LINE
  5
312
330
6F
100
AcDbEntity
  8
LOUVER
  6
Continuous
100
AcDbLine
 10
251.2273721237687
 20
165.836449609625
 30
0.0
 11
251.2273721237687
 21
266.8364496096251
 31
0.0
  0
LINE
  5
313
330
6F
100
AcDbEntity
  8
LOUVER
  6
Continuous
100
AcDbLine
 10
251.3273721237688
 20
128.136449609609
 30
0.0
 11
251.3273721237688
 21
133.3364496096261
 31
0.0
  0
LINE
  5
314
330
6F
100
AcDbEntity
  8
LOUVER
  6
Continuous
100
AcDbLine
 10
251.3273721237688
 20
134.5364496096259
 30
0.0
 11
251.3273721237688
 21
164.3364496096252
 31
0.0
  0
LINE
  5
315
330
6F
100
AcDbEntity
  8
LOUVER
  6
Continuous
100
AcDbLine
 10
202.7273721237679
 20
119.3364496096249
 30
0.0
 11
202.7273721237679
 21
268.3364496096251
 31
0.0
  0
LINE
  5
316
330
6F
100
AcDbEntity
  8
LOUVER
  6
Continuous
100
AcDbLine
 10
205.2273721233563
 20
128.136449609609
 30
0.0
 11
204.1273721237679
 21
128.136449609609
 31
0.0
  0
LINE
  5
317
330
6F
100
AcDbEntity
  8
LOUVER
  6
Continuous
100
AcDbLine
 10
204.5273721237135
 20
119.3364496096249
 30
0.0
 11
204.5273721237125
 21
124.3364496093129
 31
0.0
  0
LINE
  5
318
330
6F
100
AcDbEntity
  8
LOUVER
  6
Continuous
100
AcDbLine
 10
204.5273721237164
 20
119.3364496096252
 30
0.0
 11
202.727372123768
 21
119.3364496096252
 31
0.0
  0
LINE
  5
319
330
6F
100
AcDbEntity
  8
LOUVER
  6
Continuous
100
AcDbLine
 10
202.727372123768
 20
268.3364496096249
 30
0.0
 11
227.7273721237678
 21
268.3364496096249
 31
0.0
  0
LINE
  5
31A
330
6F
100
AcDbEntity
  8
LOUVER
  6
Continuous
100
AcDbLine
 10
204.127372123768
 20
133.3364496096257
 30
0.0
 11
208.0273721237681
 21
133.3364496096271
 31
0.0
  0
LINE
  5
31B
330
6F
100
AcDbEntity
  8
LOUVER
  6
Continuous
100
AcDbLine
 10
208.027372123768
 20
133.3364496096274
 30
0.0
 11
208.027372123768
 21
134.536449609627
 31
0.0
  0
LINE
  5
31C
330
6F
100
AcDbEntity
  8
LOUVER
  6
Continuous
100
AcDbLine
 10
204.227372123768
 20
165.8364496096249
 30
0.0
 11
224.370290057449
 21
165.8364496096249
 31
0.0
  0
LINE
  5
31D
330
6F
100
AcDbEntity
  8
LOUVER
  6
Continuous
100
AcDbLine
 10
204.1273721237681
 20
134.5364496096258
 30
0.0
 11
208.0273721237677
 21
134.5364496096272
 31
0.0
  0
LINE
  5
31E
330
6F
100
AcDbEntity
  8
LOUVER
  6
Continuous
100
AcDbLine
 10
204.1273721237679
 20
164.3364496096252
 30
0.0
 11
227.7273721237678
 21
164.3364496096252
 31
0.0
  0
LINE
  5
31F
330
6F
100
AcDbEntity
  8
LOUVER
  6
Continuous
100
AcDbLine
 10
204.227372123768
 20
165.8364496096249
 30
0.0
 11
204.227372123768
 21
266.836449609592
 31
0.0
  0
LINE
  5
320
330
6F
100
AcDbEntity
  8
LOUVER
  6
Continuous
100
AcDbLine
 10
204.1273721237679
 20
128.136449609609
 30
0.0
 11
204.1273721237679
 21
133.3364496096261
 31
0.0
  0
LINE
  5
321
330
6F
100
AcDbEntity
  8
LOUVER
  6
Continuous
100
AcDbLine
 10
204.1273721237679
 20
134.5364496096257
 30
0.0
 11
204.1273721237679
 21
164.3364496096252
 31
0.0
  0
LINE
  5
322
330
6F
100
AcDbEntity
  8
LOUVER
  6
Continuous
100
AcDbLine
 10
251.2273721237687
 20
266.8364496096251
 30
0.0
 11
237.7273721236345
 21
266.8364496096251
 31
0.0
  0
LINE
  5
323
330
6F
100
AcDbEntity
  8
LOUVER
  6
Continuous
100
AcDbLine
 10
252.7273721229416
 20
268.3364496096251
 30
0.0
 11
252.7273721223207
 21
119.3364496096249
 31
0.0
  0
ARC
  5
324
330
6F
100
AcDbEntity
  8
LOUVER
  6
Continuous
100
AcDbCircle
 10
205.2273721233565
 20
127.9364496096089
 30
0.0
 40
0.2
100
AcDbArc
 50
345.8703295108734
 51
90.0
  0
LINE
  5
325
330
6F
100
AcDbEntity
  8
LOUVER
  6
Continuous
100
AcDbLine
 10
237.7273721236348
 20
266.8364496096251
 30
0.0
 11
231.1369307248181
 21
266.3842484363053
 31
0.0
  0
LINE
  5
326
330
6F
100
AcDbEntity
  8
LOUVER
  6
Continuous
100
AcDbLine
 10
217.7273721239547
 20
266.8364496096111
 30
0.0
 11
224.317813522772
 21
266.3842484363005
 31
0.0
  0
LINE
  5
327
330
6F
100
AcDbEntity
  8
LOUVER
  6
Continuous
100
AcDbLine
 10
204.2273721238203
 20
266.8364496095921
 30
0.0
 11
217.7273721239547
 21
266.8364496096111
 31
0.0
  0
LINE
  5
328
330
6F
100
AcDbEntity
  8
LOUVER
  6
Continuous
100
AcDbLine
 10
204.5273721237125
 20
124.3364496093129
 30
0.0
 11
205.4213212693097
 21
127.8876261645855
 31
0.0
  0
LINE
  5
329
330
6F
100
AcDbEntity
  8
LOUVER
  6
Continuous
100
AcDbLine
 10
250.2273721243645
 20
128.1364496096314
 30
0.0
 11
251.3273721239529
 21
128.1364496096325
 31
0.0
  0
ARC
  5
32A
330
6F
100
AcDbEntity
  8
LOUVER
  6
Continuous
100
AcDbCircle
 10
250.2273721243647
 20
127.9364496096312
 30
0.0
 40
0.2
100
AcDbArc
 50
90.00000000005709
 51
194.1296704891837
  0
LINE
  5
32B
330
6F
100
AcDbEntity
  8
LOUVER
  6
Continuous
100
AcDbLine
 10
250.9273721240122
 20
124.336449609336
 30
0.0
 11
250.0334229784112
 21
127.887626164608
 31
0.0
  0
ARC
  5
32C
330
6F
100
AcDbEntity
  8
LOUVER
  6
Continuous
100
AcDbCircle
 10
227.7273721237681
 20
167.6364496096251
 30
0.0
 40
2.1
100
AcDbArc
 50
351.042328421765
 51
8.95767158078419
  0
ARC
  5
32D
330
6F
100
AcDbEntity
  8
LOUVER
  6
Continuous
100
AcDbCircle
 10
227.7273721237681
 20
167.6364496096251
 30
0.0
 40
1.8
100
AcDbArc
 50
20.35999519008635
 51
42.7186445082694
  0
ARC
  5
32E
330
6F
100
AcDbEntity
  8
LOUVER
  6
Continuous
100
AcDbCircle
 10
229.6041990401241
 20
167.932288630108
 30
0.0
 40
0.2
100
AcDbArc
 50
8.957671580785854
 51
89.99999999982035
  0
ARC
  5
32F
330
6F
100
AcDbEntity
  8
LOUVER
  6
Continuous
100
AcDbCircle
 10
229.6041990401374
 20
167.3406105892252
 30
0.0
 40
0.2
100
AcDbArc
 50
269.9999999998204
 51
351.0423284217637
  0
ARC
  5
330
330
6F
100
AcDbEntity
  8
LOUVER
  6
Continuous
100
AcDbCircle
 10
229.6024224027302
 20
166.940614534795
 30
0.0
 40
0.2
100
AcDbArc
 50
89.99999999982035
 51
159.6400048124608
  0
ARC
  5
331
330
6F
100
AcDbEntity
  8
LOUVER
  6
Continuous
100
AcDbCircle
 10
229.6024224026993
 20
168.3322846845379
 30
0.0
 40
0.2
100
AcDbArc
 50
200.3599951900913
 51
269.9999999998203
  0
ARC
  5
332
330
6F
100
AcDbEntity
  8
LOUVER
  6
Continuous
100
AcDbCircle
 10
229.5273721239451
 20
169.2985266232925
 30
0.0
 40
0.6500000000000014
100
AcDbArc
 50
42.71864450827042
 51
222.7186445082705
  0
ARC
  5
333
330
6F
100
AcDbEntity
  8
LOUVER
  6
Continuous
100
AcDbCircle
 10
227.7273721237681
 20
167.6364496096251
 30
0.0
 40
1.8
100
AcDbArc
 50
290.3599951900866
 51
339.6400048124626
  0
ARC
  5
334
330
6F
100
AcDbEntity
  8
LOUVER
  6
Continuous
100
AcDbCircle
 10
227.7273721237681
 20
167.6364496096251
 30
0.0
 40
1.8
100
AcDbArc
 50
137.281355473095
 51
159.6400048124627
  0
ARC
  5
335
330
6F
100
AcDbEntity
  8
LOUVER
  6
Continuous
100
AcDbCircle
 10
227.7273721237681
 20
167.6364496096251
 30
0.0
 40
1.8
100
AcDbArc
 50
200.3599951900864
 51
249.6400048124627
  0
ARC
  5
336
330
6F
100
AcDbEntity
  8
LOUVER
  6
Continuous
100
AcDbCircle
 10
225.9273721241312
 20
169.2985266238777
 30
0.0
 40
0.6500000000000048
100
AcDbArc
 50
317.2813554730932
 51
137.2813554730932
  0
ARC
  5
337
330
6F
100
AcDbEntity
  8
LOUVER
  6
Continuous
100
AcDbCircle
 10
227.7273721237681
 20
167.6364496096251
 30
0.0
 40
3.1
100
AcDbArc
 50
137.2813554730942
 51
201.1684488458317
  0
ARC
  5
338
330
6F
100
AcDbEntity
  8
LOUVER
  6
Continuous
100
AcDbCircle
 10
227.7273721237681
 20
167.6364496096251
 30
0.0
 40
3.1
100
AcDbArc
 50
338.8315511541684
 51
42.71864450826988
  0
LINE
  5
339
330
6F
100
AcDbEntity
  8
LOUVER
  6
Continuous
100
AcDbLine
 10
229.6024224026984
 20
168.132284684538
 30
0.0
 11
229.604199040125
 21
168.1322886301081
 31
0.0
  0
LINE
  5
33A
330
6F
100
AcDbEntity
  8
LOUVER
  6
Continuous
100
AcDbLine
 10
229.6024224027308
 20
167.1406145347955
 30
0.0
 11
229.6041990401367
 21
167.1406105892255
 31
0.0
  0
ARC
  5
33B
330
6F
100
AcDbEntity
  8
LOUVER
  6
Continuous
100
AcDbCircle
 10
228.0232111442511
 20
165.7596226932685
 30
0.0
 40
0.2
100
AcDbArc
 50
278.9576715807859
 51
359.9999999998204
  0
ARC
  5
33C
330
6F
100
AcDbEntity
  8
LOUVER
  6
Continuous
100
AcDbCircle
 10
227.4315331033682
 20
165.7596226932553
 30
0.0
 40
0.2
100
AcDbArc
 50
179.9999999998204
 51
261.0423284217637
  0
ARC
  5
33D
330
6F
100
AcDbEntity
  8
LOUVER
  6
Continuous
100
AcDbCircle
 10
227.0315370489385
 20
165.7613993306625
 30
0.0
 40
0.2
100
AcDbArc
 50
359.9999999998204
 51
69.64000481246078
  0
ARC
  5
33E
330
6F
100
AcDbEntity
  8
LOUVER
  6
Continuous
100
AcDbCircle
 10
228.4232071986808
 20
165.7613993306934
 30
0.0
 40
0.2
100
AcDbArc
 50
110.3599951900914
 51
179.9999999998204
  0
LINE
  5
33F
330
6F
100
AcDbEntity
  8
LOUVER
  6
Continuous
100
AcDbLine
 10
228.2232071986804
 20
165.7613993306941
 30
0.0
 11
228.2232111442505
 21
165.759622693268
 31
0.0
  0
LINE
  5
340
330
6F
100
AcDbEntity
  8
LOUVER
  6
Continuous
100
AcDbLine
 10
227.2315370489382
 20
165.7613993306616
 30
0.0
 11
227.2315331033682
 21
165.7596226932558
 31
0.0
  0
ARC
  5
341
330
6F
100
AcDbEntity
  8
LOUVER
  6
Continuous
100
AcDbCircle
 10
227.7273721237681
 20
167.6364496096251
 30
0.0
 40
2.1
100
AcDbArc
 50
171.042328421765
 51
188.9576715807843
  0
ARC
  5
342
330
6F
100
AcDbEntity
  8
LOUVER
  6
Continuous
100
AcDbCircle
 10
225.8505452074115
 20
167.3406105891415
 30
0.0
 40
0.2
100
AcDbArc
 50
188.9576715807859
 51
269.9999999998203
  0
ARC
  5
343
330
6F
100
AcDbEntity
  8
LOUVER
  6
Continuous
100
AcDbCircle
 10
225.8505452073983
 20
167.9322886300245
 30
0.0
 40
0.2
100
AcDbArc
 50
89.99999999982035
 51
171.0423284217637
  0
ARC
  5
344
330
6F
100
AcDbEntity
  8
LOUVER
  6
Continuous
100
AcDbCircle
 10
225.8523218448055
 20
168.3322846844546
 30
0.0
 40
0.2
100
AcDbArc
 50
269.9999999998204
 51
339.6400048124608
  0
ARC
  5
345
330
6F
100
AcDbEntity
  8
LOUVER
  6
Continuous
100
AcDbCircle
 10
225.8523218448364
 20
166.9406145347118
 30
0.0
 40
0.2
100
AcDbArc
 50
20.35999519009133
 51
89.99999999982035
  0
LINE
  5
346
330
6F
100
AcDbEntity
  8
LOUVER
  6
Continuous
100
AcDbLine
 10
225.8523218448372
 20
167.1406145347121
 30
0.0
 11
225.8505452074111
 21
167.140610589142
 31
0.0
  0
LINE
  5
347
330
6F
100
AcDbEntity
  8
LOUVER
  6
Continuous
100
AcDbLine
 10
225.8523218448049
 20
168.1322846844546
 30
0.0
 11
225.850545207399
 21
168.1322886300246
 31
0.0
  0
ARC
  5
348
330
6F
100
AcDbEntity
  8
LOUVER
  6
Continuous
100
AcDbCircle
 10
227.7273721237681
 20
167.6364496096246
 30
0.0
 40
2.1
100
AcDbArc
 50
261.0423284217649
 51
278.9576715807843
  0
ARC
  5
349
330
6F
100
AcDbEntity
  8
LOUVER
  6
Continuous
100
AcDbCircle
 10
227.7273721237681
 20
264.8364496096251
 30
0.0
 40
2.1
100
AcDbArc
 50
351.0423284193774
 51
8.957671578396658
  0
ARC
  5
34A
330
6F
100
AcDbEntity
  8
LOUVER
  6
Continuous
100
AcDbCircle
 10
227.7273721237681
 20
264.8364496096251
 30
0.0
 40
1.8
100
AcDbArc
 50
317.2813554918922
 51
339.6400048100753
  0
ARC
  5
34B
330
6F
100
AcDbEntity
  8
LOUVER
  6
Continuous
100
AcDbCircle
 10
229.6041990401251
 20
264.5406105891472
 30
0.0
 40
0.2
100
AcDbArc
 50
270.0000000003413
 51
351.0423284193759
  0
ARC
  5
34C
330
6F
100
AcDbEntity
  8
LOUVER
  6
Continuous
100
AcDbCircle
 10
229.6041990401367
 20
265.1322886300301
 30
0.0
 40
0.2
100
AcDbArc
 50
8.957671578397892
 51
90.00000000034114
  0
ARC
  5
34D
330
6F
100
AcDbEntity
  8
LOUVER
  6
Continuous
100
AcDbCircle
 10
229.6024224027284
 20
265.5322846844601
 30
0.0
 40
0.2
100
AcDbArc
 50
200.3599951877008
 51
270.0000000003413
  0
ARC
  5
34E
330
6F
100
AcDbEntity
  8
LOUVER
  6
Continuous
100
AcDbCircle
 10
229.6024224027015
 20
264.1406145347175
 30
0.0
 40
0.2
100
AcDbArc
 50
90.00000000034136
 51
159.6400048100703
  0
ARC
  5
34F
330
6F
100
AcDbEntity
  8
LOUVER
  6
Continuous
100
AcDbCircle
 10
229.5273721239501
 20
263.1743725959627
 30
0.0
 40
0.6500000000000014
100
AcDbArc
 50
137.2813554918912
 51
317.2813554918912
  0
ARC
  5
350
330
6F
100
AcDbEntity
  8
LOUVER
  6
Continuous
100
AcDbCircle
 10
227.7273721237681
 20
264.8364496096251
 30
0.0
 40
1.8
100
AcDbArc
 50
20.359995187699
 51
69.64000481007504
  0
ARC
  5
351
330
6F
100
AcDbEntity
  8
LOUVER
  6
Continuous
100
AcDbCircle
 10
227.7273721237681
 20
264.8364496096251
 30
0.0
 40
1.8
100
AcDbArc
 50
200.3599951876989
 51
222.7186445270667
  0
ARC
  5
352
330
6F
100
AcDbEntity
  8
LOUVER
  6
Continuous
100
AcDbCircle
 10
227.7273721237681
 20
264.8364496096251
 30
0.0
 40
1.8
100
AcDbArc
 50
110.359995187699
 51
159.6400048100752
  0
ARC
  5
353
330
6F
100
AcDbEntity
  8
LOUVER
  6
Continuous
100
AcDbCircle
 10
225.9273721241362
 20
263.1743725953672
 30
0.0
 40
0.6500000000000048
100
AcDbArc
 50
222.7186445270684
 51
42.71864452706842
  0
ARC
  5
354
330
6F
100
AcDbEntity
  8
LOUVER
  6
Continuous
100
AcDbCircle
 10
227.7273721237681
 20
264.8364496096251
 30
0.0
 40
3.1
100
AcDbArc
 50
163.059346070501
 51
222.7186445270675
  0
ARC
  5
355
330
6F
100
AcDbEntity
  8
LOUVER
  6
Continuous
100
AcDbCircle
 10
227.7273721237681
 20
264.8364496096251
 30
0.0
 40
3.1
100
AcDbArc
 50
317.2813554918917
 51
16.94065392951864
  0
LINE
  5
356
330
6F
100
AcDbEntity
  8
LOUVER
  6
Continuous
100
AcDbLine
 10
229.6024224027
 20
264.3406145347174
 30
0.0
 11
229.6041990401263
 21
264.3406105891473
 31
0.0
  0
LINE
  5
357
330
6F
100
AcDbEntity
  8
LOUVER
  6
Continuous
100
AcDbLine
 10
229.6024224027296
 20
265.3322846844597
 30
0.0
 11
229.6041990401355
 21
265.3322886300297
 31
0.0
  0
ARC
  5
358
330
6F
100
AcDbEntity
  8
LOUVER
  6
Continuous
100
AcDbCircle
 10
228.0232111442457
 20
266.7132765259825
 30
0.0
 40
0.2
100
AcDbArc
 50
0.000000000341159
 51
81.04232841937571
  0
ARC
  5
359
330
6F
100
AcDbEntity
  8
LOUVER
  6
Continuous
100
AcDbCircle
 10
227.4315331033632
 20
266.7132765259939
 30
0.0
 40
0.2
100
AcDbArc
 50
98.95767157839792
 51
180.0000000003413
  0
ARC
  5
35A
330
6F
100
AcDbEntity
  8
LOUVER
  6
Continuous
100
AcDbCircle
 10
227.031537048933
 20
266.7114998885858
 30
0.0
 40
0.2
100
AcDbArc
 50
290.3599951877009
 51
0.0000000003411671
  0
ARC
  5
35B
330
6F
100
AcDbEntity
  8
LOUVER
  6
Continuous
100
AcDbCircle
 10
228.4232071986758
 20
266.7114998885588
 30
0.0
 40
0.2
100
AcDbArc
 50
180.0000000003413
 51
249.6400048100703
  0
LINE
  5
35C
330
6F
100
AcDbEntity
  8
LOUVER
  6
Continuous
100
AcDbLine
 10
228.2232071986751
 20
266.7114998885574
 30
0.0
 11
228.2232111442452
 21
266.7132765259834
 31
0.0
  0
LINE
  5
35D
330
6F
100
AcDbEntity
  8
LOUVER
  6
Continuous
100
AcDbLine
 10
227.231537048933
 20
266.7114998885868
 30
0.0
 11
227.2315331033629
 21
266.7132765259927
 31
0.0
  0
ARC
  5
35E
330
6F
100
AcDbEntity
  8
LOUVER
  6
Continuous
100
AcDbCircle
 10
227.7273721237681
 20
264.8364496096251
 30
0.0
 40
2.1
100
AcDbArc
 50
171.0423284193774
 51
188.9576715783966
  0
ARC
  5
35F
330
6F
100
AcDbEntity
  8
LOUVER
  6
Continuous
100
AcDbCircle
 10
225.8505452074108
 20
265.1322886301031
 30
0.0
 40
0.2
100
AcDbArc
 50
90.00000000034136
 51
171.0423284193756
  0
ARC
  5
360
330
6F
100
AcDbEntity
  8
LOUVER
  6
Continuous
100
AcDbCircle
 10
225.8505452073992
 20
264.5406105892202
 30
0.0
 40
0.2
100
AcDbArc
 50
188.9576715783979
 51
270.0000000003413
  0
ARC
  5
361
330
6F
100
AcDbEntity
  8
LOUVER
  6
Continuous
100
AcDbCircle
 10
225.8523218448077
 20
264.1406145347903
 30
0.0
 40
0.2
100
AcDbArc
 50
20.35999518770083
 51
90.00000000034114
  0
ARC
  5
362
330
6F
100
AcDbEntity
  8
LOUVER
  6
Continuous
100
AcDbCircle
 10
225.8523218448346
 20
265.5322846845328
 30
0.0
 40
0.2
100
AcDbArc
 50
270.0000000003413
 51
339.6400048100703
  0
LINE
  5
363
330
6F
100
AcDbEntity
  8
LOUVER
  6
Continuous
100
AcDbLine
 10
225.8523218448361
 20
265.332284684533
 30
0.0
 11
225.85054520741
 21
265.3322886301031
 31
0.0
  0
LINE
  5
364
330
6F
100
AcDbEntity
  8
LOUVER
  6
Continuous
100
AcDbLine
 10
225.8523218448065
 20
264.34061453479
 30
0.0
 11
225.8505452074006
 21
264.3406105892201
 31
0.0
  0
ARC
  5
365
330
6F
100
AcDbEntity
  8
LOUVER
  6
Continuous
100
AcDbCircle
 10
227.7273721237681
 20
264.8364496096253
 30
0.0
 40
2.1
100
AcDbArc
 50
81.04232841937735
 51
98.95767157839678
  0
ARC
  5
366
330
6F
100
AcDbEntity
  8
LOUVER
  6
Continuous
100
AcDbCircle
 10
231.1711576007998
 20
265.8854212909327
 30
0.0
 40
0.5
100
AcDbArc
 50
93.92518067041988
 51
196.9406539295183
  0
ARC
  5
367
330
6F
100
AcDbEntity
  8
LOUVER
  6
Continuous
100
AcDbCircle
 10
224.2835866467359
 20
265.8854212909316
 30
0.0
 40
0.5
100
AcDbArc
 50
343.0593460705006
 51
86.07481932966164
  0
ARC
  5
368
330
6F
100
AcDbEntity
  8
LOUVER
  6
Continuous
100
AcDbCircle
 10
224.3702900574491
 20
166.3364496096249
 30
0.0
 40
0.5
100
AcDbArc
 50
270.0
 51
21.16844884583121
  0
ARC
  5
369
330
6F
100
AcDbEntity
  8
LOUVER
  6
Continuous
100
AcDbCircle
 10
231.084454190087
 20
166.3364496096249
 30
0.0
 40
0.5
100
AcDbArc
 50
158.8315511541688
 51
270.0
  0
LINE
  5
36A
330
6F
100
AcDbEntity
  8
LOUVER
  6
Continuous
100
AcDbLine
 10
630.9412277193937
 20
117.8364496096257
 30
0.0
 11
630.9412277193947
 21
122.8364496093137
 31
0.0
  0
LINE
  5
36B
330
6F
100
AcDbEntity
  8
LOUVER
  6
Continuous
100
AcDbLine
 10
630.9412277193906
 20
117.8364496096257
 30
0.0
 11
632.7412277193391
 21
117.8364496096257
 31
0.0
  0
LINE
  5
36C
330
6F
100
AcDbEntity
  8
LOUVER
  6
Continuous
100
AcDbLine
 10
632.7412277193391
 20
266.8364496096256
 30
0.0
 11
607.7412277193391
 21
266.8364496096256
 31
0.0
  0
LINE
  5
36D
330
6F
100
AcDbEntity
  8
LOUVER
  6
Continuous
100
AcDbLine
 10
631.3412277193394
 20
131.8364496096262
 30
0.0
 11
627.4412277193391
 21
131.8364496096275
 31
0.0
  0
LINE
  5
36E
330
6F
100
AcDbEntity
  8
LOUVER
  6
Continuous
100
AcDbLine
 10
627.4412277193389
 20
131.8364496096279
 30
0.0
 11
627.4412277193391
 21
133.0364496096277
 31
0.0
  0
LINE
  5
36F
330
6F
100
AcDbEntity
  8
LOUVER
  6
Continuous
100
AcDbLine
 10
631.2412277193391
 20
164.3364496096255
 30
0.0
 11
611.0983097856573
 21
164.3364496096255
 31
0.0
  0
LINE
  5
370
330
6F
100
AcDbEntity
  8
LOUVER
  6
Continuous
100
AcDbLine
 10
631.3412277193393
 20
133.0364496096263
 30
0.0
 11
627.4412277193396
 21
133.0364496096276
 31
0.0
  0
LINE
  5
371
330
6F
100
AcDbEntity
  8
LOUVER
  6
Continuous
100
AcDbLine
 10
631.3412277193393
 20
162.8364496096257
 30
0.0
 11
607.7412277193391
 21
162.8364496096257
 31
0.0
  0
LINE
  5
372
330
6F
100
AcDbEntity
  8
LOUVER
  6
Continuous
100
AcDbLine
 10
631.2412277193391
 20
164.3364496096255
 30
0.0
 11
631.2412277193391
 21
265.3364496096255
 31
0.0
  0
LINE
  5
373
330
6F
100
AcDbEntity
  8
LOUVER
  6
Continuous
100
AcDbLine
 10
631.3412277193393
 20
126.6364496096095
 30
0.0
 11
631.3412277193393
 21
131.8364496096266
 31
0.0
  0
LINE
  5
374
330
6F
100
AcDbEntity
  8
LOUVER
  6
Continuous
100
AcDbLine
 10
631.3412277193393
 20
133.0364496096264
 30
0.0
 11
631.3412277193393
 21
162.8364496096257
 31
0.0
  0
LINE
  5
375
330
6F
100
AcDbEntity
  8
LOUVER
  6
Continuous
100
AcDbLine
 10
582.741227719338
 20
117.8364496096254
 30
0.0
 11
582.741227719338
 21
266.8364496096256
 31
0.0
  0
LINE
  5
376
330
6F
100
AcDbEntity
  8
LOUVER
  6
Continuous
100
AcDbLine
 10
585.2412277189268
 20
126.6364496096095
 30
0.0
 11
584.1412277193382
 21
126.6364496096095
 31
0.0
  0
LINE
  5
377
330
6F
100
AcDbEntity
  8
LOUVER
  6
Continuous
100
AcDbLine
 10
584.5412277192839
 20
117.8364496096254
 30
0.0
 11
584.5412277192828
 21
122.8364496093135
 31
0.0
  0
LINE
  5
378
330
6F
100
AcDbEntity
  8
LOUVER
  6
Continuous
100
AcDbLine
 10
584.5412277192868
 20
117.8364496096257
 30
0.0
 11
582.7412277193381
 21
117.8364496096257
 31
0.0
  0
LINE
  5
379
330
6F
100
AcDbEntity
  8
LOUVER
  6
Continuous
100
AcDbLine
 10
582.7412277193381
 20
266.8364496096255
 30
0.0
 11
607.741227719338
 21
266.8364496096255
 31
0.0
  0
LINE
  5
37A
330
6F
100
AcDbEntity
  8
LOUVER
  6
Continuous
100
AcDbLine
 10
584.1412277193382
 20
131.8364496096262
 30
0.0
 11
588.0412277193385
 21
131.8364496096275
 31
0.0
  0
LINE
  5
37B
330
6F
100
AcDbEntity
  8
LOUVER
  6
Continuous
100
AcDbLine
 10
588.0412277193384
 20
131.8364496096279
 30
0.0
 11
588.0412277193384
 21
133.0364496096275
 31
0.0
  0
LINE
  5
37C
330
6F
100
AcDbEntity
  8
LOUVER
  6
Continuous
100
AcDbLine
 10
584.2412277193382
 20
164.3364496096255
 30
0.0
 11
604.3841456530194
 21
164.3364496096255
 31
0.0
  0
LINE
  5
37D
330
6F
100
AcDbEntity
  8
LOUVER
  6
Continuous
100
AcDbLine
 10
584.1412277193385
 20
133.0364496096263
 30
0.0
 11
588.0412277193382
 21
133.0364496096277
 31
0.0
  0
LINE
  5
37E
330
6F
100
AcDbEntity
  8
LOUVER
  6
Continuous
100
AcDbLine
 10
584.1412277193382
 20
162.8364496096257
 30
0.0
 11
607.741227719338
 21
162.8364496096257
 31
0.0
  0
LINE
  5
37F
330
6F
100
AcDbEntity
  8
LOUVER
  6
Continuous
100
AcDbLine
 10
584.2412277193382
 20
164.3364496096255
 30
0.0
 11
584.2412277193382
 21
265.3364496095925
 31
0.0
  0
LINE
  5
380
330
6F
100
AcDbEntity
  8
LOUVER
  6
Continuous
100
AcDbLine
 10
584.1412277193382
 20
126.6364496096095
 30
0.0
 11
584.1412277193382
 21
131.8364496096266
 31
0.0
  0
LINE
  5
381
330
6F
100
AcDbEntity
  8
LOUVER
  6
Continuous
100
AcDbLine
 10
584.1412277193382
 20
133.0364496096262
 30
0.0
 11
584.1412277193382
 21
162.8364496096257
 31
0.0
  0
LINE
  5
382
330
6F
100
AcDbEntity
  8
LOUVER
  6
Continuous
100
AcDbLine
 10
631.2412277193391
 20
265.3364496096255
 30
0.0
 11
617.741227719205
 21
265.3364496096255
 31
0.0
  0
LINE
  5
383
330
6F
100
AcDbEntity
  8
LOUVER
  6
Continuous
100
AcDbLine
 10
632.7412277185121
 20
266.8364496096256
 30
0.0
 11
632.7412277178912
 21
117.8364496096255
 31
0.0
  0
ARC
  5
384
330
6F
100
AcDbEntity
  8
LOUVER
  6
Continuous
100
AcDbCircle
 10
585.2412277189269
 20
126.4364496096094
 30
0.0
 40
0.2
100
AcDbArc
 50
345.8703295108734
 51
90.0
  0
LINE
  5
385
330
6F
100
AcDbEntity
  8
LOUVER
  6
Continuous
100
AcDbLine
 10
617.741227719205
 20
265.3364496096255
 30
0.0
 11
611.1507863203883
 21
264.8842484363058
 31
0.0
  0
LINE
  5
386
330
6F
100
AcDbEntity
  8
LOUVER
  6
Continuous
100
AcDbLine
 10
597.7412277195252
 20
265.3364496096116
 30
0.0
 11
604.3316691183425
 21
264.8842484363011
 31
0.0
  0
LINE
  5
387
330
6F
100
AcDbEntity
  8
LOUVER
  6
Continuous
100
AcDbLine
 10
584.2412277193907
 20
265.3364496095926
 30
0.0
 11
597.7412277195252
 21
265.3364496096116
 31
0.0
  0
LINE
  5
388
330
6F
100
AcDbEntity
  8
LOUVER
  6
Continuous
100
AcDbLine
 10
584.5412277192828
 20
122.8364496093134
 30
0.0
 11
585.4351768648801
 21
126.387626164586
 31
0.0
  0
LINE
  5
389
330
6F
100
AcDbEntity
  8
LOUVER
  6
Continuous
100
AcDbLine
 10
630.2412277199351
 20
126.6364496096319
 30
0.0
 11
631.3412277195234
 21
126.636449609633
 31
0.0
  0
ARC
  5
38A
330
6F
100
AcDbEntity
  8
LOUVER
  6
Continuous
100
AcDbCircle
 10
630.2412277199351
 20
126.4364496096317
 30
0.0
 40
0.2
100
AcDbArc
 50
90.00000000005709
 51
194.1296704891837
  0
LINE
  5
38B
330
6F
100
AcDbEntity
  8
LOUVER
  6
Continuous
100
AcDbLine
 10
630.9412277195828
 20
122.8364496093365
 30
0.0
 11
630.0472785739818
 21
126.3876261646086
 31
0.0
  0
ARC
  5
38C
330
6F
100
AcDbEntity
  8
LOUVER
  6
Continuous
100
AcDbCircle
 10
607.7412277193385
 20
166.1364496096256
 30
0.0
 40
2.1
100
AcDbArc
 50
351.042328421765
 51
8.95767158078419
  0
ARC
  5
38D
330
6F
100
AcDbEntity
  8
LOUVER
  6
Continuous
100
AcDbCircle
 10
607.7412277193385
 20
166.1364496096256
 30
0.0
 40
1.8
100
AcDbArc
 50
20.35999519008635
 51
42.7186445082694
  0
ARC
  5
38E
330
6F
100
AcDbEntity
  8
LOUVER
  6
Continuous
100
AcDbCircle
 10
609.6180546356947
 20
166.4322886301086
 30
0.0
 40
0.2
100
AcDbArc
 50
8.957671580785854
 51
89.99999999982035
  0
ARC
  5
38F
330
6F
100
AcDbEntity
  8
LOUVER
  6
Continuous
100
AcDbCircle
 10
609.6180546357078
 20
165.8406105892257
 30
0.0
 40
0.2
100
AcDbArc
 50
269.9999999998204
 51
351.0423284217637
  0
ARC
  5
390
330
6F
100
AcDbEntity
  8
LOUVER
  6
Continuous
100
AcDbCircle
 10
609.6162779983008
 20
165.4406145347955
 30
0.0
 40
0.2
100
AcDbArc
 50
89.99999999982035
 51
159.6400048124608
  0
ARC
  5
391
330
6F
100
AcDbEntity
  8
LOUVER
  6
Continuous
100
AcDbCircle
 10
609.6162779982697
 20
166.8322846845384
 30
0.0
 40
0.2
100
AcDbArc
 50
200.3599951900913
 51
269.9999999998203
  0
ARC
  5
392
330
6F
100
AcDbEntity
  8
LOUVER
  6
Continuous
100
AcDbCircle
 10
609.5412277195156
 20
167.798526623293
 30
0.0
 40
0.6500000000000014
100
AcDbArc
 50
42.71864450827042
 51
222.7186445082705
  0
ARC
  5
393
330
6F
100
AcDbEntity
  8
LOUVER
  6
Continuous
100
AcDbCircle
 10
607.7412277193385
 20
166.1364496096256
 30
0.0
 40
1.8
100
AcDbArc
 50
290.3599951900866
 51
339.6400048124626
  0
ARC
  5
394
330
6F
100
AcDbEntity
  8
LOUVER
  6
Continuous
100
AcDbCircle
 10
607.7412277193385
 20
166.1364496096256
 30
0.0
 40
1.8
100
AcDbArc
 50
137.281355473095
 51
159.6400048124627
  0
ARC
  5
395
330
6F
100
AcDbEntity
  8
LOUVER
  6
Continuous
100
AcDbCircle
 10
607.7412277193385
 20
166.1364496096256
 30
0.0
 40
1.8
100
AcDbArc
 50
200.3599951900864
 51
249.6400048124627
  0
ARC
  5
396
330
6F
100
AcDbEntity
  8
LOUVER
  6
Continuous
100
AcDbCircle
 10
605.9412277197017
 20
167.7985266238782
 30
0.0
 40
0.6500000000000048
100
AcDbArc
 50
317.2813554730932
 51
137.2813554730932
  0
ARC
  5
397
330
6F
100
AcDbEntity
  8
LOUVER
  6
Continuous
100
AcDbCircle
 10
607.7412277193385
 20
166.1364496096256
 30
0.0
 40
3.1
100
AcDbArc
 50
137.2813554730942
 51
201.1684488458317
  0
ARC
  5
398
330
6F
100
AcDbEntity
  8
LOUVER
  6
Continuous
100
AcDbCircle
 10
607.7412277193385
 20
166.1364496096256
 30
0.0
 40
3.1
100
AcDbArc
 50
338.8315511541684
 51
42.71864450826988
  0
LINE
  5
399
330
6F
100
AcDbEntity
  8
LOUVER
  6
Continuous
100
AcDbLine
 10
609.6162779982687
 20
166.6322846845385
 30
0.0
 11
609.6180546356952
 21
166.6322886301085
 31
0.0
  0
LINE
  5
39A
330
6F
100
AcDbEntity
  8
LOUVER
  6
Continuous
100
AcDbLine
 10
609.6162779983012
 20
165.640614534796
 30
0.0
 11
609.6180546357072
 21
165.640610589226
 31
0.0
  0
ARC
  5
39B
330
6F
100
AcDbEntity
  8
LOUVER
  6
Continuous
100
AcDbCircle
 10
608.0370667398216
 20
164.259622693269
 30
0.0
 40
0.2
100
AcDbArc
 50
278.9576715807859
 51
359.9999999998204
  0
ARC
  5
39C
330
6F
100
AcDbEntity
  8
LOUVER
  6
Continuous
100
AcDbCircle
 10
607.4453886989386
 20
164.2596226932558
 30
0.0
 40
0.2
100
AcDbArc
 50
179.9999999998204
 51
261.0423284217637
  0
ARC
  5
39D
330
6F
100
AcDbEntity
  8
LOUVER
  6
Continuous
100
AcDbCircle
 10
607.045392644509
 20
164.261399330663
 30
0.0
 40
0.2
100
AcDbArc
 50
359.9999999998204
 51
69.64000481246078
  0
ARC
  5
39E
330
6F
100
AcDbEntity
  8
LOUVER
  6
Continuous
100
AcDbCircle
 10
608.4370627942514
 20
164.2613993306939
 30
0.0
 40
0.2
100
AcDbArc
 50
110.3599951900914
 51
179.9999999998204
  0
LINE
  5
39F
330
6F
100
AcDbEntity
  8
LOUVER
  6
Continuous
100
AcDbLine
 10
608.237062794251
 20
164.2613993306946
 30
0.0
 11
608.2370667398211
 21
164.2596226932685
 31
0.0
  0
LINE
  5
3A0
330
6F
100
AcDbEntity
  8
LOUVER
  6
Continuous
100
AcDbLine
 10
607.2453926445088
 20
164.2613993306622
 30
0.0
 11
607.2453886989388
 21
164.2596226932564
 31
0.0
  0
ARC
  5
3A1
330
6F
100
AcDbEntity
  8
LOUVER
  6
Continuous
100
AcDbCircle
 10
607.7412277193385
 20
166.1364496096256
 30
0.0
 40
2.1
100
AcDbArc
 50
171.042328421765
 51
188.9576715807843
  0
ARC
  5
3A2
330
6F
100
AcDbEntity
  8
LOUVER
  6
Continuous
100
AcDbCircle
 10
605.864400802982
 20
165.8406105891421
 30
0.0
 40
0.2
100
AcDbArc
 50
188.9576715807859
 51
269.9999999998203
  0
ARC
  5
3A3
330
6F
100
AcDbEntity
  8
LOUVER
  6
Continuous
100
AcDbCircle
 10
605.8644008029687
 20
166.432288630025
 30
0.0
 40
0.2
100
AcDbArc
 50
89.99999999982035
 51
171.0423284217637
  0
ARC
  5
3A4
330
6F
100
AcDbEntity
  8
LOUVER
  6
Continuous
100
AcDbCircle
 10
605.8661774403758
 20
166.8322846844551
 30
0.0
 40
0.2
100
AcDbArc
 50
269.9999999998204
 51
339.6400048124608
  0
ARC
  5
3A5
330
6F
100
AcDbEntity
  8
LOUVER
  6
Continuous
100
AcDbCircle
 10
605.8661774404067
 20
165.4406145347123
 30
0.0
 40
0.2
100
AcDbArc
 50
20.35999519009133
 51
89.99999999982035
  0
LINE
  5
3A6
330
6F
100
AcDbEntity
  8
LOUVER
  6
Continuous
100
AcDbLine
 10
605.8661774404076
 20
165.6406145347126
 30
0.0
 11
605.8644008029816
 21
165.6406105891425
 31
0.0
  0
LINE
  5
3A7
330
6F
100
AcDbEntity
  8
LOUVER
  6
Continuous
100
AcDbLine
 10
605.8661774403754
 20
166.6322846844551
 30
0.0
 11
605.8644008029695
 21
166.6322886300251
 31
0.0
  0
ARC
  5
3A8
330
6F
100
AcDbEntity
  8
LOUVER
  6
Continuous
100
AcDbCircle
 10
607.7412277193385
 20
166.1364496096251
 30
0.0
 40
2.1
100
AcDbArc
 50
261.0423284217649
 51
278.9576715807843
  0
ARC
  5
3A9
330
6F
100
AcDbEntity
  8
LOUVER
  6
Continuous
100
AcDbCircle
 10
607.7412277193385
 20
263.3364496096255
 30
0.0
 40
2.1
100
AcDbArc
 50
351.0423284193774
 51
8.957671578396658
  0
ARC
  5
3AA
330
6F
100
AcDbEntity
  8
LOUVER
  6
Continuous
100
AcDbCircle
 10
607.7412277193385
 20
263.3364496096255
 30
0.0
 40
1.8
100
AcDbArc
 50
317.2813554918922
 51
339.6400048100753
  0
ARC
  5
3AB
330
6F
100
AcDbEntity
  8
LOUVER
  6
Continuous
100
AcDbCircle
 10
609.6180546356956
 20
263.0406105891477
 30
0.0
 40
0.2
100
AcDbArc
 50
270.0000000003413
 51
351.0423284193759
  0
ARC
  5
3AC
330
6F
100
AcDbEntity
  8
LOUVER
  6
Continuous
100
AcDbCircle
 10
609.6180546357072
 20
263.6322886300306
 30
0.0
 40
0.2
100
AcDbArc
 50
8.957671578397892
 51
90.00000000034114
  0
ARC
  5
3AD
330
6F
100
AcDbEntity
  8
LOUVER
  6
Continuous
100
AcDbCircle
 10
609.6162779982988
 20
264.0322846844606
 30
0.0
 40
0.2
100
AcDbArc
 50
200.3599951877008
 51
270.0000000003413
  0
ARC
  5
3AE
330
6F
100
AcDbEntity
  8
LOUVER
  6
Continuous
100
AcDbCircle
 10
609.616277998272
 20
262.640614534718
 30
0.0
 40
0.2
100
AcDbArc
 50
90.00000000034136
 51
159.6400048100703
  0
ARC
  5
3AF
330
6F
100
AcDbEntity
  8
LOUVER
  6
Continuous
100
AcDbCircle
 10
609.5412277195206
 20
261.6743725959632
 30
0.0
 40
0.6500000000000014
100
AcDbArc
 50
137.2813554918912
 51
317.2813554918912
  0
ARC
  5
3B0
330
6F
100
AcDbEntity
  8
LOUVER
  6
Continuous
100
AcDbCircle
 10
607.7412277193385
 20
263.3364496096255
 30
0.0
 40
1.8
100
AcDbArc
 50
20.359995187699
 51
69.64000481007504
  0
ARC
  5
3B1
330
6F
100
AcDbEntity
  8
LOUVER
  6
Continuous
100
AcDbCircle
 10
607.7412277193385
 20
263.3364496096255
 30
0.0
 40
1.8
100
AcDbArc
 50
200.3599951876989
 51
222.7186445270667
  0
ARC
  5
3B2
330
6F
100
AcDbEntity
  8
LOUVER
  6
Continuous
100
AcDbCircle
 10
607.7412277193385
 20
263.3364496096255
 30
0.0
 40
1.8
100
AcDbArc
 50
110.359995187699
 51
159.6400048100752
  0
ARC
  5
3B3
330
6F
100
AcDbEntity
  8
LOUVER
  6
Continuous
100
AcDbCircle
 10
605.9412277197067
 20
261.6743725953677
 30
0.0
 40
0.6500000000000048
100
AcDbArc
 50
222.7186445270684
 51
42.71864452706842
  0
ARC
  5
3B4
330
6F
100
AcDbEntity
  8
LOUVER
  6
Continuous
100
AcDbCircle
 10
607.7412277193385
 20
263.3364496096255
 30
0.0
 40
3.1
100
AcDbArc
 50
163.059346070501
 51
222.7186445270675
  0
ARC
  5
3B5
330
6F
100
AcDbEntity
  8
LOUVER
  6
Continuous
100
AcDbCircle
 10
607.7412277193385
 20
263.3364496096255
 30
0.0
 40
3.1
100
AcDbArc
 50
317.2813554918917
 51
16.94065392951864
  0
LINE
  5
3B6
330
6F
100
AcDbEntity
  8
LOUVER
  6
Continuous
100
AcDbLine
 10
609.6162779982702
 20
262.8406145347178
 30
0.0
 11
609.6180546356967
 21
262.8406105891477
 31
0.0
  0
LINE
  5
3B7
330
6F
100
AcDbEntity
  8
LOUVER
  6
Continuous
100
AcDbLine
 10
609.6162779983004
 20
263.8322846844603
 30
0.0
 11
609.6180546357061
 21
263.8322886300303
 31
0.0
  0
ARC
  5
3B8
330
6F
100
AcDbEntity
  8
LOUVER
  6
Continuous
100
AcDbCircle
 10
608.0370667398162
 20
265.213276525983
 30
0.0
 40
0.2
100
AcDbArc
 50
0.000000000341159
 51
81.04232841937571
  0
ARC
  5
3B9
330
6F
100
AcDbEntity
  8
LOUVER
  6
Continuous
100
AcDbCircle
 10
607.4453886989337
 20
265.2132765259944
 30
0.0
 40
0.2
100
AcDbArc
 50
98.95767157839792
 51
180.0000000003413
  0
ARC
  5
3BA
330
6F
100
AcDbEntity
  8
LOUVER
  6
Continuous
100
AcDbCircle
 10
607.0453926445035
 20
265.2114998885863
 30
0.0
 40
0.2
100
AcDbArc
 50
290.3599951877009
 51
0.0000000003411671
  0
ARC
  5
3BB
330
6F
100
AcDbEntity
  8
LOUVER
  6
Continuous
100
AcDbCircle
 10
608.4370627942462
 20
265.2114998885593
 30
0.0
 40
0.2
100
AcDbArc
 50
180.0000000003413
 51
249.6400048100703
  0
LINE
  5
3BC
330
6F
100
AcDbEntity
  8
LOUVER
  6
Continuous
100
AcDbLine
 10
608.2370627942456
 20
265.2114998885578
 30
0.0
 11
608.2370667398158
 21
265.2132765259839
 31
0.0
  0
LINE
  5
3BD
330
6F
100
AcDbEntity
  8
LOUVER
  6
Continuous
100
AcDbLine
 10
607.2453926445034
 20
265.2114998885874
 30
0.0
 11
607.2453886989334
 21
265.2132765259933
 31
0.0
  0
ARC
  5
3BE
330
6F
100
AcDbEntity
  8
LOUVER
  6
Continuous
100
AcDbCircle
 10
607.7412277193385
 20
263.3364496096255
 30
0.0
 40
2.1
100
AcDbArc
 50
171.0423284193774
 51
188.9576715783966
  0
ARC
  5
3BF
330
6F
100
AcDbEntity
  8
LOUVER
  6
Continuous
100
AcDbCircle
 10
605.8644008029812
 20
263.6322886301036
 30
0.0
 40
0.2
100
AcDbArc
 50
90.00000000034136
 51
171.0423284193756
  0
ARC
  5
3C0
330
6F
100
AcDbEntity
  8
LOUVER
  6
Continuous
100
AcDbCircle
 10
605.8644008029697
 20
263.0406105892207
 30
0.0
 40
0.2
100
AcDbArc
 50
188.9576715783979
 51
270.0000000003413
  0
ARC
  5
3C1
330
6F
100
AcDbEntity
  8
LOUVER
  6
Continuous
100
AcDbCircle
 10
605.8661774403782
 20
262.6406145347908
 30
0.0
 40
0.2
100
AcDbArc
 50
20.35999518770083
 51
90.00000000034114
  0
ARC
  5
3C2
330
6F
100
AcDbEntity
  8
LOUVER
  6
Continuous
100
AcDbCircle
 10
605.866177440405
 20
264.0322846845334
 30
0.0
 40
0.2
100
AcDbArc
 50
270.0000000003413
 51
339.6400048100703
  0
LINE
  5
3C3
330
6F
100
AcDbEntity
  8
LOUVER
  6
Continuous
100
AcDbLine
 10
605.8661774404066
 20
263.8322846845334
 30
0.0
 11
605.8644008029802
 21
263.8322886301035
 31
0.0
  0
LINE
  5
3C4
330
6F
100
AcDbEntity
  8
LOUVER
  6
Continuous
100
AcDbLine
 10
605.866177440377
 20
262.8406145347906
 30
0.0
 11
605.8644008029711
 21
262.8406105892206
 31
0.0
  0
ARC
  5
3C5
330
6F
100
AcDbEntity
  8
LOUVER
  6
Continuous
100
AcDbCircle
 10
607.7412277193385
 20
263.3364496096258
 30
0.0
 40
2.1
100
AcDbArc
 50
81.04232841937735
 51
98.95767157839678
  0
ARC
  5
3C6
330
6F
100
AcDbEntity
  8
LOUVER
  6
Continuous
100
AcDbCircle
 10
611.1850131963702
 20
264.3854212909332
 30
0.0
 40
0.5
100
AcDbArc
 50
93.92518067041988
 51
196.9406539295183
  0
ARC
  5
3C7
330
6F
100
AcDbEntity
  8
LOUVER
  6
Continuous
100
AcDbCircle
 10
604.2974422423062
 20
264.3854212909321
 30
0.0
 40
0.5
100
AcDbArc
 50
343.0593460705006
 51
86.07481932966164
  0
ARC
  5
3C8
330
6F
100
AcDbEntity
  8
LOUVER
  6
Continuous
100
AcDbCircle
 10
604.3841456530197
 20
164.8364496096254
 30
0.0
 40
0.5
100
AcDbArc
 50
270.0
 51
21.16844884583121
  0
ARC
  5
3C9
330
6F
100
AcDbEntity
  8
LOUVER
  6
Continuous
100
AcDbCircle
 10
611.0983097856575
 20
164.8364496096254
 30
0.0
 40
0.5
100
AcDbArc
 50
158.8315511541688
 51
270.0
  0
LINE
  5
3CA
330
6F
100
AcDbEntity
  8
COMMENT
  6
Continuous
100
AcDbLine
 10
227.7273721234328
 20
378.1555691123023
 30
0.0
 11
263.5878708238574
 21
404.3861132526423
 31
0.0
  0
LINE
  5
3CB
330
6F
100
AcDbEntity
  8
COMMENT
  6
Continuous
100
AcDbLine
 10
228.9873942923439
 20
379.8206048964411
 30
0.0
 11
227.7273721234328
 21
378.1555691123021
 31
0.0
  0
LINE
  5
3CC
330
6F
100
AcDbEntity
  8
COMMENT
  6
Continuous
100
AcDbLine
 10
227.7273721234328
 20
378.1555691123021
 30
0.0
 11
229.6958507113207
 21
378.8520546309146
 31
0.0
  0
LINE
  5
3CD
330
6F
100
AcDbEntity
  8
COMMENT
  6
Continuous
100
AcDbLine
 10
263.5878708238574
 20
404.3861132526421
 30
0.0
 11
316.8778694648715
 21
404.3861132526421
 31
0.0
  0
TEXT
  5
3CE
330
6F
100
AcDbEntity
  8
COMMENT
  6
Continuous
100
AcDbText
 10
266.0778708238574
 20
404.8861132526422
 30
0.0
 40
4.0
  1
アンカープラグ%%c8×40
  7
KNJYOKO
100
AcDbText
  0
TEXT
  5
3CF
330
6F
100
AcDbEntity
  8
COMMENT
  6
Continuous
100
AcDbText
 10
266.0778708238574
 20
399.8861132526422
 30
0.0
 40
4.0
  1
AP-840-D30-50
100
AcDbText
  0
LINE
  5
3D0
330
6F
100
AcDbEntity
  8
COMMENT
  6
Continuous
100
AcDbLine
 10
632.741227718339
 20
189.1593459349957
 30
0.0
 11
646.0160956965108
 21
196.2152516551867
 31
0.0
  0
LINE
  5
3D1
330
6F
100
AcDbEntity
  8
COMMENT
  6
Continuous
100
AcDbLine
 10
634.2256527248317
 20
190.6278425910048
 30
0.0
 11
632.7412277183391
 21
189.1593459349958
 31
0.0
  0
LINE
  5
3D2
330
6F
100
AcDbEntity
  8
COMMENT
  6
Continuous
100
AcDbLine
 10
632.741227718339
 20
189.1593459349957
 30
0.0
 11
634.7888651121575
 21
189.5682238288058
 31
0.0
  0
LINE
  5
3D3
330
6F
100
AcDbEntity
  8
COMMENT
  6
Continuous
100
AcDbLine
 10
646.0160956965108
 20
196.2152516551867
 30
0.0
 11
680.4060948382037
 21
196.2152516551867
 31
0.0
  0
TEXT
  5
3D4
330
6F
100
AcDbEntity
  8
COMMENT
  6
Continuous
100
AcDbText
 10
648.5060956965107
 20
196.7152516551867
 30
0.0
 40
4.0
  1
アルミルーバー
  7
KNJYOKO
100
AcDbText
  0
TEXT
  5
3D5
330
6F
100
AcDbEntity
  8
COMMENT
  6
Continuous
100
AcDbText
 10
648.5060956965107
 20
191.7152516551867
 30
0.0
 40
4.0
  1
CLKS-5015
100
AcDbText
  0
LINE
  5
3D6
330
6F
100
AcDbEntity
  8
COMMENT
  6
Continuous
100
AcDbLine
 10
607.7412277190031
 20
122.7364496094666
 30
0.0
 11
643.5199196779464
 21
150.404760053718
 31
0.0
  0
LINE
  5
3D7
330
6F
100
AcDbEntity
  8
COMMENT
  6
Continuous
100
AcDbLine
 10
608.9563012648137
 20
124.4345651258205
 30
0.0
 11
607.7412277190031
 21
122.7364496094666
 31
0.0
  0
LINE
  5
3D8
330
6F
100
AcDbEntity
  8
COMMENT
  6
Continuous
100
AcDbLine
 10
607.7412277190031
 20
122.7364496094666
 30
0.0
 11
609.690389420245
 21
123.4852945139842
 31
0.0
  0
LINE
  5
3D9
330
6F
100
AcDbEntity
  8
COMMENT
  6
Continuous
100
AcDbLine
 10
643.5199196779464
 20
150.404760053718
 30
0.0
 11
703.1099181520676
 21
150.404760053718
 31
0.0
  0
TEXT
  5
3DA
330
6F
100
AcDbEntity
  8
COMMENT
  6
Continuous
100
AcDbText
 10
646.0099196779464
 20
150.904760053718
 30
0.0
 40
4.0
  1
ECPアンカー6×33
  7
KNJYOKO
100
AcDbText
  0
TEXT
  5
3DB
330
6F
100
AcDbEntity
  8
COMMENT
  6
Continuous
100
AcDbText
 10
646.0099196779464
 20
145.904760053718
 30
0.0
 40
4.0
  1
AK-ECP633-D30-50
100
AcDbText
  0
LINE
  5
3DC
330
6F
100
AcDbEntity
  8
COMMENT
  6
Continuous
100
AcDbLine
 10
617.0612003824359
 20
120.3364496096263
 30
0.0
 11
646.3281147231404
 21
135.7457448603111
 31
0.0
  0
LINE
  5
3DD
330
6F
100
AcDbEntity
  8
COMMENT
  6
Continuous
100
AcDbLine
 10
618.5513676335002
 20
121.7991189476745
 30
0.0
 11
617.0612003824361
 21
120.3364496096263
 31
0.0
  0
LINE
  5
3DE
330
6F
100
AcDbEntity
  8
COMMENT
  6
Continuous
100
AcDbLine
 10
617.0612003824362
 20
120.3364496096263
 30
0.0
 11
619.110424062119
 21
120.7373016262576
 31
0.0
  0
LINE
  5
3DF
330
6F
100
AcDbEntity
  8
COMMENT
  6
Continuous
100
AcDbLine
 10
646.3281147231406
 20
135.7457448603111
 30
0.0
 11
684.3181137694662
 21
135.7457448603111
 31
0.0
  0
TEXT
  5
3E0
330
6F
100
AcDbEntity
  8
COMMENT
  6
Continuous
100
AcDbText
 10
648.8181147231406
 20
136.2457448603111
 30
0.0
 40
4.0
  1
平座金　
  7
KNJYOKO
100
AcDbText
  0
TEXT
  5
3E1
330
6F
100
AcDbEntity
  8
COMMENT
  6
Continuous
100
AcDbText
 10
648.8181147231406
 20
131.2457448603111
 30
0.0
 40
4.0
  1
D30mm t2mm
100
AcDbText
  0
LINE
  5
3E2
330
6F
100
AcDbEntity
  8
COMMENT
  6
Continuous
100
AcDbLine
 10
580.2412277193377
 20
127.3346478573688
 30
0.0
 11
547.0944833934062
 21
143.4000139886574
 31
0.0
  0
LINE
  5
3E3
330
6F
100
AcDbEntity
  8
COMMENT
  6
Continuous
100
AcDbLine
 10
578.1797884197616
 20
127.6670151884541
 30
0.0
 11
580.2412277193377
 21
127.3346478573688
 31
0.0
  0
LINE
  5
3E4
330
6F
100
AcDbEntity
  8
COMMENT
  6
Continuous
100
AcDbLine
 10
580.2412277193377
 20
127.3346478573688
 30
0.0
 11
578.7031641135642
 21
128.7468661029685
 31
0.0
  0
LINE
  5
3E5
330
6F
100
AcDbEntity
  8
COMMENT
  6
Continuous
100
AcDbLine
 10
547.0944833934062
 20
143.4000139886574
 30
0.0
 11
489.3044848716014
 21
143.4000139886574
 31
0.0
  0
TEXT
  5
3E6
330
6F
100
AcDbEntity
  8
COMMENT
  6
Continuous
100
AcDbText
 10
489.3044848716014
 20
143.9000139886574
 30
0.0
 40
4.0
  1
脱落防止ねじ(両端2ヶ所)
  7
KNJYOKO
100
AcDbText
  0
TEXT
  5
3E7
330
6F
100
AcDbEntity
  8
COMMENT
  6
Continuous
100
AcDbText
 10
489.3044848716014
 20
138.9000139886574
 30
0.0
 40
4.0
  1
トラス頭ドリルねじ4×13
  7
KNJYOKO
100
AcDbText
  0
TEXT
  5
3E8
330
6F
100
AcDbEntity
  8
COMMENT
  6
Continuous
100
AcDbText
 10
489.3044848716014
 20
133.9000139886574
 30
0.0
 40
4.0
  1
TBT-413-100
100
AcDbText
  0
LINE
  5
3E9
330
6F
100
AcDbEntity
  8
COMMENT
  6
Continuous
100
AcDbLine
 10
588.175048048338
 20
116.836449609626
 30
0.0
 11
572.0624441692462
 21
107.8859808470895
 31
0.0
  0
LINE
  5
3EA
330
6F
100
AcDbEntity
  8
COMMENT
  6
Continuous
100
AcDbLine
 10
586.7180498999982
 20
115.3407369285455
 30
0.0
 11
588.175048048338
 21
116.836449609626
 31
0.0
  0
LINE
  5
3EB
330
6F
100
AcDbEntity
  8
COMMENT
  6
Continuous
100
AcDbLine
 10
588.1750480483381
 20
116.836449609626
 30
0.0
 11
586.1353270077072
 21
116.3897527269207
 31
0.0
  0
LINE
  5
3EC
330
6F
100
AcDbEntity
  8
COMMENT
  6
Continuous
100
AcDbLine
 10
572.0624441692465
 20
107.8859808470895
 30
0.0
 11
556.5724445268743
 21
107.8859808470895
 31
0.0
  0
TEXT
  5
3ED
330
6F
100
AcDbEntity
  8
COMMENT
  6
Continuous
100
AcDbText
 10
556.5724445268743
 20
108.3859808470895
 30
0.0
 40
4.0
  1
受け材
  7
KNJYOKO
100
AcDbText
  0
LINE
  5
3EE
330
6F
100
AcDbEntity
  8
COMMENT
  6
Continuous
100
AcDbLine
 10
252.7273721227687
 20
190.6593459349954
 30
0.0
 11
266.0022401009404
 21
197.7152516551863
 31
0.0
  0
LINE
  5
3EF
330
6F
100
AcDbEntity
  8
COMMENT
  6
Continuous
100
AcDbLine
 10
254.2117971292614
 20
192.1278425910043
 30
0.0
 11
252.7273721227687
 21
190.6593459349954
 31
0.0
  0
LINE
  5
3F0
330
6F
100
AcDbEntity
  8
COMMENT
  6
Continuous
100
AcDbLine
 10
252.7273721227686
 20
190.6593459349953
 30
0.0
 11
254.7750095165871
 21
191.0682238288054
 31
0.0
  0
LINE
  5
3F1
330
6F
100
AcDbEntity
  8
COMMENT
  6
Continuous
100
AcDbLine
 10
266.0022401009404
 20
197.7152516551863
 30
0.0
 11
300.3922392426336
 21
197.7152516551863
 31
0.0
  0
TEXT
  5
3F2
330
6F
100
AcDbEntity
  8
COMMENT
  6
Continuous
100
AcDbText
 10
268.4922401009404
 20
198.2152516551863
 30
0.0
 40
4.0
  1
アルミルーバー
  7
KNJYOKO
100
AcDbText
  0
TEXT
  5
3F3
330
6F
100
AcDbEntity
  8
COMMENT
  6
Continuous
100
AcDbText
 10
268.4922401009404
 20
193.2152516551863
 30
0.0
 40
4.0
  1
CLKS-5015
100
AcDbText
  0
LINE
  5
3F4
330
6F
100
AcDbEntity
  8
COMMENT
  6
Continuous
100
AcDbLine
 10
227.7273721234328
 20
124.2364496094663
 30
0.0
 11
263.506064082376
 21
151.9047600537177
 31
0.0
  0
LINE
  5
3F5
330
6F
100
AcDbEntity
  8
COMMENT
  6
Continuous
100
AcDbLine
 10
228.9424456692432
 20
125.9345651258202
 30
0.0
 11
227.7273721234328
 21
124.2364496094663
 31
0.0
  0
LINE
  5
3F6
330
6F
100
AcDbEntity
  8
COMMENT
  6
Continuous
100
AcDbLine
 10
227.7273721234328
 20
124.2364496094663
 30
0.0
 11
229.6765338246747
 21
124.9852945139839
 31
0.0
  0
LINE
  5
3F7
330
6F
100
AcDbEntity
  8
COMMENT
  6
Continuous
100
AcDbLine
 10
263.5060640823759
 20
151.9047600537177
 30
0.0
 11
330.2960623657622
 21
151.9047600537177
 31
0.0
  0
TEXT
  5
3F8
330
6F
100
AcDbEntity
  8
COMMENT
  6
Continuous
100
AcDbText
 10
265.9960640823759
 20
152.4047600537177
 30
0.0
 40
4.0
  1
シンワッシャー頭ドリルねじ4×40
  7
KNJYOKO
100
AcDbText
  0
TEXT
  5
3F9
330
6F
100
AcDbEntity
  8
COMMENT
  6
Continuous
100
AcDbText
 10
265.9960640823759
 20
147.4047600537177
 30
0.0
 40
4.0
  1
TBS-440-D30-50
100
AcDbText
  0
LINE
  5
3FA
330
6F
100
AcDbEntity
  8
COMMENT
  6
Continuous
100
AcDbLine
 10
237.0473447868658
 20
121.836449609626
 30
0.0
 11
266.3142591275703
 21
137.2457448603108
 31
0.0
  0
LINE
  5
3FB
330
6F
100
AcDbEntity
  8
COMMENT
  6
Continuous
100
AcDbLine
 10
238.5375120379299
 20
123.2991189476742
 30
0.0
 11
237.0473447868658
 21
121.836449609626
 31
0.0
  0
LINE
  5
3FC
330
6F
100
AcDbEntity
  8
COMMENT
  6
Continuous
100
AcDbLine
 10
237.0473447868658
 20
121.836449609626
 30
0.0
 11
239.0965684665487
 21
122.2373016262573
 31
0.0
  0
LINE
  5
3FD
330
6F
100
AcDbEntity
  8
COMMENT
  6
Continuous
100
AcDbLine
 10
266.3142591275703
 20
137.2457448603108
 30
0.0
 11
304.304258173896
 21
137.2457448603108
 31
0.0
  0
TEXT
  5
3FE
330
6F
100
AcDbEntity
  8
COMMENT
  6
Continuous
100
AcDbText
 10
268.8042591275701
 20
137.7457448603108
 30
0.0
 40
4.0
  1
平座金　
  7
KNJYOKO
100
AcDbText
  0
TEXT
  5
3FF
330
6F
100
AcDbEntity
  8
COMMENT
  6
Continuous
100
AcDbText
 10
268.8042591275701
 20
132.7457448603108
 30
0.0
 40
4.0
  1
D30mm t2mm
100
AcDbText
  0
LINE
  5
400
330
6F
100
AcDbEntity
  8
COMMENT
  6
Continuous
100
AcDbLine
 10
208.1611924527676
 20
118.3364496096257
 30
0.0
 11
194.7929092491387
 21
96.15531056918243
 31
0.0
  0
LINE
  5
401
330
6F
100
AcDbEntity
  8
COMMENT
  6
Continuous
100
AcDbLine
 10
207.642704261856
 20
116.3137855187556
 30
0.0
 11
208.1611924527676
 21
118.3364496096257
 31
0.0
  0
LINE
  5
402
330
6F
100
AcDbEntity
  8
COMMENT
  6
Continuous
100
AcDbLine
 10
208.1611924527676
 20
118.3364496096257
 30
0.0
 11
206.6149330567057
 21
116.9332098194614
 31
0.0
  0
LINE
  5
403
330
6F
100
AcDbEntity
  8
COMMENT
  6
Continuous
100
AcDbLine
 10
194.7929092491388
 20
96.15531056918243
 30
0.0
 11
179.3029096067666
 21
96.15531056918243
 31
0.0
  0
TEXT
  5
404
330
6F
100
AcDbEntity
  8
COMMENT
  6
Continuous
100
AcDbText
 10
179.3029096067666
 20
96.65531056918243
 30
0.0
 40
4.0
  1
受け材
  7
KNJYOKO
100
AcDbText
  0
LINE
  5
405
330
6F
100
AcDbEntity
  8
COMMENT
  6
Continuous
100
AcDbLine
 10
212.7273721234328
 20
71.91834033546445
 30
0.0
 11
187.2584974083888
 21
57.00235121935921
 31
0.0
  0
LINE
  5
406
330
6F
100
AcDbEntity
  8
COMMENT
  6
Continuous
100
AcDbLine
 10
211.3047804902857
 20
70.38986623561517
 30
0.0
 11
212.7273721234328
 21
71.91834033546445
 31
0.0
  0
LINE
  5
407
330
6F
100
AcDbEntity
  8
COMMENT
  6
Continuous
100
AcDbLine
 10
212.7273721234328
 20
71.91834033546445
 30
0.0
 11
210.6983419786372
 21
71.42535281014449
 31
0.0
  0
LINE
  5
408
330
6F
100
AcDbEntity
  8
COMMENT
  6
Continuous
100
AcDbLine
 10
187.2584974083888
 20
57.00235121935921
 30
0.0
 11
152.0574965343463
 21
57.00235121935921
 31
0.0
  0
TEXT
  5
409
330
6F
100
AcDbEntity
  8
COMMENT
  6
Continuous
100
AcDbText
 10
152.0574965343463
 20
57.5023512193592
 30
0.0
 40
3.099999904632568
  1
St t=1.6mm以上
  7
KNJYOKO
100
AcDbText
  0
LINE
  5
40A
330
6F
100
AcDbEntity
  8
COMMENT
  6
Continuous
100
AcDbLine
 10
200.2273721229401
 20
128.8346478573686
 30
0.0
 11
167.0806277970085
 21
144.9000139886571
 31
0.0
  0
LINE
  5
40B
330
6F
100
AcDbEntity
  8
COMMENT
  6
Continuous
100
AcDbLine
 10
198.1659328233639
 20
129.1670151884539
 30
0.0
 11
200.2273721229401
 21
128.8346478573686
 31
0.0
  0
LINE
  5
40C
330
6F
100
AcDbEntity
  8
COMMENT
  6
Continuous
100
AcDbLine
 10
200.2273721229401
 20
128.8346478573686
 30
0.0
 11
198.6893085171664
 21
130.2468661029683
 31
0.0
  0
LINE
  5
40D
330
6F
100
AcDbEntity
  8
COMMENT
  6
Continuous
100
AcDbLine
 10
167.0806277970085
 20
144.9000139886571
 30
0.0
 11
109.2906292752036
 21
144.9000139886571
 31
0.0
  0
TEXT
  5
40E
330
6F
100
AcDbEntity
  8
COMMENT
  6
Continuous
100
AcDbText
 10
109.2906292752036
 20
145.4000139886572
 30
0.0
 40
4.0
  1
脱落防止ねじ(両端2ヶ所)
  7
KNJYOKO
100
AcDbText
  0
TEXT
  5
40F
330
6F
100
AcDbEntity
  8
COMMENT
  6
Continuous
100
AcDbText
 10
109.2906292752036
 20
140.4000139886572
 30
0.0
 40
4.0
  1
トラス頭ドリルねじ4×13
  7
KNJYOKO
100
AcDbText
  0
TEXT
  5
410
330
6F
100
AcDbEntity
  8
COMMENT
  6
Continuous
100
AcDbText
 10
109.2906292752036
 20
135.4000139886572
 30
0.0
 40
4.0
  1
TBT-413-100
100
AcDbText
  0
LINE
  5
411
330
6F
100
AcDbEntity
  8
COMMENT
  6
Continuous
100
AcDbLine
 10
200.2273721221127
 20
381.2537673600441
 30
0.0
 11
167.0806277961811
 21
397.3191334913327
 31
0.0
  0
LINE
  5
412
330
6F
100
AcDbEntity
  8
COMMENT
  6
Continuous
100
AcDbLine
 10
198.1659328225365
 20
381.5861346911294
 30
0.0
 11
200.2273721221127
 21
381.2537673600441
 31
0.0
  0
LINE
  5
413
330
6F
100
AcDbEntity
  8
COMMENT
  6
Continuous
100
AcDbLine
 10
200.2273721221127
 20
381.2537673600441
 30
0.0
 11
198.6893085163391
 21
382.6659856056439
 31
0.0
  0
LINE
  5
414
330
6F
100
AcDbEntity
  8
COMMENT
  6
Continuous
100
AcDbLine
 10
167.0806277961811
 20
397.3191334913327
 30
0.0
 11
109.2906292743762
 21
397.3191334913327
 31
0.0
  0
TEXT
  5
415
330
6F
100
AcDbEntity
  8
COMMENT
  6
Continuous
100
AcDbText
 10
109.2906292743762
 20
397.8191334913327
 30
0.0
 40
4.0
  1
脱落防止ねじ(両端2ヶ所)
  7
KNJYOKO
100
AcDbText
  0
TEXT
  5
416
330
6F
100
AcDbEntity
  8
COMMENT
  6
Continuous
100
AcDbText
 10
109.2906292743762
 20
392.8191334913327
 30
0.0
 40
4.0
  1
トラス頭ドリルねじ4×13
  7
KNJYOKO
100
AcDbText
  0
TEXT
  5
417
330
6F
100
AcDbEntity
  8
COMMENT
  6
Continuous
100
AcDbText
 10
109.2906292743762
 20
387.8191334913327
 30
0.0
 40
4.0
  1
TBT-413-100
100
AcDbText
  0
LINE
  5
418
330
6F
100
AcDbEntity
  8
COMMENT
  6
Continuous
100
AcDbLine
 10
252.7273721227688
 20
443.0784654376711
 30
0.0
 11
265.2352044649433
 21
450.134371157862
 31
0.0
  0
LINE
  5
419
330
6F
100
AcDbEntity
  8
COMMENT
  6
Continuous
100
AcDbLine
 10
254.174517580658
 20
444.5837129430072
 30
0.0
 11
252.7273721227688
 21
443.0784654376709
 31
0.0
  0
LINE
  5
41A
330
6F
100
AcDbEntity
  8
COMMENT
  6
Continuous
100
AcDbLine
 10
252.7273721227688
 20
443.0784654376709
 30
0.0
 11
254.7641160501541
 21
443.5385460858936
 31
0.0
  0
LINE
  5
41B
330
6F
100
AcDbEntity
  8
COMMENT
  6
Continuous
100
AcDbLine
 10
265.2352044649433
 20
450.134371157862
 30
0.0
 11
299.6252036066364
 21
450.134371157862
 31
0.0
  0
TEXT
  5
41C
330
6F
100
AcDbEntity
  8
COMMENT
  6
Continuous
100
AcDbText
 10
267.7252044649433
 20
450.634371157862
 30
0.0
 40
4.0
  1
アルミルーバー
  7
KNJYOKO
100
AcDbText
  0
TEXT
  5
41D
330
6F
100
AcDbEntity
  8
COMMENT
  6
Continuous
100
AcDbText
 10
267.7252044649433
 20
445.634371157862
 30
0.0
 40
4.0
  1
CLKS-5015
100
AcDbText
  0
LINE
  5
41E
330
6F
100
AcDbEntity
  8
COMMENT
  6
Continuous
100
AcDbLine
 10
208.1611924527679
 20
370.7555691123013
 30
0.0
 11
191.9595183337614
 21
354.8595286624496
 31
0.0
  0
LINE
  5
41F
330
6F
100
AcDbEntity
  8
COMMENT
  6
Continuous
100
AcDbLine
 10
207.1537827047387
 20
368.9266006521616
 30
0.0
 11
208.1611924527678
 21
370.7555691123014
 31
0.0
  0
LINE
  5
420
330
6F
100
AcDbEntity
  8
COMMENT
  6
Continuous
100
AcDbLine
 10
208.1611924527679
 20
370.7555691123014
 30
0.0
 11
206.3133722968282
 21
369.7831696573893
 31
0.0
  0
LINE
  5
421
330
6F
100
AcDbEntity
  8
COMMENT
  6
Continuous
100
AcDbLine
 10
191.9595183337613
 20
354.8595286624496
 30
0.0
 11
176.4695186913892
 21
354.8595286624496
 31
0.0
  0
TEXT
  5
422
330
6F
100
AcDbEntity
  8
COMMENT
  6
Continuous
100
AcDbText
 10
176.4695186913892
 20
355.3595286624496
 30
0.0
 40
4.0
  1
受け材
  7
KNJYOKO
100
AcDbText
  0
LINE
  5
423
330
6F
100
AcDbEntity
  8
COMMENT
  6
Continuous
100
AcDbLine
 10
237.0473447868658
 20
374.2555691123016
 30
0.0
 11
263.3819580462561
 21
389.6648643629863
 31
0.0
  0
LINE
  5
424
330
6F
100
AcDbEntity
  8
COMMENT
  6
Continuous
100
AcDbLine
 10
238.4705293237201
 20
375.7834911661608
 30
0.0
 11
237.0473447868658
 21
374.2555691123016
 31
0.0
  0
LINE
  5
425
330
6F
100
AcDbEntity
  8
COMMENT
  6
Continuous
100
AcDbLine
 10
237.0473447868658
 20
374.2555691123016
 30
0.0
 11
239.0765660461206
 21
374.7477693861721
 31
0.0
  0
LINE
  5
426
330
6F
100
AcDbEntity
  8
COMMENT
  6
Continuous
100
AcDbLine
 10
263.3819580462563
 20
389.6648643629863
 30
0.0
 11
301.371957092582
 21
389.6648643629863
 31
0.0
  0
TEXT
  5
427
330
6F
100
AcDbEntity
  8
COMMENT
  6
Continuous
100
AcDbText
 10
265.8719580462563
 20
390.1648643629863
 30
0.0
 40
4.0
  1
平座金　
  7
KNJYOKO
100
AcDbText
  0
TEXT
  5
428
330
6F
100
AcDbEntity
  8
COMMENT
  6
Continuous
100
AcDbText
 10
265.8719580462563
 20
385.1648643629864
 30
0.0
 40
4.0
  1
D30mm t2mm
100
AcDbText
  0
LINE
  5
429
330
6F
100
AcDbEntity
  8
LOUVER
  6
Continuous
100
AcDbLine
 10
204.5273721237122
 20
376.7555691119889
 30
0.0
 11
205.4213212693096
 21
380.3067456672617
 31
0.0
  0
LINE
  5
42A
330
6F
100
AcDbEntity
  8
LOUVER
  6
Continuous
100
AcDbLine
 10
250.2273721243644
 20
380.5555691123075
 30
0.0
 11
251.3273721239527
 21
380.5555691123087
 31
0.0
  0
ARC
  5
42B
330
6F
100
AcDbEntity
  8
LOUVER
  6
Continuous
100
AcDbCircle
 10
250.2273721243645
 20
380.3555691123073
 30
0.0
 40
0.2
100
AcDbArc
 50
90.00000000005709
 51
194.1296704891837
  0
LINE
  5
42C
330
6F
100
AcDbEntity
  8
LOUVER
  6
Continuous
100
AcDbLine
 10
250.927372124012
 20
376.755569112012
 30
0.0
 11
250.0334229784111
 21
380.3067456672841
 31
0.0
  0
ARC
  5
42D
330
6F
100
AcDbEntity
  8
LOUVER
  6
Continuous
100
AcDbCircle
 10
227.7273721237679
 20
517.2555691123011
 30
0.0
 40
2.1
100
AcDbArc
 50
351.0423284193774
 51
8.957671578396658
  0
ARC
  5
42E
330
6F
100
AcDbEntity
  8
LOUVER
  6
Continuous
100
AcDbCircle
 10
227.7273721237679
 20
517.2555691123011
 30
0.0
 40
1.8
100
AcDbArc
 50
317.2813554918922
 51
339.6400048100753
  0
ARC
  5
42F
330
6F
100
AcDbEntity
  8
LOUVER
  6
Continuous
100
AcDbCircle
 10
229.6041990401249
 20
516.9597300918232
 30
0.0
 40
0.2
100
AcDbArc
 50
270.0000000003413
 51
351.0423284193759
  0
ARC
  5
430
330
6F
100
AcDbEntity
  8
LOUVER
  6
Continuous
100
AcDbCircle
 10
229.6041990401365
 20
517.5514081327062
 30
0.0
 40
0.2
100
AcDbArc
 50
8.957671578397892
 51
90.00000000034114
  0
ARC
  5
431
330
6F
100
AcDbEntity
  8
LOUVER
  6
Continuous
100
AcDbCircle
 10
229.6024224027282
 20
517.9514041871361
 30
0.0
 40
0.2
100
AcDbArc
 50
200.3599951877008
 51
270.0000000003413
  0
ARC
  5
432
330
6F
100
AcDbEntity
  8
LOUVER
  6
Continuous
100
AcDbCircle
 10
229.6024224027014
 20
516.5597340373937
 30
0.0
 40
0.2
100
AcDbArc
 50
90.00000000034136
 51
159.6400048100703
  0
ARC
  5
433
330
6F
100
AcDbEntity
  8
LOUVER
  6
Continuous
100
AcDbCircle
 10
229.52737212395
 20
515.5934920986388
 30
0.0
 40
0.6500000000000014
100
AcDbArc
 50
137.2813554918912
 51
317.2813554918912
  0
ARC
  5
434
330
6F
100
AcDbEntity
  8
LOUVER
  6
Continuous
100
AcDbCircle
 10
227.7273721237679
 20
517.2555691123011
 30
0.0
 40
1.8
100
AcDbArc
 50
20.359995187699
 51
69.64000481007504
  0
ARC
  5
435
330
6F
100
AcDbEntity
  8
LOUVER
  6
Continuous
100
AcDbCircle
 10
227.7273721237679
 20
517.2555691123011
 30
0.0
 40
1.8
100
AcDbArc
 50
200.3599951876989
 51
222.7186445270667
  0
ARC
  5
436
330
6F
100
AcDbEntity
  8
LOUVER
  6
Continuous
100
AcDbCircle
 10
227.7273721237679
 20
517.2555691123011
 30
0.0
 40
1.8
100
AcDbArc
 50
110.359995187699
 51
159.6400048100752
  0
ARC
  5
437
330
6F
100
AcDbEntity
  8
LOUVER
  6
Continuous
100
AcDbCircle
 10
225.927372124136
 20
515.5934920980431
 30
0.0
 40
0.6500000000000048
100
AcDbArc
 50
222.7186445270684
 51
42.71864452706842
  0
ARC
  5
438
330
6F
100
AcDbEntity
  8
LOUVER
  6
Continuous
100
AcDbCircle
 10
227.7273721237679
 20
517.2555691123011
 30
0.0
 40
3.1
100
AcDbArc
 50
163.059346070501
 51
222.7186445270675
  0
ARC
  5
439
330
6F
100
AcDbEntity
  8
LOUVER
  6
Continuous
100
AcDbCircle
 10
227.7273721237679
 20
517.2555691123011
 30
0.0
 40
3.1
100
AcDbArc
 50
317.2813554918917
 51
16.94065392951864
  0
LINE
  5
43A
330
6F
100
AcDbEntity
  8
LOUVER
  6
Continuous
100
AcDbLine
 10
229.6024224026998
 20
516.7597340373933
 30
0.0
 11
229.6041990401261
 21
516.7597300918234
 31
0.0
  0
LINE
  5
43B
330
6F
100
AcDbEntity
  8
LOUVER
  6
Continuous
100
AcDbLine
 10
229.6024224027294
 20
517.7514041871359
 30
0.0
 11
229.6041990401353
 21
517.7514081327058
 31
0.0
  0
ARC
  5
43C
330
6F
100
AcDbEntity
  8
LOUVER
  6
Continuous
100
AcDbCircle
 10
228.0232111442455
 20
519.1323960286585
 30
0.0
 40
0.2
100
AcDbArc
 50
0.000000000341159
 51
81.04232841937571
  0
ARC
  5
43D
330
6F
100
AcDbEntity
  8
LOUVER
  6
Continuous
100
AcDbCircle
 10
227.431533103363
 20
519.1323960286698
 30
0.0
 40
0.2
100
AcDbArc
 50
98.95767157839792
 51
180.0000000003413
  0
ARC
  5
43E
330
6F
100
AcDbEntity
  8
LOUVER
  6
Continuous
100
AcDbCircle
 10
227.0315370489329
 20
519.1306193912619
 30
0.0
 40
0.2
100
AcDbArc
 50
290.3599951877009
 51
0.0000000003411671
  0
ARC
  5
43F
330
6F
100
AcDbEntity
  8
LOUVER
  6
Continuous
100
AcDbCircle
 10
228.4232071986757
 20
519.1306193912348
 30
0.0
 40
0.2
100
AcDbArc
 50
180.0000000003413
 51
249.6400048100703
  0
LINE
  5
440
330
6F
100
AcDbEntity
  8
LOUVER
  6
Continuous
100
AcDbLine
 10
228.2232071986749
 20
519.1306193912334
 30
0.0
 11
228.223211144245
 21
519.1323960286593
 31
0.0
  0
LINE
  5
441
330
6F
100
AcDbEntity
  8
LOUVER
  6
Continuous
100
AcDbLine
 10
227.2315370489328
 20
519.1306193912629
 30
0.0
 11
227.2315331033628
 21
519.1323960286687
 31
0.0
  0
ARC
  5
442
330
6F
100
AcDbEntity
  8
LOUVER
  6
Continuous
100
AcDbCircle
 10
227.7273721237679
 20
517.2555691123011
 30
0.0
 40
2.1
100
AcDbArc
 50
171.0423284193774
 51
188.9576715783966
  0
ARC
  5
443
330
6F
100
AcDbEntity
  8
LOUVER
  6
Continuous
100
AcDbCircle
 10
225.8505452074107
 20
517.5514081327792
 30
0.0
 40
0.2
100
AcDbArc
 50
90.00000000034136
 51
171.0423284193756
  0
ARC
  5
444
330
6F
100
AcDbEntity
  8
LOUVER
  6
Continuous
100
AcDbCircle
 10
225.8505452073991
 20
516.9597300918963
 30
0.0
 40
0.2
100
AcDbArc
 50
188.9576715783979
 51
270.0000000003413
  0
ARC
  5
445
330
6F
100
AcDbEntity
  8
LOUVER
  6
Continuous
100
AcDbCircle
 10
225.8523218448076
 20
516.5597340374662
 30
0.0
 40
0.2
100
AcDbArc
 50
20.35999518770083
 51
90.00000000034114
  0
ARC
  5
446
330
6F
100
AcDbEntity
  8
LOUVER
  6
Continuous
100
AcDbCircle
 10
225.8523218448344
 20
517.9514041872088
 30
0.0
 40
0.2
100
AcDbArc
 50
270.0000000003413
 51
339.6400048100703
  0
LINE
  5
447
330
6F
100
AcDbEntity
  8
LOUVER
  6
Continuous
100
AcDbLine
 10
225.852321844836
 20
517.751404187209
 30
0.0
 11
225.8505452074099
 21
517.7514081327792
 31
0.0
  0
LINE
  5
448
330
6F
100
AcDbEntity
  8
LOUVER
  6
Continuous
100
AcDbLine
 10
225.8523218448063
 20
516.7597340374661
 30
0.0
 11
225.8505452074004
 21
516.7597300918962
 31
0.0
  0
ARC
  5
449
330
6F
100
AcDbEntity
  8
LOUVER
  6
Continuous
100
AcDbCircle
 10
227.7273721237679
 20
517.2555691123013
 30
0.0
 40
2.1
100
AcDbArc
 50
81.04232841937735
 51
98.95767157839678
  0
ARC
  5
44A
330
6F
100
AcDbEntity
  8
LOUVER
  6
Continuous
100
AcDbCircle
 10
231.1711576007996
 20
518.3045407936088
 30
0.0
 40
0.5
100
AcDbArc
 50
93.92518067041988
 51
196.9406539295183
  0
ARC
  5
44B
330
6F
100
AcDbEntity
  8
LOUVER
  6
Continuous
100
AcDbCircle
 10
224.2835866467357
 20
518.3045407936076
 30
0.0
 40
0.5
100
AcDbArc
 50
343.0593460705006
 51
86.07481932966164
  0
ARC
  5
44C
330
6F
100
AcDbEntity
  8
LOUVER
  6
Continuous
100
AcDbCircle
 10
224.3702900574489
 20
418.755569112301
 30
0.0
 40
0.5
100
AcDbArc
 50
270.0
 51
21.16844884583121
  0
ARC
  5
44D
330
6F
100
AcDbEntity
  8
LOUVER
  6
Continuous
100
AcDbCircle
 10
231.0844541900869
 20
418.755569112301
 30
0.0
 40
0.5
100
AcDbArc
 50
158.8315511541688
 51
270.0
  0
LINE
  5
44E
330
6F
100
AcDbEntity
  8
LOUVER
  6
Continuous
100
AcDbLine
 10
250.927372123823
 20
371.7555691123013
 30
0.0
 11
250.9273721238242
 21
376.7555691119893
 31
0.0
  0
LINE
  5
44F
330
6F
100
AcDbEntity
  8
LOUVER
  6
Continuous
100
AcDbLine
 10
250.9273721238201
 20
371.7555691123013
 30
0.0
 11
252.7273721237685
 21
371.7555691123013
 31
0.0
  0
LINE
  5
450
330
6F
100
AcDbEntity
  8
LOUVER
  6
Continuous
100
AcDbLine
 10
252.7273721237685
 20
520.7555691123011
 30
0.0
 11
227.7273721237685
 21
520.7555691123011
 31
0.0
  0
LINE
  5
451
330
6F
100
AcDbEntity
  8
LOUVER
  6
Continuous
100
AcDbLine
 10
251.3273721237686
 20
385.7555691123018
 30
0.0
 11
247.4273721237685
 21
385.7555691123031
 31
0.0
  0
LINE
  5
452
330
6F
100
AcDbEntity
  8
LOUVER
  6
Continuous
100
AcDbLine
 10
247.4273721237684
 20
385.7555691123035
 30
0.0
 11
247.4273721237684
 21
386.9555691123033
 31
0.0
  0
LINE
  5
453
330
6F
100
AcDbEntity
  8
LOUVER
  6
Continuous
100
AcDbLine
 10
251.2273721237685
 20
418.255569112301
 30
0.0
 11
231.0844541900866
 21
418.255569112301
 31
0.0
  0
LINE
  5
454
330
6F
100
AcDbEntity
  8
LOUVER
  6
Continuous
100
AcDbLine
 10
251.3273721237686
 20
386.9555691123019
 30
0.0
 11
247.427372123769
 21
386.9555691123032
 31
0.0
  0
LINE
  5
455
330
6F
100
AcDbEntity
  8
LOUVER
  6
Continuous
100
AcDbLine
 10
251.3273721237687
 20
416.7555691123013
 30
0.0
 11
227.7273721237685
 21
416.7555691123013
 31
0.0
  0
LINE
  5
456
330
6F
100
AcDbEntity
  8
LOUVER
  6
Continuous
100
AcDbLine
 10
251.2273721237685
 20
418.255569112301
 30
0.0
 11
251.2273721237685
 21
519.2555691123011
 31
0.0
  0
LINE
  5
457
330
6F
100
AcDbEntity
  8
LOUVER
  6
Continuous
100
AcDbLine
 10
251.3273721237687
 20
380.5555691122852
 30
0.0
 11
251.3273721237687
 21
385.7555691123022
 31
0.0
  0
LINE
  5
458
330
6F
100
AcDbEntity
  8
LOUVER
  6
Continuous
100
AcDbLine
 10
251.3273721237687
 20
386.9555691123021
 30
0.0
 11
251.3273721237687
 21
416.7555691123013
 31
0.0
  0
LINE
  5
459
330
6F
100
AcDbEntity
  8
LOUVER
  6
Continuous
100
AcDbLine
 10
202.7273721237677
 20
371.755569112301
 30
0.0
 11
202.7273721237677
 21
520.7555691123011
 31
0.0
  0
LINE
  5
45A
330
6F
100
AcDbEntity
  8
LOUVER
  6
Continuous
100
AcDbLine
 10
205.2273721233561
 20
380.5555691122852
 30
0.0
 11
204.1273721237677
 21
380.5555691122852
 31
0.0
  0
LINE
  5
45B
330
6F
100
AcDbEntity
  8
LOUVER
  6
Continuous
100
AcDbLine
 10
204.5273721237134
 20
371.755569112301
 30
0.0
 11
204.5273721237122
 21
376.7555691119889
 31
0.0
  0
LINE
  5
45C
330
6F
100
AcDbEntity
  8
LOUVER
  6
Continuous
100
AcDbLine
 10
204.5273721237162
 20
371.7555691123013
 30
0.0
 11
202.7273721237679
 21
371.7555691123013
 31
0.0
  0
LINE
  5
45D
330
6F
100
AcDbEntity
  8
LOUVER
  6
Continuous
100
AcDbLine
 10
202.7273721237679
 20
520.755569112301
 30
0.0
 11
227.7273721237676
 21
520.755569112301
 31
0.0
  0
LINE
  5
45E
330
6F
100
AcDbEntity
  8
LOUVER
  6
Continuous
100
AcDbLine
 10
204.1273721237679
 20
385.7555691123018
 30
0.0
 11
208.027372123768
 21
385.7555691123033
 31
0.0
  0
LINE
  5
45F
330
6F
100
AcDbEntity
  8
LOUVER
  6
Continuous
100
AcDbLine
 10
208.0273721237678
 20
385.7555691123035
 30
0.0
 11
208.0273721237678
 21
386.9555691123032
 31
0.0
  0
LINE
  5
460
330
6F
100
AcDbEntity
  8
LOUVER
  6
Continuous
100
AcDbLine
 10
204.2273721237679
 20
418.255569112301
 30
0.0
 11
224.3702900574489
 21
418.255569112301
 31
0.0
  0
LINE
  5
461
330
6F
100
AcDbEntity
  8
LOUVER
  6
Continuous
100
AcDbLine
 10
204.1273721237679
 20
386.9555691123019
 30
0.0
 11
208.0273721237675
 21
386.9555691123033
 31
0.0
  0
LINE
  5
462
330
6F
100
AcDbEntity
  8
LOUVER
  6
Continuous
100
AcDbLine
 10
204.1273721237677
 20
416.7555691123013
 30
0.0
 11
227.7273721237676
 21
416.7555691123013
 31
0.0
  0
LINE
  5
463
330
6F
100
AcDbEntity
  8
LOUVER
  6
Continuous
100
AcDbLine
 10
204.2273721237679
 20
418.255569112301
 30
0.0
 11
204.2273721237679
 21
519.2555691122682
 31
0.0
  0
LINE
  5
464
330
6F
100
AcDbEntity
  8
LOUVER
  6
Continuous
100
AcDbLine
 10
204.1273721237677
 20
380.5555691122852
 30
0.0
 11
204.1273721237677
 21
385.7555691123022
 31
0.0
  0
LINE
  5
465
330
6F
100
AcDbEntity
  8
LOUVER
  6
Continuous
100
AcDbLine
 10
204.1273721237677
 20
386.9555691123018
 30
0.0
 11
204.1273721237677
 21
416.7555691123013
 31
0.0
  0
LINE
  5
466
330
6F
100
AcDbEntity
  8
LOUVER
  6
Continuous
100
AcDbLine
 10
251.2273721237685
 20
519.2555691123011
 30
0.0
 11
237.7273721236344
 21
519.2555691123011
 31
0.0
  0
LINE
  5
467
330
6F
100
AcDbEntity
  8
LOUVER
  6
Continuous
100
AcDbLine
 10
252.7273721229414
 20
520.7555691123011
 30
0.0
 11
252.7273721223205
 21
371.755569112301
 31
0.0
  0
ARC
  5
468
330
6F
100
AcDbEntity
  8
LOUVER
  6
Continuous
100
AcDbCircle
 10
205.2273721233563
 20
380.355569112285
 30
0.0
 40
0.2
100
AcDbArc
 50
345.8703295108734
 51
90.0
  0
LINE
  5
469
330
6F
100
AcDbEntity
  8
LOUVER
  6
Continuous
100
AcDbLine
 10
237.7273721236346
 20
519.2555691123013
 30
0.0
 11
231.1369307248179
 21
518.8033679389814
 31
0.0
  0
LINE
  5
46A
330
6F
100
AcDbEntity
  8
LOUVER
  6
Continuous
100
AcDbLine
 10
217.7273721239545
 20
519.2555691122871
 30
0.0
 11
224.3178135227718
 21
518.8033679389766
 31
0.0
  0
LINE
  5
46B
330
6F
100
AcDbEntity
  8
LOUVER
  6
Continuous
100
AcDbLine
 10
204.2273721238202
 20
519.2555691122682
 30
0.0
 11
217.7273721239545
 21
519.2555691122873
 31
0.0
  0
ARC
  5
46C
330
6F
100
AcDbEntity
  8
LOUVER
  6
Continuous
100
AcDbCircle
 10
227.7273721237679
 20
420.055569112301
 30
0.0
 40
2.1
100
AcDbArc
 50
351.042328421765
 51
8.95767158078419
  0
ARC
  5
46D
330
6F
100
AcDbEntity
  8
LOUVER
  6
Continuous
100
AcDbCircle
 10
227.7273721237679
 20
420.055569112301
 30
0.0
 40
1.8
100
AcDbArc
 50
20.35999519008635
 51
42.7186445082694
  0
ARC
  5
46E
330
6F
100
AcDbEntity
  8
LOUVER
  6
Continuous
100
AcDbCircle
 10
229.604199040124
 20
420.3514081327841
 30
0.0
 40
0.2
100
AcDbArc
 50
8.957671580785854
 51
89.99999999982035
  0
ARC
  5
46F
330
6F
100
AcDbEntity
  8
LOUVER
  6
Continuous
100
AcDbCircle
 10
229.6041990401372
 20
419.7597300919013
 30
0.0
 40
0.2
100
AcDbArc
 50
269.9999999998204
 51
351.0423284217637
  0
ARC
  5
470
330
6F
100
AcDbEntity
  8
LOUVER
  6
Continuous
100
AcDbCircle
 10
229.60242240273
 20
419.3597340374711
 30
0.0
 40
0.2
100
AcDbArc
 50
89.99999999982035
 51
159.6400048124608
  0
ARC
  5
471
330
6F
100
AcDbEntity
  8
LOUVER
  6
Continuous
100
AcDbCircle
 10
229.6024224026991
 20
420.7514041872139
 30
0.0
 40
0.2
100
AcDbArc
 50
200.3599951900913
 51
269.9999999998203
  0
ARC
  5
472
330
6F
100
AcDbEntity
  8
LOUVER
  6
Continuous
100
AcDbCircle
 10
229.527372123945
 20
421.7176461259684
 30
0.0
 40
0.6500000000000014
100
AcDbArc
 50
42.71864450827042
 51
222.7186445082705
  0
ARC
  5
473
330
6F
100
AcDbEntity
  8
LOUVER
  6
Continuous
100
AcDbCircle
 10
227.7273721237679
 20
420.055569112301
 30
0.0
 40
1.8
100
AcDbArc
 50
290.3599951900866
 51
339.6400048124626
  0
ARC
  5
474
330
6F
100
AcDbEntity
  8
LOUVER
  6
Continuous
100
AcDbCircle
 10
227.7273721237679
 20
420.055569112301
 30
0.0
 40
1.8
100
AcDbArc
 50
137.281355473095
 51
159.6400048124627
  0
ARC
  5
475
330
6F
100
AcDbEntity
  8
LOUVER
  6
Continuous
100
AcDbCircle
 10
227.7273721237679
 20
420.055569112301
 30
0.0
 40
1.8
100
AcDbArc
 50
200.3599951900864
 51
249.6400048124627
  0
ARC
  5
476
330
6F
100
AcDbEntity
  8
LOUVER
  6
Continuous
100
AcDbCircle
 10
225.927372124131
 20
421.7176461265538
 30
0.0
 40
0.6500000000000048
100
AcDbArc
 50
317.2813554730932
 51
137.2813554730932
  0
ARC
  5
477
330
6F
100
AcDbEntity
  8
LOUVER
  6
Continuous
100
AcDbCircle
 10
227.7273721237679
 20
420.055569112301
 30
0.0
 40
3.1
100
AcDbArc
 50
137.2813554730942
 51
201.1684488458317
  0
ARC
  5
478
330
6F
100
AcDbEntity
  8
LOUVER
  6
Continuous
100
AcDbCircle
 10
227.7273721237679
 20
420.055569112301
 30
0.0
 40
3.1
100
AcDbArc
 50
338.8315511541684
 51
42.71864450826988
  0
LINE
  5
479
330
6F
100
AcDbEntity
  8
LOUVER
  6
Continuous
100
AcDbLine
 10
229.6024224026982
 20
420.5514041872141
 30
0.0
 11
229.6041990401248
 21
420.5514081327842
 31
0.0
  0
LINE
  5
47A
330
6F
100
AcDbEntity
  8
LOUVER
  6
Continuous
100
AcDbLine
 10
229.6024224027306
 20
419.5597340374716
 30
0.0
 11
229.6041990401365
 21
419.5597300919016
 31
0.0
  0
ARC
  5
47B
330
6F
100
AcDbEntity
  8
LOUVER
  6
Continuous
100
AcDbCircle
 10
228.023211144251
 20
418.1787421959445
 30
0.0
 40
0.2
100
AcDbArc
 50
278.9576715807859
 51
359.9999999998204
  0
ARC
  5
47C
330
6F
100
AcDbEntity
  8
LOUVER
  6
Continuous
100
AcDbCircle
 10
227.431533103368
 20
418.1787421959314
 30
0.0
 40
0.2
100
AcDbArc
 50
179.9999999998204
 51
261.0423284217637
  0
ARC
  5
47D
330
6F
100
AcDbEntity
  8
LOUVER
  6
Continuous
100
AcDbCircle
 10
227.0315370489383
 20
418.1805188333384
 30
0.0
 40
0.2
100
AcDbArc
 50
359.9999999998204
 51
69.64000481246078
  0
ARC
  5
47E
330
6F
100
AcDbEntity
  8
LOUVER
  6
Continuous
100
AcDbCircle
 10
228.4232071986807
 20
418.1805188333695
 30
0.0
 40
0.2
100
AcDbArc
 50
110.3599951900914
 51
179.9999999998204
  0
LINE
  5
47F
330
6F
100
AcDbEntity
  8
LOUVER
  6
Continuous
100
AcDbLine
 10
228.2232071986803
 20
418.1805188333702
 30
0.0
 11
228.2232111442504
 21
418.1787421959439
 31
0.0
  0
LINE
  5
480
330
6F
100
AcDbEntity
  8
LOUVER
  6
Continuous
100
AcDbLine
 10
227.231537048938
 20
418.1805188333377
 30
0.0
 11
227.231533103368
 21
418.1787421959318
 31
0.0
  0
ARC
  5
481
330
6F
100
AcDbEntity
  8
LOUVER
  6
Continuous
100
AcDbCircle
 10
227.7273721237679
 20
420.055569112301
 30
0.0
 40
2.1
100
AcDbArc
 50
171.042328421765
 51
188.9576715807843
  0
ARC
  5
482
330
6F
100
AcDbEntity
  8
LOUVER
  6
Continuous
100
AcDbCircle
 10
225.8505452074113
 20
419.7597300918176
 30
0.0
 40
0.2
100
AcDbArc
 50
188.9576715807859
 51
269.9999999998203
  0
ARC
  5
483
330
6F
100
AcDbEntity
  8
LOUVER
  6
Continuous
100
AcDbCircle
 10
225.8505452073981
 20
420.3514081327006
 30
0.0
 40
0.2
100
AcDbArc
 50
89.99999999982035
 51
171.0423284217637
  0
ARC
  5
484
330
6F
100
AcDbEntity
  8
LOUVER
  6
Continuous
100
AcDbCircle
 10
225.8523218448053
 20
420.7514041871307
 30
0.0
 40
0.2
100
AcDbArc
 50
269.9999999998204
 51
339.6400048124608
  0
ARC
  5
485
330
6F
100
AcDbEntity
  8
LOUVER
  6
Continuous
100
AcDbCircle
 10
225.8523218448362
 20
419.3597340373878
 30
0.0
 40
0.2
100
AcDbArc
 50
20.35999519009133
 51
89.99999999982035
  0
LINE
  5
486
330
6F
100
AcDbEntity
  8
LOUVER
  6
Continuous
100
AcDbLine
 10
225.8523218448371
 20
419.5597340373881
 30
0.0
 11
225.8505452074109
 21
419.5597300918178
 31
0.0
  0
LINE
  5
487
330
6F
100
AcDbEntity
  8
LOUVER
  6
Continuous
100
AcDbLine
 10
225.8523218448047
 20
420.5514041871307
 30
0.0
 11
225.8505452073988
 21
420.5514081327006
 31
0.0
  0
ARC
  5
488
330
6F
100
AcDbEntity
  8
LOUVER
  6
Continuous
100
AcDbCircle
 10
227.7273721237679
 20
420.0555691123007
 30
0.0
 40
2.1
100
AcDbArc
 50
261.0423284217649
 51
278.9576715807843
  0
ENDSEC
  0
SECTION
  2
OBJECTS
  0
DICTIONARY
  5
C
330
0
100
AcDbDictionary
281
     1
  3
ACAD_CIP_PREVIOUS_PRODUCT_INFO
350
48C
  3
ACAD_COLOR
350
62
  3
ACAD_DETAILVIEWSTYLE
350
69
  3
ACAD_GROUP
350
D
  3
ACAD_LAYOUT
350
61
  3
ACAD_MATERIAL
350
10
  3
ACAD_MLEADERSTYLE
350
65
  3
ACAD_MLINESTYLE
350
5E
  3
ACAD_PLOTSETTINGS
350
60
  3
ACAD_PLOTSTYLENAME
350
E
  3
ACAD_SCALELIST
350
42
  3
ACAD_SECTIONVIEWSTYLE
350
67
  3
ACAD_TABLESTYLE
350
63
  3
ACAD_VISUALSTYLE
350
29
  3
ACDB_RECOMPOSE_DATA
350
4FF
  3
AcDbVariableDictionary
350
49F
  0
DICTIONARY
  5
48F
330
54
100
AcDbDictionary
280
     1
281
     1
  3
ADSK_XREC_LAYER_RECONCILED
360
490
  0
DICTIONARY
  5
491
330
76
100
AcDbDictionary
280
     1
281
     1
  3
ADSK_XREC_LAYER_RECONCILED
360
492
  0
DICTIONARY
  5
493
330
77
100
AcDbDictionary
280
     1
281
     1
  3
ADSK_XREC_LAYER_RECONCILED
360
494
  0
DICTIONARY
  5
495
330
78
100
AcDbDictionary
280
     1
281
     1
  3
ADSK_XREC_LAYER_RECONCILED
360
496
  0
DICTIONARY
  5
497
330
79
100
AcDbDictionary
280
     1
281
     1
  3
ADSK_XREC_LAYER_RECONCILED
360
498
  0
DICTIONARY
  5
499
330
7A
100
AcDbDictionary
280
     1
281
     1
  3
ADSK_XREC_LAYER_RECONCILED
360
49A
  0
DICTIONARY
  5
49B
330
7B
100
AcDbDictionary
280
     1
281
     1
  3
ADSK_XREC_LAYER_RECONCILED
360
49C
  0
DICTIONARY
  5
49D
330
7C
100
AcDbDictionary
280
     1
281
     1
  3
ADSK_XREC_LAYER_RECONCILED
360
49E
  0
XRECORD
  5
48C
102
{ACAD_REACTORS
330
C
102
}
330
C
100
AcDbXrecord
280
     1
300
ACD
300
2022
300

  0
DICTIONARY
  5
62
102
{ACAD_REACTORS
330
C
102
}
330
C
100
AcDbDictionary
281
     1
  0
DICTIONARY
  5
69
102
{ACAD_REACTORS
330
C
102
}
330
C
100
AcDbDictionary
281
     1
  3
Imperial24
350
6A
  3
Metric50
350
48A
  0
DICTIONARY
  5
D
102
{ACAD_REACTORS
330
C
102
}
330
C
100
AcDbDictionary
281
     1
  0
DICTIONARY
  5
61
102
{ACAD_REACTORS
330
C
102
}
330
C
100
AcDbDictionary
281
     1
  3
Model
350
72
  3
レイアウト1
350
6E
  0
DICTIONARY
  5
10
102
{ACAD_REACTORS
330
C
102
}
330
C
100
AcDbDictionary
281
     1
  3
ByBlock
350
19
  3
ByLayer
350
11
  3
Global
350
21
  0
DICTIONARY
  5
65
102
{ACAD_REACTORS
330
C
102
}
330
C
100
AcDbDictionary
281
     1
  3
Standard
350
66
  0
DICTIONARY
  5
5E
102
{ACAD_REACTORS
330
C
102
}
330
C
100
AcDbDictionary
281
     1
  3
Standard
350
5F
  0
DICTIONARY
  5
60
102
{ACAD_REACTORS
330
C
102
}
330
C
100
AcDbDictionary
281
     1
  0
ACDBDICTIONARYWDFLT
  5
E
102
{ACAD_REACTORS
330
C
102
}
330
C
100
AcDbDictionary
281
     1
  3
Normal
350
F
100
AcDbDictionaryWithDefault
340
F
  0
DICTIONARY
  5
42
102
{ACAD_REACTORS
330
C
102
}
330
C
100
AcDbDictionary
281
     1
  3
A0
350
43
  3
A1
350
44
  3
A2
350
45
  3
A3
350
46
  3
A4
350
47
  3
A5
350
48
  3
A6
350
49
  3
A7
350
4A
  3
A8
350
4B
  3
A9
350
4C
  3
B0
350
4D
  3
B1
350
4E
  3
B2
350
4F
  3
B3
350
50
  3
B4
350
51
  3
B5
350
52
  3
B6
350
53
  0
DICTIONARY
  5
67
102
{ACAD_REACTORS
330
C
102
}
330
C
100
AcDbDictionary
281
     1
  3
Imperial24
350
68
  3
Metric50
350
489
  0
DICTIONARY
  5
63
102
{ACAD_REACTORS
330
C
102
}
330
C
100
AcDbDictionary
281
     1
  3
Standard
350
64
  0
DICTIONARY
  5
29
102
{ACAD_REACTORS
330
C
102
}
330
C
100
AcDbDictionary
281
     1
  3
2dWireframe
350
2F
  3
Basic
350
2E
  3
Brighten
350
35
  3
ColorChange
350
39
  3
Conceptual
350
32
  3
Dim
350
34
  3
EdgeColorOff
350
41
  3
Facepattern
350
38
  3
Flat
350
2A
  3
FlatWithEdges
350
2B
  3
Gouraud
350
2C
  3
GouraudWithEdges
350
2D
  3
Hidden
350
31
  3
JitterOff
350
3F
  3
Linepattern
350
37
  3
OverhangOff
350
40
  3
Realistic
350
33
  3
Shaded
350
3E
  3
Shaded with edges
350
3D
  3
Shades of Gray
350
3A
  3
Sketchy
350
3B
  3
Thicken
350
36
  3
Wireframe
350
30
  3
X-Ray
350
3C
  0
XRECORD
  5
4FF
102
{ACAD_REACTORS
330
C
102
}
330
C
100
AcDbXrecord
280
     1
 90
        1
330
64
  0
DICTIONARY
  5
49F
102
{ACAD_REACTORS
330
C
102
}
330
C
100
AcDbDictionary
281
     1
  3
CANNOSCALE
350
4A4
  3
CMLEADERSTYLE
350
4A1
  3
CTABLESTYLE
350
4A0
  3
CVIEWDETAILSTYLE
350
4A2
  3
CVIEWSECTIONSTYLE
350
4A3
  3
DIMASSOC
350
4A7
  3
INDEXCTL
350
4A6
  3
LAYEREVAL
350
4FC
  3
LAYERNOTIFY
350
4FD
  3
LIGHTINGUNITS
350
4FB
  3
MSLTSCALE
350
4FA
  3
SORTENTS
350
4A5
  0
XRECORD
  5
490
102
{ACAD_REACTORS
330
48F
102
}
330
48F
100
AcDbXrecord
280
     1
290
     1
  0
XRECORD
  5
492
102
{ACAD_REACTORS
330
491
102
}
330
491
100
AcDbXrecord
280
     1
290
     1
  0
XRECORD
  5
494
102
{ACAD_REACTORS
330
493
102
}
330
493
100
AcDbXrecord
280
     1
290
     1
  0
XRECORD
  5
496
102
{ACAD_REACTORS
330
495
102
}
330
495
100
AcDbXrecord
280
     1
290
     1
  0
XRECORD
  5
498
102
{ACAD_REACTORS
330
497
102
}
330
497
100
AcDbXrecord
280
     1
290
     1
  0
XRECORD
  5
49A
102
{ACAD_REACTORS
330
499
102
}
330
499
100
AcDbXrecord
280
     1
290
     1
  0
XRECORD
  5
49C
102
{ACAD_REACTORS
330
49B
102
}
330
49B
100
AcDbXrecord
280
     1
290
     1
  0
XRECORD
  5
49E
102
{ACAD_REACTORS
330
49D
102
}
330
49D
100
AcDbXrecord
280
     1
290
     1
  0
ACDBDETAILVIEWSTYLE
  5
6A
102
{ACAD_REACTORS
330
69
102
}
330
69
100
AcDbModelDocViewStyle
 70
     0
  3
Imperial24
290
     0
300
Imperial24
 90
        0
100
AcDbDetailViewStyle
 70
     0
 71
     0
 90
        3
 71
     1
340
55
 62
   256
 40
0.24
340
0
 62
   256
 40
0.24
300

 40
0.36
280
     3
 71
     2
340
5C
 90
       25
 62
   256
 71
     3
340
55
 62
   256
 40
0.24
 90
        1
 40
0.75
 90
        1
300
%<\AcVar ViewType \f "%tc1">% %<\AcVar ViewDetailId>%\PSCALE %<\AcVar ViewScale \f "%sn">%
 71
     4
340
5C
 90
       25
 62
   256
340
5C
 90
       25
 62
   256
280
     0
  0
ACDBDETAILVIEWSTYLE
  5
48A
102
{ACAD_REACTORS
330
69
102
}
330
69
100
AcDbModelDocViewStyle
 70
     0
  3
Metric50
290
     0
300
Metric50
 90
        0
100
AcDbDetailViewStyle
 70
     0
 71
     0
 90
        3
 71
     1
340
55
 62
   256
 40
5.0
340
0
 62
   256
 40
5.0
300

 40
0.0
280
     1
 71
     2
340
5C
 90
       25
 62
   256
 71
     3
340
55
 62
   256
 40
5.0
 90
        0
 40
15.0
 90
        1
300
%<\AcVar ViewDetailId>% (%<\AcVar ViewScale \f "%sn">%)
 71
     4
340
5C
 90
       25
 62
   256
340
5C
 90
       25
 62
   256
280
     0
  0
LAYOUT
  5
72
102
{ACAD_REACTORS
330
61
102
}
330
61
100
AcDbPlotSettings
  1

  2
OKI B821
  4

  6

 40
0.0
 41
0.0
 42
0.0
 43
0.0
 44
0.0
 45
0.0
 46
0.0
 47
0.0
 48
0.0
 49
0.0
140
0.0
141
0.0
142
1.0
143
1.0
 70
  1712
 72
     0
 73
     0
 74
     0
  7

 75
     0
147
1.0
 76
     0
 77
     2
 78
   300
148
0.0
149
0.0
100
AcDbLayout
  1
Model
 70
     1
 71
     0
 10
0.0
 20
0.0
 11
12.0
 21
9.0
 12
0.0
 22
0.0
 32
0.0
 14
0.0
 24
0.0
 34
0.0
 15
0.0
 25
0.0
 35
0.0
146
0.0
 13
0.0
 23
0.0
 33
0.0
 16
1.0
 26
0.0
 36
0.0
 17
0.0
 27
1.0
 37
0.0
 76
     0
330
6F
331
83
  0
LAYOUT
  5
6E
102
{ACAD_REACTORS
330
61
102
}
330
61
100
AcDbPlotSettings
  1

  2
OKI B821
  4

  6

 40
0.0
 41
0.0
 42
0.0
 43
0.0
 44
0.0
 45
0.0
 46
0.0
 47
0.0
 48
0.0
 49
0.0
140
0.0
141
0.0
142
1.0
143
1.0
 70
   688
 72
     0
 73
     0
 74
     5
  7

 75
    16
147
1.0
 76
     0
 77
     2
 78
   300
148
0.0
149
0.0
100
AcDbLayout
  1
レイアウト1
 70
     1
 71
     1
 10
0.0
 20
0.0
 11
12.0
 21
9.0
 12
0.0
 22
0.0
 32
0.0
 14
1.000000000000000E+20
 24
1.000000000000000E+20
 34
1.000000000000000E+20
 15
-1.000000000000000E+20
 25
-1.000000000000000E+20
 35
-1.000000000000000E+20
146
0.0
 13
0.0
 23
0.0
 33
0.0
 16
1.0
 26
0.0
 36
0.0
 17
0.0
 27
1.0
 37
0.0
 76
     0
330
6B
  0
MATERIAL
  5
19
102
{ACAD_XDICTIONARY
360
1A
102
}
102
{ACAD_REACTORS
330
10
102
}
330
10
100
AcDbMaterial
  1
ByBlock
 72
     0
 43
0.0208333333333333
 43
0.0
 43
0.0
 43
0.0
 43
0.0
 43
0.0208333333333333
 43
0.0
 43
0.0
 43
0.0
 43
0.0
 43
1.0
 43
0.0
 43
0.0
 43
0.0
 43
0.0
 43
1.0
 77
     0
 47
0.0208333333333333
 47
0.0
 47
0.0
 47
0.0
 47
0.0
 47
0.0208333333333333
 47
0.0
 47
0.0
 47
0.0
 47
0.0
 47
1.0
 47
0.0
 47
0.0
 47
0.0
 47
0.0
 47
1.0
171
     0
 49
0.0208333333333333
 49
0.0
 49
0.0
 49
0.0
 49
0.0
 49
0.0208333333333333
 49
0.0
 49
0.0
 49
0.0
 49
0.0
 49
1.0
 49
0.0
 49
0.0
 49
0.0
 49
0.0
 49
1.0
175
     0
142
0.0208333333333333
142
0.0
142
0.0
142
0.0
142
0.0
142
0.0208333333333333
142
0.0
142
0.0
142
0.0
142
0.0
142
1.0
142
0.0
142
0.0
142
0.0
142
0.0
142
1.0
179
     0
144
0.0208333333333333
144
0.0
144
0.0
144
0.0
144
0.0
144
0.0208333333333333
144
0.0
144
0.0
144
0.0
144
0.0
144
1.0
144
0.0
144
0.0
144
0.0
144
0.0
144
1.0
147
0.0208333333333333
147
0.0
147
0.0
147
0.0
147
0.0
147
0.0208333333333333
147
0.0
147
0.0
147
0.0
147
0.0
147
1.0
147
0.0
147
0.0
147
0.0
147
0.0
147
1.0
  0
MATERIAL
  5
11
102
{ACAD_XDICTIONARY
360
12
102
}
102
{ACAD_REACTORS
330
10
102
}
330
10
100
AcDbMaterial
  1
ByLayer
 72
     0
 43
0.0208333333333333
 43
0.0
 43
0.0
 43
0.0
 43
0.0
 43
0.0208333333333333
 43
0.0
 43
0.0
 43
0.0
 43
0.0
 43
1.0
 43
0.0
 43
0.0
 43
0.0
 43
0.0
 43
1.0
 77
     0
 47
0.0208333333333333
 47
0.0
 47
0.0
 47
0.0
 47
0.0
 47
0.0208333333333333
 47
0.0
 47
0.0
 47
0.0
 47
0.0
 47
1.0
 47
0.0
 47
0.0
 47
0.0
 47
0.0
 47
1.0
171
     0
 49
0.0208333333333333
 49
0.0
 49
0.0
 49
0.0
 49
0.0
 49
0.0208333333333333
 49
0.0
 49
0.0
 49
0.0
 49
0.0
 49
1.0
 49
0.0
 49
0.0
 49
0.0
 49
0.0
 49
1.0
175
     0
142
0.0208333333333333
142
0.0
142
0.0
142
0.0
142
0.0
142
0.0208333333333333
142
0.0
142
0.0
142
0.0
142
0.0
142
1.0
142
0.0
142
0.0
142
0.0
142
0.0
142
1.0
179
     0
144
0.0208333333333333
144
0.0
144
0.0
144
0.0
144
0.0
144
0.0208333333333333
144
0.0
144
0.0
144
0.0
144
0.0
144
1.0
144
0.0
144
0.0
144
0.0
144
0.0
144
1.0
147
0.0208333333333333
147
0.0
147
0.0
147
0.0
147
0.0
147
0.0208333333333333
147
0.0
147
0.0
147
0.0
147
0.0
147
1.0
147
0.0
147
0.0
147
0.0
147
0.0
147
1.0
  0
MATERIAL
  5
21
102
{ACAD_XDICTIONARY
360
22
102
}
102
{ACAD_REACTORS
330
10
102
}
330
10
100
AcDbMaterial
  1
Global
 72
     0
 43
0.0208333333333333
 43
0.0
 43
0.0
 43
0.0
 43
0.0
 43
0.0208333333333333
 43
0.0
 43
0.0
 43
0.0
 43
0.0
 43
1.0
 43
0.0
 43
0.0
 43
0.0
 43
0.0
 43
1.0
 77
     0
 47
0.0208333333333333
 47
0.0
 47
0.0
 47
0.0
 47
0.0
 47
0.0208333333333333
 47
0.0
 47
0.0
 47
0.0
 47
0.0
 47
1.0
 47
0.0
 47
0.0
 47
0.0
 47
0.0
 47
1.0
171
     0
 49
0.0208333333333333
 49
0.0
 49
0.0
 49
0.0
 49
0.0
 49
0.0208333333333333
 49
0.0
 49
0.0
 49
0.0
 49
0.0
 49
1.0
 49
0.0
 49
0.0
 49
0.0
 49
0.0
 49
1.0
175
     0
142
0.0208333333333333
142
0.0
142
0.0
142
0.0
142
0.0
142
0.0208333333333333
142
0.0
142
0.0
142
0.0
142
0.0
142
1.0
142
0.0
142
0.0
142
0.0
142
0.0
142
1.0
179
     0
144
0.0208333333333333
144
0.0
144
0.0
144
0.0
144
0.0
144
0.0208333333333333
144
0.0
144
0.0
144
0.0
144
0.0
144
1.0
144
0.0
144
0.0
144
0.0
144
0.0
144
1.0
147
0.0208333333333333
147
0.0
147
0.0
147
0.0
147
0.0
147
0.0208333333333333
147
0.0
147
0.0
147
0.0
147
0.0
147
1.0
147
0.0
147
0.0
147
0.0
147
0.0
147
1.0
  0
MLEADERSTYLE
  5
66
102
{ACAD_REACTORS
330
65
102
}
330
65
100
AcDbMLeaderStyle
179
     2
170
     2
171
     1
172
     0
 90
        2
 40
0.0
 41
0.0
173
     1
 91
-1056964608
340
5A
 92
       -2
290
     1
 42
0.09
291
     1
 43
0.36
  3
Standard
 44
0.18
300

342
55
174
     1
178
     6
175
     1
176
     0
 93
-1056964608
 45
0.18
292
     0
297
     0
 46
0.18
 94
-1056964608
 47
1.0
 49
1.0
140
1.0
293
     1
141
0.0
294
     1
177
     0
142
1.0
295
     0
296
     0
143
0.125
271
     0
272
     9
273
     9
298
     0
1001
ACAD_MLEADERVER
1070
     2
  0
MLINESTYLE
  5
5F
102
{ACAD_REACTORS
330
5E
102
}
330
5E
100
AcDbMlineStyle
  2
STANDARD
 70
     0
  3

 62
   256
 51
90.0
 52
90.0
 71
     2
 49
0.5
 62
   256
  6
BYLAYER
 49
-0.5
 62
   256
  6
BYLAYER
  0
ACDBPLACEHOLDER
  5
F
102
{ACAD_REACTORS
330
E
102
}
330
E
  0
SCALE
  5
43
102
{ACAD_REACTORS
330
42
102
}
330
42
100
AcDbScale
 70
     0
300
1:1
140
1.0
141
1.0
290
     1
  0
SCALE
  5
44
102
{ACAD_REACTORS
330
42
102
}
330
42
100
AcDbScale
 70
     0
300
1/128" = 1'-0"
140
0.0078125
141
12.0
290
     0
  0
SCALE
  5
45
102
{ACAD_REACTORS
330
42
102
}
330
42
100
AcDbScale
 70
     0
300
1/64" = 1'-0"
140
0.015625
141
12.0
290
     0
  0
SCALE
  5
46
102
{ACAD_REACTORS
330
42
102
}
330
42
100
AcDbScale
 70
     0
300
1/32" = 1'-0"
140
0.03125
141
12.0
290
     0
  0
SCALE
  5
47
102
{ACAD_REACTORS
330
42
102
}
330
42
100
AcDbScale
 70
     0
300
1/16" = 1'-0"
140
0.0625
141
12.0
290
     0
  0
SCALE
  5
48
102
{ACAD_REACTORS
330
42
102
}
330
42
100
AcDbScale
 70
     0
300
3/32" = 1'-0"
140
0.09375
141
12.0
290
     0
  0
SCALE
  5
49
102
{ACAD_REACTORS
330
42
102
}
330
42
100
AcDbScale
 70
     0
300
1/8" = 1'-0"
140
0.125
141
12.0
290
     0
  0
SCALE
  5
4A
102
{ACAD_REACTORS
330
42
102
}
330
42
100
AcDbScale
 70
     0
300
3/16" = 1'-0"
140
0.1875
141
12.0
290
     0
  0
SCALE
  5
4B
102
{ACAD_REACTORS
330
42
102
}
330
42
100
AcDbScale
 70
     0
300
1/4" = 1'-0"
140
0.25
141
12.0
290
     0
  0
SCALE
  5
4C
102
{ACAD_REACTORS
330
42
102
}
330
42
100
AcDbScale
 70
     0
300
3/8" = 1'-0"
140
0.375
141
12.0
290
     0
  0
SCALE
  5
4D
102
{ACAD_REACTORS
330
42
102
}
330
42
100
AcDbScale
 70
     0
300
1/2" = 1'-0"
140
0.5
141
12.0
290
     0
  0
SCALE
  5
4E
102
{ACAD_REACTORS
330
42
102
}
330
42
100
AcDbScale
 70
     0
300
3/4" = 1'-0"
140
0.75
141
12.0
290
     0
  0
SCALE
  5
4F
102
{ACAD_REACTORS
330
42
102
}
330
42
100
AcDbScale
 70
     0
300
1" = 1'-0"
140
1.0
141
12.0
290
     0
  0
SCALE
  5
50
102
{ACAD_REACTORS
330
42
102
}
330
42
100
AcDbScale
 70
     0
300
1-1/2" = 1'-0"
140
1.5
141
12.0
290
     0
  0
SCALE
  5
51
102
{ACAD_REACTORS
330
42
102
}
330
42
100
AcDbScale
 70
     0
300
3" = 1'-0"
140
3.0
141
12.0
290
     0
  0
SCALE
  5
52
102
{ACAD_REACTORS
330
42
102
}
330
42
100
AcDbScale
 70
     0
300
6" = 1'-0"
140
6.0
141
12.0
290
     0
  0
SCALE
  5
53
102
{ACAD_REACTORS
330
42
102
}
330
42
100
AcDbScale
 70
     0
300
1'-0" = 1'-0"
140
12.0
141
12.0
290
     0
  0
ACDBSECTIONVIEWSTYLE
  5
68
102
{ACAD_REACTORS
330
67
102
}
330
67
100
AcDbModelDocViewStyle
 70
     0
  3
Imperial24
290
     0
300
Imperial24
 90
        0
100
AcDbSectionViewStyle
 70
     0
 71
     0
 90
       78
 71
     1
340
55
 62
   256
 40
0.24
340
0
340
0
 62
   256
 40
0.24
300
I, O, Q, S, X, Z
 40
0.48
 90
        3
 40
0.18
 90
        1
 71
     2
340
5C
 90
       25
 62
   256
340
5C
 90
       50
 62
   256
 40
0.24
 40
0.0
 40
0.24
 71
     3
340
55
 62
   256
 40
0.24
 90
        1
 40
0.75
 90
        1
300
%<\AcVar ViewType \f "%tc1">% %<\AcVar ViewSectionStartId>%-%<\AcVar ViewSectionEndId>%\PSCALE %<\AcVar ViewScale \f "%sn">%
 71
     4
 62
   256
 62
   257
300
ANSI31
 40
1.0
 90
        0
290
     0
290
     0
 90
        6
 40
0.0
 40
1.570796326794896
 40
0.2617993877991494
 40
1.308996938995747
 40
-0.2617993877991494
 40
1.832595714594045
  0
ACDBSECTIONVIEWSTYLE
  5
489
102
{ACAD_REACTORS
330
67
102
}
330
67
100
AcDbModelDocViewStyle
 70
     0
  3
Metric50
290
     0
300
Metric50
 90
        0
100
AcDbSectionViewStyle
 70
     0
 71
     0
 90
      102
 71
     1
340
55
 62
   256
 40
5.0
340
0
340
0
 62
   256
 40
5.0
300
I, O, Q, S, X, Z
 40
10.0
 90
        0
 40
2.5
 90
        0
 71
     2
340
5C
 90
       25
 62
   256
340
5C
 90
       50
 62
   256
 40
5.0
 40
2.5
 40
5.0
 71
     3
340
55
 62
   256
 40
5.0
 90
        0
 40
15.0
 90
        1
300
%<\AcVar ViewSectionStartId>%-%<\AcVar ViewSectionEndId>% (%<\AcVar ViewScale \f "%sn">%)
 71
     4
 62
   256
 62
   257
300
ANSI31
 40
1.0
 90
        0
290
     0
290
     0
 90
        6
 40
0.0
 40
1.570796326794896
 40
0.2617993877991494
 40
1.308996938995747
 40
-0.2617993877991494
 40
1.832595714594045
  0
TABLESTYLE
  5
64
102
{ACAD_XDICTIONARY
360
4AA
102
}
102
{ACAD_REACTORS
330
63
102
}
330
63
100
AcDbTableStyle
280
     0
  3
Standard
 70
     0
 71
     0
 40
0.06
 41
0.06
280
     0
281
     0
  7
STANDARD
140
0.18
170
     2
 62
     0
 63
     7
283
     0
 90
      512
 91
        0
  1

274
    -2
284
     1
 64
     0
275
    -2
285
     1
 65
     0
276
    -2
286
     1
 66
     0
277
    -2
287
     1
 67
     0
278
    -2
288
     1
 68
     0
279
    -2
289
     1
 69
     0
  7
STANDARD
140
0.25
170
     5
 62
     0
 63
     7
283
     0
 90
      512
 91
        0
  1

274
    -2
284
     1
 64
     0
275
    -2
285
     1
 65
     0
276
    -2
286
     1
 66
     0
277
    -2
287
     1
 67
     0
278
    -2
288
     1
 68
     0
279
    -2
289
     1
 69
     0
  7
STANDARD
140
0.18
170
     5
 62
     0
 63
     7
283
     0
 90
      512
 91
        0
  1

274
    -2
284
     1
 64
     0
275
    -2
285
     1
 65
     0
276
    -2
286
     1
 66
     0
277
    -2
287
     1
 67
     0
278
    -2
288
     1
 68
     0
279
    -2
289
     1
 69
     0
  0
VISUALSTYLE
  5
2F
102
{ACAD_REACTORS
330
29
102
}
330
29
100
AcDbVisualStyle
  2

 70
     4
177
     3
291
     0
 70
    58
 90
        0
176
     1
 90
        2
176
     1
 90
        0
176
     1
 90
        0
176
     1
 40
0.6
176
     1
 40
30.0
176
     1
 62
     7
176
     1
 90
        1
176
     1
 90
        4
176
     1
 62
     7
176
     1
 62
   257
176
     1
 90
        1
176
     1
 90
        1
176
     1
 40
1.0
176
     1
 90
        0
176
     1
 62
   257
176
     1
 40
1.0
176
     1
 90
        1
176
     1
 90
        6
176
     1
 90
        2
176
     1
 62
     7
176
     1
 90
        5
176
     1
 90
        0
176
     1
 90
        0
176
     1
290
     0
176
     1
 90
        1
176
     1
 40
0.0
176
     1
 90
        0
176
     1
290
     1
176
     1
290
     1
176
     1
290
     0
176
     1
290
     0
176
     1
290
     0
176
     1
290
     0
176
     1
290
     0
176
     1
290
     0
176
     1
290
     0
176
     1
 90
       50
176
     1
 40
0.0
176
     1
 40
1.0
176
     1
 90
        0
176
     1
 62
    18
420
        0
176
     1
 90
       50
176
     1
 90
        3
176
     1
 62
     5
420
      255
176
     1
290
     0
176
     1
 90
       50
176
     1
 90
       50
176
     1
 90
       50
176
     1
290
     0
176
     1
 90
       50
176
     1
 62
   256
176
     0
 40
1.0
176
     0
 90
        2
176
     1
  1
strokes_ogs.tif
176
     1
290
     0
176
     1
 40
1.0
176
     1
 40
1.0
176
     1
1001
ACAD
1000
AcDbSavedByObjectVersion
1070
     0
  0
VISUALSTYLE
  5
2E
102
{ACAD_REACTORS
330
29
102
}
330
29
100
AcDbVisualStyle
  2

 70
     7
177
     3
291
     1
 70
    58
 90
        1
176
     1
 90
        0
176
     1
 90
        1
176
     1
 90
        0
176
     1
 40
0.6
176
     1
 40
30.0
176
     1
 62
     7
176
     1
 90
        0
176
     1
 90
        4
176
     1
 62
     7
176
     1
 62
   257
176
     1
 90
        1
176
     1
 90
        1
176
     1
 40
1.0
176
     1
 90
        8
176
     1
 62
     7
176
     1
 40
1.0
176
     1
 90
        1
176
     1
 90
        6
176
     1
 90
        2
176
     1
 62
     7
176
     1
 90
        5
176
     1
 90
        0
176
     1
 90
        0
176
     1
290
     0
176
     1
 90
        1
176
     1
 40
0.0
176
     1
 90
        0
176
     1
290
     0
176
     1
290
     1
176
     1
290
     1
176
     1
290
     0
176
     1
290
     0
176
     1
290
     0
176
     1
290
     0
176
     1
290
     0
176
     1
290
     0
176
     1
 90
       50
176
     1
 40
0.0
176
     1
 40
1.0
176
     1
 90
        0
176
     1
 62
    18
420
        0
176
     1
 90
       50
176
     1
 90
        3
176
     1
 62
     5
420
      255
176
     1
290
     0
176
     1
 90
       50
176
     1
 90
       50
176
     1
 90
       50
176
     1
290
     0
176
     1
 90
       50
176
     1
 62
   256
176
     0
 40
1.0
176
     0
 90
        2
176
     1
  1
strokes_ogs.tif
176
     1
290
     0
176
     1
 40
1.0
176
     1
 40
1.0
176
     1
1001
ACAD
1000
AcDbSavedByObjectVersion
1070
     0
  0
VISUALSTYLE
  5
35
102
{ACAD_REACTORS
330
29
102
}
330
29
100
AcDbVisualStyle
  2

 70
    12
177
     3
291
     1
 70
    58
 90
        2
176
     1
 90
        2
176
     1
 90
        0
176
     1
 90
        0
176
     1
 40
0.6
176
     1
 40
30.0
176
     1
 62
     7
176
     1
 90
        1
176
     1
 90
        4
176
     1
 62
     7
176
     1
 62
   257
176
     1
 90
        1
176
     1
 90
        1
176
     1
 40
1.0
176
     1
 90
        8
176
     1
 62
     7
176
     1
 40
1.0
176
     1
 90
        1
176
     1
 90
        6
176
     1
 90
        2
176
     1
 62
     7
176
     1
 90
        5
176
     1
 90
        0
176
     1
 90
        0
176
     1
290
     0
176
     1
 90
        1
176
     1
 40
50.0
176
     1
 90
        0
176
     1
290
     0
176
     1
290
     1
176
     1
290
     1
176
     1
290
     0
176
     1
290
     0
176
     1
290
     0
176
     1
290
     0
176
     1
290
     0
176
     1
290
     0
176
     1
 90
       50
176
     1
 40
0.0
176
     1
 40
1.0
176
     1
 90
        0
176
     1
 62
    18
420
        0
176
     1
 90
       50
176
     1
 90
        3
176
     1
 62
     5
420
      255
176
     1
290
     0
176
     1
 90
       50
176
     1
 90
       50
176
     1
 90
       50
176
     1
290
     0
176
     1
 90
       50
176
     1
 62
   256
176
     0
 40
1.0
176
     0
 90
        2
176
     1
  1
strokes_ogs.tif
176
     1
290
     0
176
     1
 40
1.0
176
     1
 40
1.0
176
     1
1001
ACAD
1000
AcDbSavedByObjectVersion
1070
     0
  0
VISUALSTYLE
  5
39
102
{ACAD_REACTORS
330
29
102
}
330
29
100
AcDbVisualStyle
  2

 70
    16
177
     3
291
     1
 70
    58
 90
        2
176
     1
 90
        2
176
     1
 90
        3
176
     1
 90
        0
176
     1
 40
0.6
176
     1
 40
30.0
176
     1
 62
     8
176
     1
 90
        1
176
     1
 90
        4
176
     1
 62
     7
176
     1
 62
   257
176
     1
 90
        1
176
     1
 90
        1
176
     1
 40
1.0
176
     1
 90
        8
176
     1
 62
     8
176
     1
 40
1.0
176
     1
 90
        1
176
     1
 90
        6
176
     1
 90
        2
176
     1
 62
     7
176
     1
 90
        5
176
     1
 90
        0
176
     1
 90
        0
176
     1
290
     0
176
     1
 90
        1
176
     1
 40
0.0
176
     1
 90
        0
176
     1
290
     0
176
     1
290
     1
176
     1
290
     1
176
     1
290
     0
176
     1
290
     0
176
     1
290
     0
176
     1
290
     0
176
     1
290
     0
176
     1
290
     0
176
     1
 90
       50
176
     1
 40
0.0
176
     1
 40
1.0
176
     1
 90
        0
176
     1
 62
    18
420
        0
176
     1
 90
       50
176
     1
 90
        3
176
     1
 62
     5
420
      255
176
     1
290
     0
176
     1
 90
       50
176
     1
 90
       50
176
     1
 90
       50
176
     1
290
     0
176
     1
 90
       50
176
     1
 62
   256
176
     0
 40
1.0
176
     0
 90
        2
176
     1
  1
strokes_ogs.tif
176
     1
290
     0
176
     1
 40
1.0
176
     1
 40
1.0
176
     1
1001
ACAD
1000
AcDbSavedByObjectVersion
1070
     0
  0
VISUALSTYLE
  5
32
102
{ACAD_REACTORS
330
29
102
}
330
29
100
AcDbVisualStyle
  2

 70
     9
177
     3
291
     0
 70
    58
 90
        3
176
     1
 90
        2
176
     1
 90
        0
176
     1
 90
        0
176
     1
 40
0.6
176
     1
 40
30.0
176
     1
 62
     7
176
     1
 90
        2
176
     1
 90
        2
176
     1
 62
     7
176
     1
 62
   257
176
     1
 90
        1
176
     1
 90
        1
176
     1
 40
179.0
176
     1
 90
        8
176
     1
 62
     7
176
     1
 40
1.0
176
     1
 90
        1
176
     1
 90
        6
176
     1
 90
        2
176
     1
 62
     7
176
     1
 90
        3
176
     1
 90
        0
176
     1
 90
        0
176
     1
290
     0
176
     1
 90
        1
176
     1
 40
0.0
176
     1
 90
        0
176
     1
290
     0
176
     1
290
     1
176
     1
290
     1
176
     1
290
     0
176
     1
290
     0
176
     1
290
     0
176
     1
290
     0
176
     1
290
     0
176
     1
290
     0
176
     1
 90
       50
176
     1
 40
0.0
176
     1
 40
1.0
176
     1
 90
        0
176
     1
 62
    18
420
        0
176
     1
 90
       50
176
     1
 90
        3
176
     1
 62
     5
420
      255
176
     1
290
     0
176
     1
 90
       50
176
     1
 90
       50
176
     1
 90
       50
176
     1
290
     0
176
     1
 90
       50
176
     1
 62
   256
176
     0
 40
1.0
176
     0
 90
        2
176
     1
  1
strokes_ogs.tif
176
     1
290
     0
176
     1
 40
1.0
176
     1
 40
1.0
176
     1
1001
ACAD
1000
AcDbSavedByObjectVersion
1070
     0
  0
VISUALSTYLE
  5
34
102
{ACAD_REACTORS
330
29
102
}
330
29
100
AcDbVisualStyle
  2

 70
    11
177
     3
291
     1
 70
    58
 90
        2
176
     1
 90
        2
176
     1
 90
        0
176
     1
 90
        0
176
     1
 40
0.6
176
     1
 40
30.0
176
     1
 62
     7
176
     1
 90
        1
176
     1
 90
        4
176
     1
 62
     7
176
     1
 62
   257
176
     1
 90
        1
176
     1
 90
        1
176
     1
 40
1.0
176
     1
 90
        8
176
     1
 62
     7
176
     1
 40
1.0
176
     1
 90
        1
176
     1
 90
        6
176
     1
 90
        2
176
     1
 62
     7
176
     1
 90
        5
176
     1
 90
        0
176
     1
 90
        0
176
     1
290
     0
176
     1
 90
        1
176
     1
 40
-50.0
176
     1
 90
        0
176
     1
290
     0
176
     1
290
     1
176
     1
290
     1
176
     1
290
     0
176
     1
290
     0
176
     1
290
     0
176
     1
290
     0
176
     1
290
     0
176
     1
290
     0
176
     1
 90
       50
176
     1
 40
0.0
176
     1
 40
1.0
176
     1
 90
        0
176
     1
 62
    18
420
        0
176
     1
 90
       50
176
     1
 90
        3
176
     1
 62
     5
420
      255
176
     1
290
     0
176
     1
 90
       50
176
     1
 90
       50
176
     1
 90
       50
176
     1
290
     0
176
     1
 90
       50
176
     1
 62
   256
176
     0
 40
1.0
176
     0
 90
        2
176
     1
  1
strokes_ogs.tif
176
     1
290
     0
176
     1
 40
1.0
176
     1
 40
1.0
176
     1
1001
ACAD
1000
AcDbSavedByObjectVersion
1070
     0
  0
VISUALSTYLE
  5
41
102
{ACAD_REACTORS
330
29
102
}
330
29
100
AcDbVisualStyle
  2

 70
    22
177
     3
291
     1
 70
    58
 90
        2
176
     0
 90
        2
176
     0
 90
        0
176
     0
 90
        0
176
     0
 40
0.6
176
     0
 40
30.0
176
     0
 62
     7
176
     0
 90
        1
176
     0
 90
        4
176
     0
 62
     7
176
     0
 62
   257
176
     0
 90
        1
176
     0
 90
        1
176
     0
 40
1.0
176
     0
 90
        8
176
     2
 62
     7
176
     0
 40
1.0
176
     0
 90
        1
176
     0
 90
        6
176
     0
 90
        2
176
     0
 62
     7
176
     0
 90
        5
176
     0
 90
        0
176
     0
 90
        0
176
     0
290
     0
176
     0
 90
        1
176
     0
 40
0.0
176
     0
 90
        0
176
     0
290
     0
176
     1
290
     1
176
     1
290
     1
176
     1
290
     0
176
     1
290
     0
176
     1
290
     0
176
     1
290
     0
176
     1
290
     0
176
     1
290
     0
176
     1
 90
       50
176
     0
 40
0.0
176
     0
 40
1.0
176
     0
 90
        0
176
     0
 62
    18
420
        0
176
     0
 90
       50
176
     0
 90
        3
176
     0
 62
     5
420
      255
176
     0
290
     0
176
     1
 90
       50
176
     0
 90
       50
176
     0
 90
       50
176
     0
290
     0
176
     1
 90
       50
176
     0
 62
   256
176
     0
 40
1.0
176
     0
 90
        2
176
     0
  1
strokes_ogs.tif
176
     0
290
     0
176
     1
 40
1.0
176
     0
 40
1.0
176
     0
1001
ACAD
1000
AcDbSavedByObjectVersion
1070
     0
  0
VISUALSTYLE
  5
38
102
{ACAD_REACTORS
330
29
102
}
330
29
100
AcDbVisualStyle
  2

 70
    15
177
     3
291
     1
 70
    58
 90
        2
176
     1
 90
        2
176
     1
 90
        0
176
     1
 90
        0
176
     1
 40
0.6
176
     1
 40
30.0
176
     1
 62
     7
176
     1
 90
        1
176
     1
 90
        4
176
     1
 62
     7
176
     1
 62
   257
176
     1
 90
        1
176
     1
 90
        1
176
     1
 40
1.0
176
     1
 90
        8
176
     1
 62
     7
176
     1
 40
1.0
176
     1
 90
        1
176
     1
 90
        6
176
     1
 90
        2
176
     1
 62
     7
176
     1
 90
        5
176
     1
 90
        0
176
     1
 90
        0
176
     1
290
     0
176
     1
 90
        1
176
     1
 40
0.0
176
     1
 90
        0
176
     1
290
     0
176
     1
290
     1
176
     1
290
     1
176
     1
290
     0
176
     1
290
     0
176
     1
290
     0
176
     1
290
     0
176
     1
290
     0
176
     1
290
     0
176
     1
 90
       50
176
     1
 40
0.0
176
     1
 40
1.0
176
     1
 90
        0
176
     1
 62
    18
420
        0
176
     1
 90
       50
176
     1
 90
        3
176
     1
 62
     5
420
      255
176
     1
290
     0
176
     1
 90
       50
176
     1
 90
       50
176
     1
 90
       50
176
     1
290
     0
176
     1
 90
       50
176
     1
 62
   256
176
     0
 40
1.0
176
     0
 90
        2
176
     1
  1
strokes_ogs.tif
176
     1
290
     0
176
     1
 40
1.0
176
     1
 40
1.0
176
     1
1001
ACAD
1000
AcDbSavedByObjectVersion
1070
     0
  0
VISUALSTYLE
  5
2A
102
{ACAD_REACTORS
330
29
102
}
330
29
100
AcDbVisualStyle
  2

 70
     0
177
     3
291
     1
 70
    58
 90
        2
176
     1
 90
        1
176
     1
 90
        1
176
     1
 90
        2
176
     1
 40
0.6
176
     1
 40
30.0
176
     1
 62
     7
176
     1
 90
        0
176
     1
 90
        0
176
     1
 62
     7
176
     1
 62
   257
176
     1
 90
        1
176
     1
 90
        1
176
     1
 40
1.0
176
     1
 90
        8
176
     1
 62
     7
176
     1
 40
1.0
176
     1
 90
        1
176
     1
 90
        6
176
     1
 90
        2
176
     1
 62
     7
176
     1
 90
        5
176
     1
 90
        0
176
     1
 90
        0
176
     1
290
     0
176
     1
 90
       13
176
     1
 40
0.0
176
     1
 90
        0
176
     1
290
     0
176
     1
290
     1
176
     1
290
     1
176
     1
290
     0
176
     1
290
     0
176
     1
290
     0
176
     1
290
     0
176
     1
290
     0
176
     1
290
     0
176
     1
 90
       50
176
     1
 40
0.0
176
     1
 40
1.0
176
     1
 90
        0
176
     1
 62
    18
420
        0
176
     1
 90
       50
176
     1
 90
        3
176
     1
 62
     5
420
      255
176
     1
290
     0
176
     1
 90
       50
176
     1
 90
       50
176
     1
 90
       50
176
     1
290
     0
176
     1
 90
       50
176
     1
 62
   256
176
     0
 40
1.0
176
     0
 90
        2
176
     1
  1
strokes_ogs.tif
176
     1
290
     0
176
     1
 40
1.0
176
     1
 40
1.0
176
     1
1001
ACAD
1000
AcDbSavedByObjectVersion
1070
     0
  0
VISUALSTYLE
  5
2B
102
{ACAD_REACTORS
330
29
102
}
330
29
100
AcDbVisualStyle
  2

 70
     1
177
     3
291
     1
 70
    58
 90
        2
176
     1
 90
        1
176
     1
 90
        1
176
     1
 90
        2
176
     1
 40
0.6
176
     1
 40
30.0
176
     1
 62
     7
176
     1
 90
        1
176
     1
 90
        0
176
     1
 62
     7
176
     1
 62
   257
176
     1
 90
        1
176
     1
 90
        1
176
     1
 40
1.0
176
     1
 90
        0
176
     1
 62
   257
176
     1
 40
1.0
176
     1
 90
        1
176
     1
 90
        6
176
     1
 90
        2
176
     1
 62
     7
176
     1
 90
        5
176
     1
 90
        0
176
     1
 90
        0
176
     1
290
     0
176
     1
 90
       13
176
     1
 40
0.0
176
     1
 90
        0
176
     1
290
     0
176
     1
290
     1
176
     1
290
     1
176
     1
290
     0
176
     1
290
     0
176
     1
290
     0
176
     1
290
     0
176
     1
290
     0
176
     1
290
     0
176
     1
 90
       50
176
     1
 40
0.0
176
     1
 40
1.0
176
     1
 90
        0
176
     1
 62
    18
420
        0
176
     1
 90
       50
176
     1
 90
        3
176
     1
 62
     5
420
      255
176
     1
290
     0
176
     1
 90
       50
176
     1
 90
       50
176
     1
 90
       50
176
     1
290
     0
176
     1
 90
       50
176
     1
 62
   256
176
     0
 40
1.0
176
     0
 90
        2
176
     1
  1
strokes_ogs.tif
176
     1
290
     0
176
     1
 40
1.0
176
     1
 40
1.0
176
     1
1001
ACAD
1000
AcDbSavedByObjectVersion
1070
     0
  0
VISUALSTYLE
  5
2C
102
{ACAD_REACTORS
330
29
102
}
330
29
100
AcDbVisualStyle
  2

 70
     2
177
     3
291
     1
 70
    58
 90
        2
176
     1
 90
        2
176
     1
 90
        1
176
     1
 90
        2
176
     1
 40
0.6
176
     1
 40
30.0
176
     1
 62
     7
176
     1
 90
        0
176
     1
 90
        0
176
     1
 62
     7
176
     1
 62
   257
176
     1
 90
        1
176
     1
 90
        1
176
     1
 40
1.0
176
     1
 90
        0
176
     1
 62
     7
176
     1
 40
1.0
176
     1
 90
        1
176
     1
 90
        6
176
     1
 90
        2
176
     1
 62
     7
176
     1
 90
        5
176
     1
 90
        0
176
     1
 90
        0
176
     1
290
     0
176
     1
 90
       13
176
     1
 40
0.0
176
     1
 90
        0
176
     1
290
     0
176
     1
290
     1
176
     1
290
     1
176
     1
290
     0
176
     1
290
     0
176
     1
290
     0
176
     1
290
     0
176
     1
290
     0
176
     1
290
     0
176
     1
 90
       50
176
     1
 40
0.0
176
     1
 40
1.0
176
     1
 90
        0
176
     1
 62
    18
420
        0
176
     1
 90
       50
176
     1
 90
        3
176
     1
 62
     5
420
      255
176
     1
290
     0
176
     1
 90
       50
176
     1
 90
       50
176
     1
 90
       50
176
     1
290
     0
176
     1
 90
       50
176
     1
 62
   256
176
     0
 40
1.0
176
     0
 90
        2
176
     1
  1
strokes_ogs.tif
176
     1
290
     0
176
     1
 40
1.0
176
     1
 40
1.0
176
     1
1001
ACAD
1000
AcDbSavedByObjectVersion
1070
     0
  0
VISUALSTYLE
  5
2D
102
{ACAD_REACTORS
330
29
102
}
330
29
100
AcDbVisualStyle
  2

 70
     3
177
     3
291
     1
 70
    58
 90
        2
176
     1
 90
        2
176
     1
 90
        1
176
     1
 90
        2
176
     1
 40
0.6
176
     1
 40
30.0
176
     1
 62
     7
176
     1
 90
        1
176
     1
 90
        0
176
     1
 62
     7
176
     1
 62
   257
176
     1
 90
        1
176
     1
 90
        1
176
     1
 40
1.0
176
     1
 90
        0
176
     1
 62
   257
176
     1
 40
1.0
176
     1
 90
        1
176
     1
 90
        6
176
     1
 90
        2
176
     1
 62
     7
176
     1
 90
        5
176
     1
 90
        0
176
     1
 90
        0
176
     1
290
     0
176
     1
 90
       13
176
     1
 40
0.0
176
     1
 90
        0
176
     1
290
     0
176
     1
290
     1
176
     1
290
     1
176
     1
290
     0
176
     1
290
     0
176
     1
290
     0
176
     1
290
     0
176
     1
290
     0
176
     1
290
     0
176
     1
 90
       50
176
     1
 40
0.0
176
     1
 40
1.0
176
     1
 90
        0
176
     1
 62
    18
420
        0
176
     1
 90
       50
176
     1
 90
        3
176
     1
 62
     5
420
      255
176
     1
290
     0
176
     1
 90
       50
176
     1
 90
       50
176
     1
 90
       50
176
     1
290
     0
176
     1
 90
       50
176
     1
 62
   256
176
     0
 40
1.0
176
     0
 90
        2
176
     1
  1
strokes_ogs.tif
176
     1
290
     0
176
     1
 40
1.0
176
     1
 40
1.0
176
     1
1001
ACAD
1000
AcDbSavedByObjectVersion
1070
     0
  0
VISUALSTYLE
  5
31
102
{ACAD_REACTORS
330
29
102
}
330
29
100
AcDbVisualStyle
  2

 70
     6
177
     3
291
     0
 70
    58
 90
        1
176
     1
 90
        2
176
     1
 90
        2
176
     1
 90
        0
176
     1
 40
0.6
176
     1
 40
30.0
176
     1
 62
     7
176
     1
 90
        2
176
     1
 90
        2
176
     1
 62
     7
176
     1
 62
   257
176
     1
 90
        2
176
     1
 90
        1
176
     1
 40
40.0
176
     1
 90
        0
176
     1
 62
   257
176
     1
 40
1.0
176
     1
 90
        1
176
     1
 90
        6
176
     1
 90
        2
176
     1
 62
     7
176
     1
 90
        3
176
     1
 90
        0
176
     1
 90
        0
176
     1
290
     0
176
     1
 90
        1
176
     1
 40
0.0
176
     1
 90
        0
176
     1
290
     0
176
     1
290
     1
176
     1
290
     1
176
     1
290
     0
176
     1
290
     0
176
     1
290
     0
176
     1
290
     0
176
     1
290
     0
176
     1
290
     0
176
     1
 90
       50
176
     1
 40
0.0
176
     1
 40
1.0
176
     1
 90
        0
176
     1
 62
    18
420
        0
176
     1
 90
       50
176
     1
 90
        3
176
     1
 62
     5
420
      255
176
     1
290
     0
176
     1
 90
       50
176
     1
 90
       50
176
     1
 90
       50
176
     1
290
     0
176
     1
 90
       50
176
     1
 62
   256
176
     0
 40
1.0
176
     0
 90
        2
176
     1
  1
strokes_ogs.tif
176
     1
290
     0
176
     1
 40
1.0
176
     1
 40
1.0
176
     1
1001
ACAD
1000
AcDbSavedByObjectVersion
1070
     0
  0
VISUALSTYLE
  5
3F
102
{ACAD_REACTORS
330
29
102
}
330
29
100
AcDbVisualStyle
  2

 70
    20
177
     3
291
     1
 70
    58
 90
        2
176
     0
 90
        2
176
     0
 90
        0
176
     0
 90
        0
176
     0
 40
0.6
176
     0
 40
30.0
176
     0
 62
     7
176
     0
 90
        1
176
     0
 90
        4
176
     0
 62
     7
176
     0
 62
   257
176
     0
 90
        1
176
     0
 90
        1
176
     0
 40
1.0
176
     0
 90
       10
176
     2
 62
     7
176
     0
 40
1.0
176
     0
 90
        1
176
     0
 90
        6
176
     0
 90
        2
176
     0
 62
     7
176
     0
 90
        5
176
     0
 90
        0
176
     0
 90
        0
176
     0
290
     0
176
     0
 90
        1
176
     0
 40
0.0
176
     0
 90
        0
176
     0
290
     0
176
     1
290
     1
176
     1
290
     1
176
     1
290
     0
176
     1
290
     0
176
     1
290
     0
176
     1
290
     0
176
     1
290
     0
176
     1
290
     0
176
     1
 90
       50
176
     0
 40
0.0
176
     0
 40
1.0
176
     0
 90
        0
176
     0
 62
    18
420
        0
176
     0
 90
       50
176
     0
 90
        3
176
     0
 62
     5
420
      255
176
     0
290
     0
176
     1
 90
       50
176
     0
 90
       50
176
     0
 90
       50
176
     0
290
     0
176
     1
 90
       50
176
     0
 62
   256
176
     0
 40
1.0
176
     0
 90
        2
176
     0
  1
strokes_ogs.tif
176
     0
290
     0
176
     1
 40
1.0
176
     0
 40
1.0
176
     0
1001
ACAD
1000
AcDbSavedByObjectVersion
1070
     0
  0
VISUALSTYLE
  5
37
102
{ACAD_REACTORS
330
29
102
}
330
29
100
AcDbVisualStyle
  2

 70
    14
177
     3
291
     1
 70
    58
 90
        2
176
     1
 90
        2
176
     1
 90
        0
176
     1
 90
        0
176
     1
 40
0.6
176
     1
 40
30.0
176
     1
 62
     7
176
     1
 90
        1
176
     1
 90
        4
176
     1
 62
     7
176
     1
 62
   257
176
     1
 90
        7
176
     1
 90
        7
176
     1
 40
1.0
176
     1
 90
        8
176
     1
 62
     7
176
     1
 40
1.0
176
     1
 90
        1
176
     1
 90
        6
176
     1
 90
        2
176
     1
 62
     7
176
     1
 90
        5
176
     1
 90
        0
176
     1
 90
        0
176
     1
290
     0
176
     1
 90
        1
176
     1
 40
0.0
176
     1
 90
        0
176
     1
290
     0
176
     1
290
     1
176
     1
290
     1
176
     1
290
     0
176
     1
290
     0
176
     1
290
     0
176
     1
290
     0
176
     1
290
     0
176
     1
290
     0
176
     1
 90
       50
176
     1
 40
0.0
176
     1
 40
1.0
176
     1
 90
        0
176
     1
 62
    18
420
        0
176
     1
 90
       50
176
     1
 90
        3
176
     1
 62
     5
420
      255
176
     1
290
     0
176
     1
 90
       50
176
     1
 90
       50
176
     1
 90
       50
176
     1
290
     0
176
     1
 90
       50
176
     1
 62
   256
176
     0
 40
1.0
176
     0
 90
        2
176
     1
  1
strokes_ogs.tif
176
     1
290
     0
176
     1
 40
1.0
176
     1
 40
1.0
176
     1
1001
ACAD
1000
AcDbSavedByObjectVersion
1070
     0
  0
VISUALSTYLE
  5
40
102
{ACAD_REACTORS
330
29
102
}
330
29
100
AcDbVisualStyle
  2

 70
    21
177
     3
291
     1
 70
    58
 90
        2
176
     0
 90
        2
176
     0
 90
        0
176
     0
 90
        0
176
     0
 40
0.6
176
     0
 40
30.0
176
     0
 62
     7
176
     0
 90
        1
176
     0
 90
        4
176
     0
 62
     7
176
     0
 62
   257
176
     0
 90
        1
176
     0
 90
        1
176
     0
 40
1.0
176
     0
 90
        9
176
     2
 62
     7
176
     0
 40
1.0
176
     0
 90
        1
176
     0
 90
        6
176
     0
 90
        2
176
     0
 62
     7
176
     0
 90
        5
176
     0
 90
        0
176
     0
 90
        0
176
     0
290
     0
176
     0
 90
        1
176
     0
 40
0.0
176
     0
 90
        0
176
     0
290
     0
176
     1
290
     1
176
     1
290
     1
176
     1
290
     0
176
     1
290
     0
176
     1
290
     0
176
     1
290
     0
176
     1
290
     0
176
     1
290
     0
176
     1
 90
       50
176
     0
 40
0.0
176
     0
 40
1.0
176
     0
 90
        0
176
     0
 62
    18
420
        0
176
     0
 90
       50
176
     0
 90
        3
176
     0
 62
     5
420
      255
176
     0
290
     0
176
     1
 90
       50
176
     0
 90
       50
176
     0
 90
       50
176
     0
290
     0
176
     1
 90
       50
176
     0
 62
   256
176
     0
 40
1.0
176
     0
 90
        2
176
     0
  1
strokes_ogs.tif
176
     0
290
     0
176
     1
 40
1.0
176
     0
 40
1.0
176
     0
1001
ACAD
1000
AcDbSavedByObjectVersion
1070
     0
  0
VISUALSTYLE
  5
33
102
{ACAD_REACTORS
330
29
102
}
330
29
100
AcDbVisualStyle
  2

 70
     8
177
     3
291
     0
 70
    58
 90
        2
176
     1
 90
        3
176
     1
 90
        0
176
     1
 90
        2
176
     1
 40
0.6
176
     1
 40
30.0
176
     1
 62
     7
176
     1
 90
        0
176
     1
 90
        0
176
     1
 62
     7
176
     1
 62
   257
176
     1
 90
        1
176
     1
 90
        1
176
     1
 40
1.0
176
     1
 90
        8
176
     1
 62
   257
176
     1
 40
1.0
176
     1
 90
        1
176
     1
 90
        6
176
     1
 90
        2
176
     1
 62
     7
176
     1
 90
        3
176
     1
 90
        0
176
     1
 90
        0
176
     1
290
     0
176
     1
 90
       13
176
     1
 40
0.0
176
     1
 90
        0
176
     1
290
     0
176
     1
290
     1
176
     1
290
     1
176
     1
290
     0
176
     1
290
     0
176
     1
290
     0
176
     1
290
     0
176
     1
290
     0
176
     1
290
     0
176
     1
 90
       50
176
     1
 40
0.0
176
     1
 40
1.0
176
     1
 90
        0
176
     1
 62
    18
420
        0
176
     1
 90
       50
176
     1
 90
        3
176
     1
 62
     5
420
      255
176
     1
290
     0
176
     1
 90
       50
176
     1
 90
       50
176
     1
 90
       50
176
     1
290
     0
176
     1
 90
       50
176
     1
 62
   256
176
     0
 40
1.0
176
     0
 90
        2
176
     1
  1
strokes_ogs.tif
176
     1
290
     0
176
     1
 40
1.0
176
     1
 40
1.0
176
     1
1001
ACAD
1000
AcDbSavedByObjectVersion
1070
     0
  0
VISUALSTYLE
  5
3E
102
{ACAD_REACTORS
330
29
102
}
330
29
100
AcDbVisualStyle
  2

 70
    27
177
     3
291
     0
 70
    58
 90
        2
176
     1
 90
        2
176
     1
 90
        1
176
     1
 90
        2
176
     1
 40
0.6
176
     1
 40
30.0
176
     1
 62
     7
176
     1
 90
        0
176
     1
 90
        4
176
     1
 62
     7
176
     1
 62
   257
176
     1
 90
        1
176
     1
 90
        1
176
     1
 40
1.0
176
     1
 90
        8
176
     1
 62
   257
176
     1
 40
1.0
176
     1
 90
        1
176
     1
 90
        6
176
     1
 90
        2
176
     1
 62
     8
176
     1
 90
        3
176
     1
 90
        0
176
     1
 90
        0
176
     1
290
     0
176
     1
 90
        5
176
     1
 40
0.0
176
     1
 90
        0
176
     1
290
     0
176
     1
290
     1
176
     1
290
     1
176
     1
290
     0
176
     1
290
     0
176
     1
290
     0
176
     1
290
     0
176
     1
290
     0
176
     1
290
     0
176
     1
 90
       50
176
     1
 40
0.0
176
     1
 40
1.0
176
     1
 90
        0
176
     1
 62
    18
420
        0
176
     1
 90
       50
176
     1
 90
        3
176
     1
 62
     5
420
      255
176
     1
290
     0
176
     1
 90
       50
176
     1
 90
       50
176
     1
 90
       50
176
     1
290
     0
176
     1
 90
       50
176
     1
 62
   256
176
     0
 40
1.0
176
     0
 90
        2
176
     1
  1
strokes_ogs.tif
176
     1
290
     0
176
     1
 40
1.0
176
     1
 40
1.0
176
     1
1001
ACAD
1000
AcDbSavedByObjectVersion
1070
     0
  0
VISUALSTYLE
  5
3D
102
{ACAD_REACTORS
330
29
102
}
330
29
100
AcDbVisualStyle
  2

 70
    26
177
     3
291
     0
 70
    58
 90
        2
176
     1
 90
        2
176
     1
 90
        1
176
     1
 90
        2
176
     1
 40
0.6
176
     1
 40
30.0
176
     1
 62
     7
176
     1
 90
        1
176
     1
 90
        2
176
     1
 62
     7
176
     1
 62
   257
176
     1
 90
        2
176
     1
 90
        1
176
     1
 40
1.0
176
     1
 90
        8
176
     1
 62
   257
176
     1
 40
1.0
176
     1
 90
        1
176
     1
 90
        6
176
     1
 90
        2
176
     1
 62
     7
176
     1
 90
        3
176
     1
 90
        0
176
     1
 90
        0
176
     1
290
     0
176
     1
 90
        5
176
     1
 40
0.0
176
     1
 90
        0
176
     1
290
     0
176
     1
290
     1
176
     1
290
     1
176
     1
290
     0
176
     1
290
     0
176
     1
290
     0
176
     1
290
     0
176
     1
290
     0
176
     1
290
     0
176
     1
 90
       50
176
     1
 40
0.0
176
     1
 40
1.0
176
     1
 90
        0
176
     1
 62
    18
420
        0
176
     1
 90
       50
176
     1
 90
        3
176
     1
 62
     5
420
      255
176
     1
290
     0
176
     1
 90
       50
176
     1
 90
       50
176
     1
 90
       50
176
     1
290
     0
176
     1
 90
       50
176
     1
 62
   256
176
     0
 40
1.0
176
     0
 90
        2
176
     1
  1
strokes_ogs.tif
176
     1
290
     0
176
     1
 40
1.0
176
     1
 40
1.0
176
     1
1001
ACAD
1000
AcDbSavedByObjectVersion
1070
     0
  0
VISUALSTYLE
  5
3A
102
{ACAD_REACTORS
330
29
102
}
330
29
100
AcDbVisualStyle
  2

 70
    23
177
     3
291
     0
 70
    58
 90
        2
176
     1
 90
        2
176
     1
 90
        3
176
     1
 90
        0
176
     1
 40
0.6
176
     1
 40
30.0
176
     1
 62
     7
176
     1
 90
        2
176
     1
 90
        2
176
     1
 62
     7
176
     1
 62
     7
176
     1
 90
        1
176
     1
 90
        1
176
     1
 40
40.0
176
     1
 90
        8
176
     1
 62
     7
176
     1
 40
1.0
176
     1
 90
        1
176
     1
 90
        6
176
     1
 90
        2
176
     1
 62
     7
176
     1
 90
        3
176
     1
 90
        0
176
     1
 90
        0
176
     1
290
     0
176
     1
 90
        1
176
     1
 40
0.0
176
     1
 90
        0
176
     1
290
     0
176
     1
290
     1
176
     1
290
     1
176
     1
290
     0
176
     1
290
     0
176
     1
290
     0
176
     1
290
     0
176
     1
290
     0
176
     1
290
     0
176
     1
 90
       50
176
     1
 40
0.0
176
     1
 40
1.0
176
     1
 90
        0
176
     1
 62
    18
420
        0
176
     1
 90
       50
176
     1
 90
        3
176
     1
 62
     5
420
      255
176
     1
290
     0
176
     1
 90
       50
176
     1
 90
       50
176
     1
 90
       50
176
     1
290
     0
176
     1
 90
       50
176
     1
 62
   256
176
     0
 40
1.0
176
     0
 90
        2
176
     1
  1
strokes_ogs.tif
176
     1
290
     0
176
     1
 40
1.0
176
     1
 40
1.0
176
     1
1001
ACAD
1000
AcDbSavedByObjectVersion
1070
     0
  0
VISUALSTYLE
  5
3B
102
{ACAD_REACTORS
330
29
102
}
330
29
100
AcDbVisualStyle
  2

 70
    24
177
     3
291
     0
 70
    58
 90
        1
176
     1
 90
        2
176
     1
 90
        2
176
     1
 90
        0
176
     1
 40
0.6
176
     1
 40
30.0
176
     1
 62
     7
176
     1
 90
        2
176
     1
 90
        2
176
     1
 62
     7
176
     1
 62
     7
176
     1
 90
        1
176
     1
 90
        1
176
     1
 40
40.0
176
     1
 90
       11
176
     1
 62
     7
176
     1
 40
1.0
176
     1
 90
        1
176
     1
 90
        6
176
     1
 90
        2
176
     1
 62
     7
176
     1
 90
        6
176
     1
 90
        0
176
     1
 90
        0
176
     1
290
     0
176
     1
 90
        1
176
     1
 40
0.0
176
     1
 90
        0
176
     1
290
     0
176
     1
290
     1
176
     1
290
     1
176
     1
290
     0
176
     1
290
     0
176
     1
290
     0
176
     1
290
     0
176
     1
290
     0
176
     1
290
     0
176
     1
 90
       50
176
     1
 40
0.0
176
     1
 40
1.0
176
     1
 90
        0
176
     1
 62
    18
420
        0
176
     1
 90
       50
176
     1
 90
        3
176
     1
 62
     5
420
      255
176
     1
290
     0
176
     1
 90
       50
176
     1
 90
       50
176
     1
 90
       50
176
     1
290
     0
176
     1
 90
       50
176
     1
 62
   256
176
     0
 40
1.0
176
     0
 90
        2
176
     1
  1
strokes_ogs.tif
176
     1
290
     0
176
     1
 40
1.0
176
     1
 40
1.0
176
     1
1001
ACAD
1000
AcDbSavedByObjectVersion
1070
     0
  0
VISUALSTYLE
  5
36
102
{ACAD_REACTORS
330
29
102
}
330
29
100
AcDbVisualStyle
  2

 70
    13
177
     3
291
     1
 70
    58
 90
        2
176
     1
 90
        2
176
     1
 90
        0
176
     1
 90
        0
176
     1
 40
0.6
176
     1
 40
30.0
176
     1
 62
     7
176
     1
 90
        1
176
     1
 90
        4
176
     1
 62
     7
176
     1
 62
   257
176
     1
 90
        1
176
     1
 90
        1
176
     1
 40
1.0
176
     1
 90
       12
176
     1
 62
     7
176
     1
 40
1.0
176
     1
 90
        1
176
     1
 90
        6
176
     1
 90
        2
176
     1
 62
     7
176
     1
 90
        5
176
     1
 90
        0
176
     1
 90
        0
176
     1
290
     0
176
     1
 90
        1
176
     1
 40
0.0
176
     1
 90
        0
176
     1
290
     0
176
     1
290
     1
176
     1
290
     1
176
     1
290
     0
176
     1
290
     0
176
     1
290
     0
176
     1
290
     0
176
     1
290
     0
176
     1
290
     0
176
     1
 90
       50
176
     1
 40
0.0
176
     1
 40
1.0
176
     1
 90
        0
176
     1
 62
    18
420
        0
176
     1
 90
       50
176
     1
 90
        3
176
     1
 62
     5
420
      255
176
     1
290
     0
176
     1
 90
       50
176
     1
 90
       50
176
     1
 90
       50
176
     1
290
     0
176
     1
 90
       50
176
     1
 62
   256
176
     0
 40
1.0
176
     0
 90
        2
176
     1
  1
strokes_ogs.tif
176
     1
290
     0
176
     1
 40
1.0
176
     1
 40
1.0
176
     1
1001
ACAD
1000
AcDbSavedByObjectVersion
1070
     0
  0
VISUALSTYLE
  5
30
102
{ACAD_REACTORS
330
29
102
}
330
29
100
AcDbVisualStyle
  2

 70
     5
177
     3
291
     0
 70
    58
 90
        0
176
     1
 90
        2
176
     1
 90
        0
176
     1
 90
        0
176
     1
 40
0.6
176
     1
 40
30.0
176
     1
 62
     7
176
     1
 90
        1
176
     1
 90
        4
176
     1
 62
     7
176
     1
 62
   257
176
     1
 90
        1
176
     1
 90
        1
176
     1
 40
1.0
176
     1
 90
        0
176
     1
 62
   257
176
     1
 40
1.0
176
     1
 90
        1
176
     1
 90
        6
176
     1
 90
        2
176
     1
 62
     7
176
     1
 90
        3
176
     1
 90
        0
176
     1
 90
        0
176
     1
290
     0
176
     1
 90
        1
176
     1
 40
0.0
176
     1
 90
        0
176
     1
290
     0
176
     1
290
     1
176
     1
290
     1
176
     1
290
     0
176
     1
290
     0
176
     1
290
     0
176
     1
290
     0
176
     1
290
     0
176
     1
290
     0
176
     1
 90
       50
176
     1
 40
0.0
176
     1
 40
1.0
176
     1
 90
        0
176
     1
 62
    18
420
        0
176
     1
 90
       50
176
     1
 90
        3
176
     1
 62
     5
420
      255
176
     1
290
     0
176
     1
 90
       50
176
     1
 90
       50
176
     1
 90
       50
176
     1
290
     0
176
     1
 90
       50
176
     1
 62
   256
176
     0
 40
1.0
176
     0
 90
        2
176
     1
  1
strokes_ogs.tif
176
     1
290
     0
176
     1
 40
1.0
176
     1
 40
1.0
176
     1
1001
ACAD
1000
AcDbSavedByObjectVersion
1070
     0
  0
VISUALSTYLE
  5
3C
102
{ACAD_REACTORS
330
29
102
}
330
29
100
AcDbVisualStyle
  2

 70
    25
177
     3
291
     0
 70
    58
 90
        2
176
     1
 90
        2
176
     1
 90
        1
176
     1
 90
        1
176
     1
 40
0.5
176
     1
 40
30.0
176
     1
 62
     7
176
     1
 90
        1
176
     1
 90
        0
176
     1
 62
     7
176
     1
 62
   257
176
     1
 90
        1
176
     1
 90
        1
176
     1
 40
1.0
176
     1
 90
        8
176
     1
 62
     7
176
     1
 40
1.0
176
     1
 90
        1
176
     1
 90
        6
176
     1
 90
        2
176
     1
 62
     7
176
     1
 90
        3
176
     1
 90
        0
176
     1
 90
        0
176
     1
290
     0
176
     1
 90
       13
176
     1
 40
0.0
176
     1
 90
        0
176
     1
290
     0
176
     1
290
     1
176
     1
290
     1
176
     1
290
     0
176
     1
290
     0
176
     1
290
     0
176
     1
290
     0
176
     1
290
     0
176
     1
290
     0
176
     1
 90
       50
176
     1
 40
0.0
176
     1
 40
1.0
176
     1
 90
        0
176
     1
 62
    18
420
        0
176
     1
 90
       50
176
     1
 90
        3
176
     1
 62
     5
420
      255
176
     1
290
     0
176
     1
 90
       50
176
     1
 90
       50
176
     1
 90
       50
176
     1
290
     0
176
     1
 90
       50
176
     1
 62
   256
176
     0
 40
1.0
176
     0
 90
        2
176
     1
  1
strokes_ogs.tif
176
     1
290
     0
176
     1
 40
1.0
176
     1
 40
1.0
176
     1
1001
ACAD
1000
AcDbSavedByObjectVersion
1070
     0
  0
DICTIONARYVAR
  5
4A4
102
{ACAD_REACTORS
330
49F
102
}
330
49F
100
DictionaryVariables
280
     0
  1
1:1
  0
DICTIONARYVAR
  5
4A1
102
{ACAD_REACTORS
330
49F
102
}
330
49F
100
DictionaryVariables
280
     0
  1
STANDARD
  0
DICTIONARYVAR
  5
4A0
102
{ACAD_REACTORS
330
49F
102
}
330
49F
100
DictionaryVariables
280
     0
  1
STANDARD
  0
DICTIONARYVAR
  5
4A2
102
{ACAD_REACTORS
330
49F
102
}
330
49F
100
DictionaryVariables
280
     0
  1
Imperial24
  0
DICTIONARYVAR
  5
4A3
102
{ACAD_REACTORS
330
49F
102
}
330
49F
100
DictionaryVariables
280
     0
  1
Imperial24
  0
DICTIONARYVAR
  5
4A7
102
{ACAD_REACTORS
330
49F
102
}
330
49F
100
DictionaryVariables
280
     0
  1
1
  0
DICTIONARYVAR
  5
4A6
102
{ACAD_REACTORS
330
49F
102
}
330
49F
100
DictionaryVariables
280
     0
  1
0
  0
DICTIONARYVAR
  5
4FC
102
{ACAD_REACTORS
330
49F
102
}
330
49F
100
DictionaryVariables
280
     0
  1
1
  0
DICTIONARYVAR
  5
4FD
102
{ACAD_REACTORS
330
49F
102
}
330
49F
100
DictionaryVariables
280
     0
  1
15
  0
DICTIONARYVAR
  5
4FB
102
{ACAD_REACTORS
330
49F
102
}
330
49F
100
DictionaryVariables
280
     0
  1
0
  0
DICTIONARYVAR
  5
4FA
102
{ACAD_REACTORS
330
49F
102
}
330
49F
100
DictionaryVariables
280
     0
  1
0
  0
DICTIONARYVAR
  5
4A5
102
{ACAD_REACTORS
330
49F
102
}
330
49F
100
DictionaryVariables
280
     0
  1
127
  0
DICTIONARY
  5
1A
330
19
100
AcDbDictionary
280
     1
281
     1
  3
ACAD_XREC_ROUNDTRIP
360
4AF
  3
BUMPTILE
360
1C
  3
DIFFUSETILE
360
1B
  3
OPACITYTILE
360
1F
  3
REFLECTIONTILE
360
1E
  3
REFRACTIONTILE
360
20
  3
SPECULARTILE
360
1D
  0
DICTIONARY
  5
12
330
11
100
AcDbDictionary
280
     1
281
     1
  3
ACAD_XREC_ROUNDTRIP
360
4AE
  3
BUMPTILE
360
14
  3
DIFFUSETILE
360
13
  3
OPACITYTILE
360
17
  3
REFLECTIONTILE
360
16
  3
REFRACTIONTILE
360
18
  3
SPECULARTILE
360
15
  0
DICTIONARY
  5
22
330
21
100
AcDbDictionary
280
     1
281
     1
  3
ACAD_XREC_ROUNDTRIP
360
4B0
  3
BUMPTILE
360
24
  3
DIFFUSETILE
360
23
  3
OPACITYTILE
360
27
  3
REFLECTIONTILE
360
26
  3
REFRACTIONTILE
360
28
  3
SPECULARTILE
360
25
  0
DICTIONARY
  5
4AA
330
64
100
AcDbDictionary
280
     1
281
     1
  3
ACAD_ROUNDTRIP_2008_TABLESTYLE_CELLSTYLEMAP
360
4FE
  0
XRECORD
  5
4AF
102
{ACAD_REACTORS
330
1A
102
}
330
1A
100
AcDbXrecord
280
     1
102
MATERIAL
148
0.0
149
0.0
149
0.0
 93
        0
 94
      127
282
     0
 72
     0
 77
     0
171
     0
175
     0
179
     0
273
     0
  0
XRECORD
  5
1C
102
{ACAD_REACTORS
330
1A
102
}
330
1A
100
AcDbXrecord
280
     1
270
     1
271
     1
  0
XRECORD
  5
1B
102
{ACAD_REACTORS
330
1A
102
}
330
1A
100
AcDbXrecord
280
     1
270
     1
271
     1
  0
XRECORD
  5
1F
102
{ACAD_REACTORS
330
1A
102
}
330
1A
100
AcDbXrecord
280
     1
270
     1
271
     1
  0
XRECORD
  5
1E
102
{ACAD_REACTORS
330
1A
102
}
330
1A
100
AcDbXrecord
280
     1
270
     1
271
     1
  0
XRECORD
  5
20
102
{ACAD_REACTORS
330
1A
102
}
330
1A
100
AcDbXrecord
280
     1
270
     1
271
     1
  0
XRECORD
  5
1D
102
{ACAD_REACTORS
330
1A
102
}
330
1A
100
AcDbXrecord
280
     1
270
     1
271
     1
  0
XRECORD
  5
4AE
102
{ACAD_REACTORS
330
12
102
}
330
12
100
AcDbXrecord
280
     1
102
MATERIAL
148
0.0
149
0.0
149
0.0
 93
        0
 94
      127
282
     0
 72
     0
 77
     0
171
     0
175
     0
179
     0
273
     0
  0
XRECORD
  5
14
102
{ACAD_REACTORS
330
12
102
}
330
12
100
AcDbXrecord
280
     1
270
     1
271
     1
  0
XRECORD
  5
13
102
{ACAD_REACTORS
330
12
102
}
330
12
100
AcDbXrecord
280
     1
270
     1
271
     1
  0
XRECORD
  5
17
102
{ACAD_REACTORS
330
12
102
}
330
12
100
AcDbXrecord
280
     1
270
     1
271
     1
  0
XRECORD
  5
16
102
{ACAD_REACTORS
330
12
102
}
330
12
100
AcDbXrecord
280
     1
270
     1
271
     1
  0
XRECORD
  5
18
102
{ACAD_REACTORS
330
12
102
}
330
12
100
AcDbXrecord
280
     1
270
     1
271
     1
  0
XRECORD
  5
15
102
{ACAD_REACTORS
330
12
102
}
330
12
100
AcDbXrecord
280
     1
270
     1
271
     1
  0
XRECORD
  5
4B0
102
{ACAD_REACTORS
330
22
102
}
330
22
100
AcDbXrecord
280
     1
102
MATERIAL
148
0.0
149
0.0
149
0.0
 93
        0
 94
      127
282
     0
 72
     0
 77
     0
171
     0
175
     0
179
     0
273
     0
  0
XRECORD
  5
24
102
{ACAD_REACTORS
330
22
102
}
330
22
100
AcDbXrecord
280
     1
270
     1
271
     1
  0
XRECORD
  5
23
102
{ACAD_REACTORS
330
22
102
}
330
22
100
AcDbXrecord
280
     1
270
     1
271
     1
  0
XRECORD
  5
27
102
{ACAD_REACTORS
330
22
102
}
330
22
100
AcDbXrecord
280
     1
270
     1
271
     1
  0
XRECORD
  5
26
102
{ACAD_REACTORS
330
22
102
}
330
22
100
AcDbXrecord
280
     1
270
     1
271
     1
  0
XRECORD
  5
28
102
{ACAD_REACTORS
330
22
102
}
330
22
100
AcDbXrecord
280
     1
270
     1
271
     1
  0
XRECORD
  5
25
102
{ACAD_REACTORS
330
22
102
}
330
22
100
AcDbXrecord
280
     1
270
     1
271
     1
  0
CELLSTYLEMAP
  5
4FE
102
{ACAD_REACTORS
330
4AA
102
}
330
4AA
100
AcDbCellStyleMap
 90
        3
300
CELLSTYLE
  1
TABLEFORMAT_BEGIN
 90
        5
170
     1
 91
        0
 92
    32768
 62
   257
 93
        1
300
CONTENTFORMAT
  1
CONTENTFORMAT_BEGIN
 90
        0
 91
        0
 92
      512
 93
        0
300

 40
0.0
140
1.0
 94
        5
 62
     0
340
55
144
0.25
309
CONTENTFORMAT_END
171
     1
301
MARGIN
  1
CELLMARGIN_BEGIN
 40
0.06
 40
0.06
 40
0.06
 40
0.06
 40
0.18
 40
0.18
309
CELLMARGIN_END
 94
        6
 95
        1
302
GRIDFORMAT
  1
GRIDFORMAT_BEGIN
 90
        0
 91
        1
 62
     0
 92
       -2
340
0
 93
        0
 40
0.045
309
GRIDFORMAT_END
 95
        2
302
GRIDFORMAT
  1
GRIDFORMAT_BEGIN
 90
        0
 91
        1
 62
     0
 92
       -2
340
0
 93
        0
 40
0.045
309
GRIDFORMAT_END
 95
        4
302
GRIDFORMAT
  1
GRIDFORMAT_BEGIN
 90
        0
 91
        1
 62
     0
 92
       -2
340
0
 93
        0
 40
0.045
309
GRIDFORMAT_END
 95
        8
302
GRIDFORMAT
  1
GRIDFORMAT_BEGIN
 90
        0
 91
        1
 62
     0
 92
       -2
340
0
 93
        0
 40
0.045
309
GRIDFORMAT_END
 95
       16
302
GRIDFORMAT
  1
GRIDFORMAT_BEGIN
 90
        0
 91
        1
 62
     0
 92
       -2
340
0
 93
        0
 40
0.045
309
GRIDFORMAT_END
 95
       32
302
GRIDFORMAT
  1
GRIDFORMAT_BEGIN
 90
        0
 91
        1
 62
     0
 92
       -2
340
0
 93
        0
 40
0.045
309
GRIDFORMAT_END
309
TABLEFORMAT_END
  1
CELLSTYLE_BEGIN
 90
        1
 91
        1
300
_TITLE
309
CELLSTYLE_END
300
CELLSTYLE
  1
TABLEFORMAT_BEGIN
 90
        5
170
     1
 91
        0
 92
        0
 62
   257
 93
        1
300
CONTENTFORMAT
  1
CONTENTFORMAT_BEGIN
 90
        0
 91
        0
 92
      512
 93
        0
300

 40
0.0
140
1.0
 94
        5
 62
     0
340
55
144
0.18
309
CONTENTFORMAT_END
171
     1
301
MARGIN
  1
CELLMARGIN_BEGIN
 40
0.06
 40
0.06
 40
0.06
 40
0.06
 40
0.18
 40
0.18
309
CELLMARGIN_END
 94
        6
 95
        1
302
GRIDFORMAT
  1
GRIDFORMAT_BEGIN
 90
        0
 91
        1
 62
     0
 92
       -2
340
0
 93
        0
 40
0.045
309
GRIDFORMAT_END
 95
        2
302
GRIDFORMAT
  1
GRIDFORMAT_BEGIN
 90
        0
 91
        1
 62
     0
 92
       -2
340
0
 93
        0
 40
0.045
309
GRIDFORMAT_END
 95
        4
302
GRIDFORMAT
  1
GRIDFORMAT_BEGIN
 90
        0
 91
        1
 62
     0
 92
       -2
340
0
 93
        0
 40
0.045
309
GRIDFORMAT_END
 95
        8
302
GRIDFORMAT
  1
GRIDFORMAT_BEGIN
 90
        0
 91
        1
 62
     0
 92
       -2
340
0
 93
        0
 40
0.045
309
GRIDFORMAT_END
 95
       16
302
GRIDFORMAT
  1
GRIDFORMAT_BEGIN
 90
        0
 91
        1
 62
     0
 92
       -2
340
0
 93
        0
 40
0.045
309
GRIDFORMAT_END
 95
       32
302
GRIDFORMAT
  1
GRIDFORMAT_BEGIN
 90
        0
 91
        1
 62
     0
 92
       -2
340
0
 93
        0
 40
0.045
309
GRIDFORMAT_END
309
TABLEFORMAT_END
  1
CELLSTYLE_BEGIN
 90
        2
 91
        1
300
_HEADER
309
CELLSTYLE_END
300
CELLSTYLE
  1
TABLEFORMAT_BEGIN
 90
        5
170
     1
 91
        0
 92
        0
 62
   257
 93
        1
300
CONTENTFORMAT
  1
CONTENTFORMAT_BEGIN
 90
        0
 91
        0
 92
      512
 93
        0
300

 40
0.0
140
1.0
 94
        2
 62
     0
340
55
144
0.18
309
CONTENTFORMAT_END
171
     1
301
MARGIN
  1
CELLMARGIN_BEGIN
 40
0.06
 40
0.06
 40
0.06
 40
0.06
 40
0.18
 40
0.18
309
CELLMARGIN_END
 94
        6
 95
        1
302
GRIDFORMAT
  1
GRIDFORMAT_BEGIN
 90
        0
 91
        1
 62
     0
 92
       -2
340
0
 93
        0
 40
0.045
309
GRIDFORMAT_END
 95
        2
302
GRIDFORMAT
  1
GRIDFORMAT_BEGIN
 90
        0
 91
        1
 62
     0
 92
       -2
340
0
 93
        0
 40
0.045
309
GRIDFORMAT_END
 95
        4
302
GRIDFORMAT
  1
GRIDFORMAT_BEGIN
 90
        0
 91
        1
 62
     0
 92
       -2
340
0
 93
        0
 40
0.045
309
GRIDFORMAT_END
 95
        8
302
GRIDFORMAT
  1
GRIDFORMAT_BEGIN
 90
        0
 91
        1
 62
     0
 92
       -2
340
0
 93
        0
 40
0.045
309
GRIDFORMAT_END
 95
       16
302
GRIDFORMAT
  1
GRIDFORMAT_BEGIN
 90
        0
 91
        1
 62
     0
 92
       -2
340
0
 93
        0
 40
0.045
309
GRIDFORMAT_END
 95
       32
302
GRIDFORMAT
  1
GRIDFORMAT_BEGIN
 90
        0
 91
        1
 62
     0
 92
       -2
340
0
 93
        0
 40
0.045
309
GRIDFORMAT_END
309
TABLEFORMAT_END
  1
CELLSTYLE_BEGIN
 90
        3
 91
        2
300
_DATA
309
CELLSTYLE_END
  0
ENDSEC
  0
EOF
