  0
SECTION
  2
HEADER
  9
$ACADVER
  1
AC1032
  9
$ACADMAINTVER
 90
      197
  9
$DWGCODEPAGE
  3
ANSI_932
  9
$LASTSAVEDBY
  1
hiro-ichiyama
  9
$REQUIREDVERSIONS
160
                 0
  9
$INSBASE
 10
0.0
 20
0.0
 30
0.0
  9
$EXTMIN
 10
33.21587836270101
 20
27.50035294226882
 30
-0.0015258207003583
  9
$EXTMAX
 10
793.6208959430996
 20
574.6841904908465
 30
0.0000000349246037
  9
$LIMMIN
 10
0.0
 20
0.0
  9
$LIMMAX
 10
594.0
 20
841.0
  9
$ORTHOMODE
 70
     0
  9
$REGENMODE
 70
     1
  9
$FILLMODE
 70
     1
  9
$QTEXTMODE
 70
     0
  9
$MIRRTEXT
 70
     0
  9
$LTSCALE
 40
20.0
  9
$ATTMODE
 70
     1
  9
$TEXTSIZE
 40
4.0
  9
$TRACEWID
 40
0.05
  9
$TEXTSTYLE
  7
STANDARD
  9
$CLAYER
  8
0
  9
$CELTYPE
  6
CONTINUOUS
  9
$CECOLOR
 62
   256
  9
$CELTSCALE
 40
1.0
  9
$DISPSILH
 70
     0
  9
$DIMSCALE
 40
1.0
  9
$DIMASZ
 40
1.0
  9
$DIMEXO
 40
0.8
  9
$DIMDLI
 40
0.38
  9
$DIMRND
 40
0.0
  9
$DIMDLE
 40
0.0
  9
$DIMEXE
 40
1.0
  9
$DIMTP
 40
0.0
  9
$DIMTM
 40
0.0
  9
$DIMTXT
 40
3.1
  9
$DIMCEN
 40
0.09
  9
$DIMTSZ
 40
0.0
  9
$DIMTOL
 70
     0
  9
$DIMLIM
 70
     0
  9
$DIMTIH
 70
     0
  9
$DIMTOH
 70
     0
  9
$DIMSE1
 70
     0
  9
$DIMSE2
 70
     0
  9
$DIMTAD
 70
     1
  9
$DIMZIN
 70
     0
  9
$DIMBLK
  1

  9
$DIMASO
 70
     1
  9
$DIMSHO
 70
     1
  9
$DIMPOST
  1

  9
$DIMAPOST
  1

  9
$DIMALT
 70
     0
  9
$DIMALTD
 70
     2
  9
$DIMALTF
 40
25.4
  9
$DIMLFAC
 40
1.0
  9
$DIMTOFL
 70
     0
  9
$DIMTVP
 40
0.5
  9
$DIMTIX
 70
     0
  9
$DIMSOXD
 70
     0
  9
$DIMSAH
 70
     0
  9
$DIMBLK1
  1

  9
$DIMBLK2
  1

  9
$DIMSTYLE
  2
Standard
  9
$DIMCLRD
 70
     0
  9
$DIMCLRE
 70
     0
  9
$DIMCLRT
 70
     0
  9
$DIMTFAC
 40
1.0
  9
$DIMGAP
 40
0.09
  9
$DIMJUST
 70
     0
  9
$DIMSD1
 70
     0
  9
$DIMSD2
 70
     0
  9
$DIMTOLJ
 70
     1
  9
$DIMTZIN
 70
     0
  9
$DIMALTZ
 70
     0
  9
$DIMALTTZ
 70
     0
  9
$DIMUPT
 70
     0
  9
$DIMDEC
 70
     4
  9
$DIMTDEC
 70
     4
  9
$DIMALTU
 70
     2
  9
$DIMALTTD
 70
     2
  9
$DIMTXSTY
  7
STANDARD
  9
$DIMAUNIT
 70
     0
  9
$DIMADEC
 70
     0
  9
$DIMALTRND
 40
0.0
  9
$DIMAZIN
 70
     0
  9
$DIMDSEP
 70
    46
  9
$DIMATFIT
 70
     3
  9
$DIMFRAC
 70
     0
  9
$DIMLDRBLK
  1

  9
$DIMLUNIT
 70
     2
  9
$DIMLWD
 70
    -2
  9
$DIMLWE
 70
    -2
  9
$DIMTMOVE
 70
     0
  9
$DIMFXL
 40
1.0
  9
$DIMFXLON
 70
     0
  9
$DIMJOGANG
 40
0.7853981633974483
  9
$DIMTFILL
 70
     0
  9
$DIMTFILLCLR
 70
     0
  9
$DIMARCSYM
 70
     0
  9
$DIMLTYPE
  6

  9
$DIMLTEX1
  6

  9
$DIMLTEX2
  6

  9
$DIMTXTDIRECTION
 70
     0
  9
$LUNITS
 70
     2
  9
$LUPREC
 70
     4
  9
$SKETCHINC
 40
0.1
  9
$FILLETRAD
 40
0.0
  9
$AUNITS
 70
     0
  9
$AUPREC
 70
     0
  9
$MENU
  1
.
  9
$ELEVATION
 40
0.0
  9
$PELEVATION
 40
0.0
  9
$THICKNESS
 40
0.0
  9
$LIMCHECK
 70
     0
  9
$CHAMFERA
 40
0.0
  9
$CHAMFERB
 40
0.0
  9
$CHAMFERC
 40
0.0
  9
$CHAMFERD
 40
0.0
  9
$SKPOLY
 70
     0
  9
$TDCREATE
 40
2459010.396990741
  9
$TDUCREATE
 40
2459010.021990741
  9
$TDUPDATE
 40
2459991.685868056
  9
$TDUUPDATE
 40
2459991.310868056
  9
$TDINDWG
 40
0.0204629630
  9
$TDUSRTIMER
 40
0.0204629630
  9
$USRTIMER
 70
     1
  9
$ANGBASE
 50
0.0
  9
$ANGDIR
 70
     0
  9
$PDMODE
 70
     0
  9
$PDSIZE
 40
0.0
  9
$PLINEWID
 40
0.0
  9
$SPLFRAME
 70
     0
  9
$SPLINETYPE
 70
     6
  9
$SPLINESEGS
 70
     8
  9
$HANDSEED
  5
779
  9
$SURFTAB1
 70
     6
  9
$SURFTAB2
 70
     6
  9
$SURFTYPE
 70
     6
  9
$SURFU
 70
     6
  9
$SURFV
 70
     6
  9
$UCSBASE
  2

  9
$UCSNAME
  2

  9
$UCSORG
 10
0.0
 20
0.0
 30
0.0
  9
$UCSXDIR
 10
1.0
 20
0.0
 30
0.0
  9
$UCSYDIR
 10
0.0
 20
1.0
 30
0.0
  9
$UCSORTHOREF
  2

  9
$UCSORTHOVIEW
 70
     0
  9
$UCSORGTOP
 10
0.0
 20
0.0
 30
0.0
  9
$UCSORGBOTTOM
 10
0.0
 20
0.0
 30
0.0
  9
$UCSORGLEFT
 10
0.0
 20
0.0
 30
0.0
  9
$UCSORGRIGHT
 10
0.0
 20
0.0
 30
0.0
  9
$UCSORGFRONT
 10
0.0
 20
0.0
 30
0.0
  9
$UCSORGBACK
 10
0.0
 20
0.0
 30
0.0
  9
$PUCSBASE
  2

  9
$PUCSNAME
  2

  9
$PUCSORG
 10
0.0
 20
0.0
 30
0.0
  9
$PUCSXDIR
 10
1.0
 20
0.0
 30
0.0
  9
$PUCSYDIR
 10
0.0
 20
1.0
 30
0.0
  9
$PUCSORTHOREF
  2

  9
$PUCSORTHOVIEW
 70
     0
  9
$PUCSORGTOP
 10
0.0
 20
0.0
 30
0.0
  9
$PUCSORGBOTTOM
 10
0.0
 20
0.0
 30
0.0
  9
$PUCSORGLEFT
 10
0.0
 20
0.0
 30
0.0
  9
$PUCSORGRIGHT
 10
0.0
 20
0.0
 30
0.0
  9
$PUCSORGFRONT
 10
0.0
 20
0.0
 30
0.0
  9
$PUCSORGBACK
 10
0.0
 20
0.0
 30
0.0
  9
$USERI1
 70
     0
  9
$USERI2
 70
     0
  9
$USERI3
 70
     0
  9
$USERI4
 70
     0
  9
$USERI5
 70
     0
  9
$USERR1
 40
0.0
  9
$USERR2
 40
0.0
  9
$USERR3
 40
0.0
  9
$USERR4
 40
0.0
  9
$USERR5
 40
0.0
  9
$WORLDVIEW
 70
     1
  9
$SHADEDGE
 70
     3
  9
$SHADEDIF
 70
    70
  9
$TILEMODE
 70
     1
  9
$MAXACTVP
 70
    64
  9
$PINSBASE
 10
0.0
 20
0.0
 30
0.0
  9
$PLIMCHECK
 70
     0
  9
$PEXTMIN
 10
1.000000000000000E+20
 20
1.000000000000000E+20
 30
1.000000000000000E+20
  9
$PEXTMAX
 10
-1.000000000000000E+20
 20
-1.000000000000000E+20
 30
-1.000000000000000E+20
  9
$PLIMMIN
 10
0.0
 20
0.0
  9
$PLIMMAX
 10
12.0
 20
9.0
  9
$UNITMODE
 70
     0
  9
$VISRETAIN
 70
     1
  9
$PLINEGEN
 70
     0
  9
$PSLTSCALE
 70
     1
  9
$TREEDEPTH
 70
  3020
  9
$CMLSTYLE
  2
Standard
  9
$CMLJUST
 70
     0
  9
$CMLSCALE
 40
1.0
  9
$PROXYGRAPHICS
 70
     1
  9
$MEASUREMENT
 70
     1
  9
$CELWEIGHT
370
    -1
  9
$ENDCAPS
280
     0
  9
$JOINSTYLE
280
     0
  9
$LWDISPLAY
290
     0
  9
$INSUNITS
 70
     0
  9
$HYPERLINKBASE
  1

  9
$STYLESHEET
  1

  9
$XEDIT
290
     1
  9
$CEPSNTYPE
380
     0
  9
$PSTYLEMODE
290
     1
  9
$FINGERPRINTGUID
  2
{A251E237-30EA-204A-B08F-05AB79D517F1}
  9
$VERSIONGUID
  2
{A63B18A1-6B9E-4F49-AD15-146D2F6E6528}
  9
$EXTNAMES
290
     1
  9
$PSVPSCALE
 40
0.0
  9
$OLESTARTUP
290
     0
  9
$SORTENTS
280
   127
  9
$INDEXCTL
280
     0
  9
$HIDETEXT
280
     0
  9
$XCLIPFRAME
280
     2
  9
$HALOGAP
280
     0
  9
$OBSCOLOR
 70
   257
  9
$OBSLTYPE
280
     0
  9
$INTERSECTIONDISPLAY
280
     0
  9
$INTERSECTIONCOLOR
 70
   257
  9
$DIMASSOC
280
     1
  9
$PROJECTNAME
  1

  9
$CAMERADISPLAY
290
     0
  9
$LENSLENGTH
 40
50.0
  9
$CAMERAHEIGHT
 40
0.0
  9
$STEPSPERSEC
 40
2.0
  9
$STEPSIZE
 40
6.0
  9
$3DDWFPREC
 40
2.0
  9
$PSOLWIDTH
 40
0.25
  9
$PSOLHEIGHT
 40
4.0
  9
$LOFTANG1
 40
1.570796326794896
  9
$LOFTANG2
 40
1.570796326794896
  9
$LOFTMAG1
 40
0.0
  9
$LOFTMAG2
 40
0.0
  9
$LOFTPARAM
 70
     7
  9
$LOFTNORMALS
280
     1
  9
$LATITUDE
 40
37.795
  9
$LONGITUDE
 40
-122.394
  9
$NORTHDIRECTION
 40
0.0
  9
$TIMEZONE
 70
 -8000
  9
$LIGHTGLYPHDISPLAY
280
     1
  9
$TILEMODELIGHTSYNCH
280
     1
  9
$CMATERIAL
347
11
  9
$SOLIDHIST
280
     0
  9
$SHOWHIST
280
     1
  9
$DWFFRAME
280
     2
  9
$DGNFRAME
280
     0
  9
$REALWORLDSCALE
290
     1
  9
$INTERFERECOLOR
 62
     1
  9
$INTERFEREOBJVS
345
33
  9
$INTERFEREVPVS
346
30
  9
$CSHADOW
280
     0
  9
$SHADOWPLANELOCATION
 40
0.0
  0
ENDSEC
  0
SECTION
  2
CLASSES
  0
CLASS
  1
ACDBDICTIONARYWDFLT
  2
AcDbDictionaryWithDefault
  3
ObjectDBX Classes
 90
        0
 91
        1
280
     0
281
     0
  0
CLASS
  1
MATERIAL
  2
AcDbMaterial
  3
ObjectDBX Classes
 90
     1153
 91
        3
280
     0
281
     0
  0
CLASS
  1
VISUALSTYLE
  2
AcDbVisualStyle
  3
ObjectDBX Classes
 90
     4095
 91
       24
280
     0
281
     0
  0
CLASS
  1
SCALE
  2
AcDbScale
  3
ObjectDBX Classes
 90
     1153
 91
       17
280
     0
281
     0
  0
CLASS
  1
TABLESTYLE
  2
AcDbTableStyle
  3
ObjectDBX Classes
 90
     4095
 91
        1
280
     0
281
     0
  0
CLASS
  1
MLEADERSTYLE
  2
AcDbMLeaderStyle
  3
ACDB_MLEADERSTYLE_CLASS
 90
     4095
 91
        1
280
     0
281
     0
  0
CLASS
  1
ACDBSECTIONVIEWSTYLE
  2
AcDbSectionViewStyle
  3
ObjectDBX Classes
 90
     1025
 91
        2
280
     0
281
     0
  0
CLASS
  1
ACDBDETAILVIEWSTYLE
  2
AcDbDetailViewStyle
  3
ObjectDBX Classes
 90
     1025
 91
        2
280
     0
281
     0
  0
CLASS
  1
DICTIONARYVAR
  2
AcDbDictionaryVar
  3
ObjectDBX Classes
 90
        0
 91
       17
280
     0
281
     0
  0
CLASS
  1
CELLSTYLEMAP
  2
AcDbCellStyleMap
  3
ObjectDBX Classes
 90
     1152
 91
        2
280
     0
281
     0
  0
CLASS
  1
ACAD_EVALUATION_GRAPH
  2
AcDbEvalGraph
  3
ObjectDBX Classes
 90
     1153
 91
       10
280
     0
281
     0
  0
CLASS
  1
ACAECUSTOBJ
  2
AcAeEditorObj
  3
AcAeEditorObj
 90
     1024
 91
        5
280
     0
281
     0
  0
CLASS
  1
ACDB_DYNAMICBLOCKPURGEPREVENTER_VERSION
  2
AcDbDynamicBlockPurgePreventer
  3
ObjectDBX Classes
 90
     1153
 91
        5
280
     0
281
     0
  0
ENDSEC
  0
SECTION
  2
TABLES
  0
TABLE
  2
VPORT
  5
8
330
0
100
AcDbSymbolTable
 70
     1
  0
VPORT
  5
82
330
8
100
AcDbSymbolTableRecord
100
AcDbViewportTableRecord
  2
*Active
 70
     0
 10
0.0
 20
0.0
 11
1.0
 21
1.0
 12
413.4183871529002
 22
301.0922717165577
 13
0.0
 23
0.0
 14
1.0
 24
1.0
 15
0.0
 25
0.0
 16
0.0
 26
0.0
 36
1.0
 17
0.0
 27
0.0
 37
0.0
 40
551.1585385477198
 41
2.295757575757575
 42
50.0
 43
0.0
 44
0.0
 50
0.0
 51
0.0
 71
     0
 72
   100
 73
     1
 74
     0
 75
     1
 76
     0
 77
     0
 78
     0
281
     0
 65
     1
110
0.0
120
0.0
130
0.0
111
1.0
121
0.0
131
0.0
112
0.0
122
1.0
132
0.0
 79
     0
146
0.0
348
2F
 60
     3
 61
     5
292
     1
282
     1
141
0.0
142
0.0
 63
   250
421
  3355443
1001
ACAD_NAV_VCDISPLAY
1070
     3
  0
ENDTAB
  0
TABLE
  2
LTYPE
  5
5
330
0
100
AcDbSymbolTable
 70
     4
  0
LTYPE
  5
5A
330
5
100
AcDbSymbolTableRecord
100
AcDbLinetypeTableRecord
  2
ByBlock
 70
     0
  3

 72
    65
 73
     0
 40
0.0
  0
LTYPE
  5
5B
330
5
100
AcDbSymbolTableRecord
100
AcDbLinetypeTableRecord
  2
ByLayer
 70
     0
  3

 72
    65
 73
     0
 40
0.0
  0
LTYPE
  5
5C
330
5
100
AcDbSymbolTableRecord
100
AcDbLinetypeTableRecord
  2
CONTINUOUS
 70
     0
  3
Solid line (NEC CAE2D for Win R13.1 : 2016.06.20)
 72
    65
 73
     0
 40
0.0
  0
LTYPE
  5
73
330
5
100
AcDbSymbolTableRecord
100
AcDbLinetypeTableRecord
  2
HIDDEN
 70
     0
  3
__ __ __ __ __ __ __ __ __ __ __ __ __ __
 72
    65
 73
     2
 40
0.375
 49
0.25
 74
     0
 49
-0.125
 74
     0
  0
LTYPE
  5
74
330
5
100
AcDbSymbolTableRecord
100
AcDbLinetypeTableRecord
  2
CENTER
 70
     0
  3
____ _ ____ _ ____ _ ____ _ ____ _ ____
 72
    65
 73
     4
 40
2.0
 49
1.25
 74
     0
 49
-0.25
 74
     0
 49
0.25
 74
     0
 49
-0.25
 74
     0
  0
ENDTAB
  0
TABLE
  2
LAYER
  5
2
330
0
100
AcDbSymbolTable
 70
     8
  0
LAYER
  5
54
102
{ACAD_XDICTIONARY
360
685
102
}
330
2
100
AcDbSymbolTableRecord
100
AcDbLayerTableRecord
  2
0
 70
     0
 62
     7
  6
CONTINUOUS
370
    -3
390
F
347
21
348
0
  0
LAYER
  5
75
102
{ACAD_XDICTIONARY
360
687
102
}
330
2
100
AcDbSymbolTableRecord
100
AcDbLayerTableRecord
  2
LOUVER
 70
     0
 62
     4
  6
CONTINUOUS
370
    -3
390
F
347
21
348
0
  0
LAYER
  5
76
102
{ACAD_XDICTIONARY
360
689
102
}
330
2
100
AcDbSymbolTableRecord
100
AcDbLayerTableRecord
  2
UKEZAI
 70
     0
 62
     5
  6
CONTINUOUS
370
    -3
390
F
347
21
348
0
  0
LAYER
  5
77
102
{ACAD_XDICTIONARY
360
68B
102
}
330
2
100
AcDbSymbolTableRecord
100
AcDbLayerTableRecord
  2
ANCHOR
 70
     0
 62
     2
  6
CONTINUOUS
370
    -3
390
F
347
21
348
0
  0
LAYER
  5
78
102
{ACAD_XDICTIONARY
360
68D
102
}
330
2
100
AcDbSymbolTableRecord
100
AcDbLayerTableRecord
  2
KUTAI
 70
     0
 62
     6
  6
CONTINUOUS
370
    -3
390
F
347
21
348
0
  0
LAYER
  5
79
102
{ACAD_XDICTIONARY
360
68F
102
}
330
2
100
AcDbSymbolTableRecord
100
AcDbLayerTableRecord
  2
WASHER
 70
     0
 62
     2
  6
CONTINUOUS
370
    -3
390
F
347
21
348
0
  0
LAYER
  5
7A
102
{ACAD_XDICTIONARY
360
691
102
}
330
2
100
AcDbSymbolTableRecord
100
AcDbLayerTableRecord
  2
COMMENT
 70
     0
 62
     3
  6
CONTINUOUS
370
    -3
390
F
347
21
348
0
  0
LAYER
  5
7B
102
{ACAD_XDICTIONARY
360
693
102
}
330
2
100
AcDbSymbolTableRecord
100
AcDbLayerTableRecord
  2
WAKU
 70
     0
 62
     1
  6
CONTINUOUS
370
    -3
390
F
347
21
348
0
  0
ENDTAB
  0
TABLE
  2
STYLE
  5
3
330
0
100
AcDbSymbolTable
 70
     5
  0
STYLE
  5
55
330
3
100
AcDbSymbolTableRecord
100
AcDbTextStyleTableRecord
  2
STANDARD
 70
     0
 40
0.0
 41
1.0
 50
0.0
 71
     0
 42
4.0
  3
TXT
  4

  0
STYLE
  5
59
330
3
100
AcDbSymbolTableRecord
100
AcDbTextStyleTableRecord
  2
Annotative
 70
     0
 40
0.0
 41
1.0
 50
0.0
 71
     0
 42
0.2
  3
txt
  4

1001
AcadAnnotative
1000
AnnotativeData
1002
{
1070
     1
1070
     1
1002
}
  0
STYLE
  5
7D
330
3
100
AcDbSymbolTableRecord
100
AcDbTextStyleTableRecord
  2
ANKTATE
 70
     4
 40
0.0
 41
1.0
 50
0.0
 71
     0
 42
4.0
  3
TXT
  4

  0
STYLE
  5
7E
330
3
100
AcDbSymbolTableRecord
100
AcDbTextStyleTableRecord
  2
KNJYOKO
 70
     0
 40
0.0
 41
1.0
 50
0.0
 71
     0
 42
4.0
  3
TXT
  4
BIGFONT
  0
STYLE
  5
7F
330
3
100
AcDbSymbolTableRecord
100
AcDbTextStyleTableRecord
  2
KNJTATE
 70
     4
 40
0.0
 41
1.0
 50
0.0
 71
     0
 42
4.0
  3
TXT
  4
BIGFONT
  0
ENDTAB
  0
TABLE
  2
VIEW
  5
6
330
0
100
AcDbSymbolTable
 70
     0
  0
ENDTAB
  0
TABLE
  2
UCS
  5
7
330
0
100
AcDbSymbolTable
 70
     0
  0
ENDTAB
  0
TABLE
  2
APPID
  5
9
330
0
100
AcDbSymbolTable
 70
     8
  0
APPID
  5
56
330
9
100
AcDbSymbolTableRecord
100
AcDbRegAppTableRecord
  2
ACAD
 70
     0
  0
APPID
  5
5D
330
9
100
AcDbSymbolTableRecord
100
AcDbRegAppTableRecord
  2
AcadAnnotative
 70
     0
  0
APPID
  5
683
330
9
100
AcDbSymbolTableRecord
100
AcDbRegAppTableRecord
  2
ACAD_EXEMPT_FROM_CAD_STANDARDS
 70
     0
  0
APPID
  5
69F
330
9
100
AcDbSymbolTableRecord
100
AcDbRegAppTableRecord
  2
ACAD_NAV_VCDISPLAY
 70
     0
  0
APPID
  5
6D8
330
9
100
AcDbSymbolTableRecord
100
AcDbRegAppTableRecord
  2
ACAD_MLEADERVER
 70
     0
  0
APPID
  5
6F4
330
9
100
AcDbSymbolTableRecord
100
AcDbRegAppTableRecord
  2
ACAUTHENVIRON
 70
     0
  0
APPID
  5
6F9
330
9
100
AcDbSymbolTableRecord
100
AcDbRegAppTableRecord
  2
AcDbDynamicBlockTrueName
 70
     0
  0
APPID
  5
6FA
330
9
100
AcDbSymbolTableRecord
100
AcDbRegAppTableRecord
  2
AcDbDynamicBlockGUID
 70
     0
  0
ENDTAB
  0
TABLE
  2
DIMSTYLE
  5
A
330
0
100
AcDbSymbolTable
 70
     2
100
AcDbDimStyleTable
 71
     0
  0
DIMSTYLE
105
57
330
A
100
AcDbSymbolTableRecord
100
AcDbDimStyleTableRecord
  2
Standard
 70
     0
340
55
  0
DIMSTYLE
105
58
330
A
100
AcDbSymbolTableRecord
100
AcDbDimStyleTableRecord
  2
Annotative
 70
     0
340
55
1001
AcadAnnotative
1000
AnnotativeData
1002
{
1070
     1
1070
     1
1002
}
  0
ENDTAB
  0
TABLE
  2
BLOCK_RECORD
  5
1
330
0
100
AcDbSymbolTable
 70
    32
  0
BLOCK_RECORD
  5
6F
330
1
100
AcDbSymbolTableRecord
100
AcDbBlockTableRecord
  2
*Model_Space
340
72
 70
     0
280
     1
281
     0
  0
BLOCK_RECORD
  5
6B
330
1
100
AcDbSymbolTableRecord
100
AcDbBlockTableRecord
  2
*Paper_Space
340
6E
 70
     0
280
     1
281
     0
  0
BLOCK_RECORD
  5
83
330
1
100
AcDbSymbolTableRecord
100
AcDbBlockTableRecord
  2
M0
340
0
102
{BLKREFS
331
151
102
}
 70
     0
280
     1
281
     0
  0
BLOCK_RECORD
  5
8C
330
1
100
AcDbSymbolTableRecord
100
AcDbBlockTableRecord
  2
M1
340
0
102
{BLKREFS
331
160
102
}
 70
     0
280
     1
281
     0
  0
BLOCK_RECORD
  5
95
330
1
100
AcDbSymbolTableRecord
100
AcDbBlockTableRecord
  2
M2
340
0
102
{BLKREFS
331
161
102
}
 70
     0
280
     1
281
     0
  0
BLOCK_RECORD
  5
9E
330
1
100
AcDbSymbolTableRecord
100
AcDbBlockTableRecord
  2
M3
340
0
102
{BLKREFS
331
162
102
}
 70
     0
280
     1
281
     0
  0
BLOCK_RECORD
  5
A6
330
1
100
AcDbSymbolTableRecord
100
AcDbBlockTableRecord
  2
M4
340
0
102
{BLKREFS
331
183
102
}
 70
     0
280
     1
281
     0
  0
BLOCK_RECORD
  5
AF
330
1
100
AcDbSymbolTableRecord
100
AcDbBlockTableRecord
  2
M5
340
0
102
{BLKREFS
331
184
102
}
 70
     0
280
     1
281
     0
  0
BLOCK_RECORD
  5
B8
102
{ACAD_XDICTIONARY
360
72C
102
}
330
1
100
AcDbSymbolTableRecord
100
AcDbBlockTableRecord
  2
M6
340
0
102
{BLKREFS
331
185
102
}
 70
     0
280
     1
281
     0
1001
AcDbDynamicBlockGUID
1000
{79CAD092-BC68-1649-8A07-B0A4DDAAD483}
  0
BLOCK_RECORD
  5
C2
330
1
100
AcDbSymbolTableRecord
100
AcDbBlockTableRecord
  2
M7
340
0
102
{BLKREFS
331
186
102
}
 70
     0
280
     1
281
     0
  0
BLOCK_RECORD
  5
CA
102
{ACAD_XDICTIONARY
360
75F
102
}
330
1
100
AcDbSymbolTableRecord
100
AcDbBlockTableRecord
  2
M8
340
0
102
{BLKREFS
331
1A8
102
}
 70
     0
280
     1
281
     0
1001
AcDbDynamicBlockGUID
1000
{CB4528FF-B19C-2849-BA0F-7A356FC4F033}
  0
BLOCK_RECORD
  5
D3
330
1
100
AcDbSymbolTableRecord
100
AcDbBlockTableRecord
  2
M9
340
0
102
{BLKREFS
331
1A9
102
}
 70
     0
280
     1
281
     0
  0
BLOCK_RECORD
  5
DC
330
1
100
AcDbSymbolTableRecord
100
AcDbBlockTableRecord
  2
M10
340
0
102
{BLKREFS
331
1AA
102
}
 70
     0
280
     1
281
     0
  0
BLOCK_RECORD
  5
E4
330
1
100
AcDbSymbolTableRecord
100
AcDbBlockTableRecord
  2
M11
340
0
102
{BLKREFS
331
1D2
102
}
 70
     0
280
     1
281
     0
  0
BLOCK_RECORD
  5
EC
330
1
100
AcDbSymbolTableRecord
100
AcDbBlockTableRecord
  2
*X12
340
0
102
{BLKREFS
331
1D4
102
}
 70
     0
280
     1
281
     0
  0
BLOCK_RECORD
  5
FD
102
{ACAD_XDICTIONARY
360
712
102
}
330
1
100
AcDbSymbolTableRecord
100
AcDbBlockTableRecord
  2
M12
340
0
102
{BLKREFS
331
1F0
102
}
 70
     0
280
     1
281
     0
1001
AcDbDynamicBlockGUID
1000
{39D76AA7-3DED-5640-84D9-D4C671A24D7E}
  0
BLOCK_RECORD
  5
107
102
{ACAD_XDICTIONARY
360
746
102
}
330
1
100
AcDbSymbolTableRecord
100
AcDbBlockTableRecord
  2
M13
340
0
102
{BLKREFS
331
1F1
102
}
 70
     0
280
     1
281
     0
1001
AcDbDynamicBlockGUID
1000
{2ABF76F7-C473-3945-9252-D6CFB49F9C1E}
  0
BLOCK_RECORD
  5
111
102
{ACAD_XDICTIONARY
360
6F5
102
}
330
1
100
AcDbSymbolTableRecord
100
AcDbBlockTableRecord
  2
M14
340
0
102
{BLKREFS
331
1F2
102
}
 70
     0
280
     1
281
     0
1001
AcDbDynamicBlockGUID
1000
{636DABCE-EE7B-7A40-9C9A-18CFBB0FECB8}
  0
BLOCK_RECORD
  5
11B
330
1
100
AcDbSymbolTableRecord
100
AcDbBlockTableRecord
  2
M15
340
0
102
{BLKREFS
331
466
102
}
 70
     0
280
     1
281
     0
  0
BLOCK_RECORD
  5
124
330
1
100
AcDbSymbolTableRecord
100
AcDbBlockTableRecord
  2
M16
340
0
102
{BLKREFS
331
467
102
}
 70
     0
280
     1
281
     0
  0
BLOCK_RECORD
  5
12D
330
1
100
AcDbSymbolTableRecord
100
AcDbBlockTableRecord
  2
M17
340
0
102
{BLKREFS
331
468
102
}
 70
     0
280
     1
281
     0
  0
BLOCK_RECORD
  5
136
330
1
100
AcDbSymbolTableRecord
100
AcDbBlockTableRecord
  2
M18
340
0
102
{BLKREFS
331
4D6
102
}
 70
     0
280
     1
281
     0
  0
BLOCK_RECORD
  5
13F
330
1
100
AcDbSymbolTableRecord
100
AcDbBlockTableRecord
  2
M19
340
0
102
{BLKREFS
331
4D7
102
}
 70
     0
280
     1
281
     0
  0
BLOCK_RECORD
  5
147
330
1
100
AcDbSymbolTableRecord
100
AcDbBlockTableRecord
  2
M20
340
0
102
{BLKREFS
331
4D8
102
}
 70
     0
280
     1
281
     0
  0
ENDTAB
  0
ENDSEC
  0
SECTION
  2
BLOCKS
  0
BLOCK
  5
70
330
6F
100
AcDbEntity
  8
0
100
AcDbBlockBegin
  2
*Model_Space
 70
     0
 10
0.0
 20
0.0
 30
0.0
  3
*Model_Space
  1

  0
ENDBLK
  5
71
330
6F
100
AcDbEntity
  8
0
100
AcDbBlockEnd
  0
BLOCK
  5
6C
330
6B
100
AcDbEntity
 67
     1
  8
0
100
AcDbBlockBegin
  2
*Paper_Space
 70
     0
 10
0.0
 20
0.0
 30
0.0
  3
*Paper_Space
  1

  0
ENDBLK
  5
6D
330
6B
100
AcDbEntity
 67
     1
  8
0
100
AcDbBlockEnd
  0
BLOCK
  5
84
330
83
100
AcDbEntity
  8
COMMENT
  6
ByBlock
 62
     5
100
AcDbBlockBegin
  2
M0
 70
     0
 10
0.0
 20
0.0
 30
0.0
  3
M0
  1

  0
LINE
  5
85
330
83
100
AcDbEntity
  8
COMMENT
  6
ByBlock
 62
     0
100
AcDbLine
 10
0.0
 20
0.0
 30
0.0
 11
35.86049870042465
 21
26.23054414033999
 31
0.0
  0
LINE
  5
86
330
83
100
AcDbEntity
  8
COMMENT
  6
ByBlock
 62
     0
100
AcDbLine
 10
1.260022168911052
 20
1.66503578413886
 30
0.0
 11
0.0
 21
0.0
 31
0.0
  0
LINE
  5
87
330
83
100
AcDbEntity
  8
COMMENT
  6
ByBlock
 62
     0
100
AcDbLine
 10
0.0
 20
0.0
 30
0.0
 11
1.968478587887966
 21
0.6964855186124282
 31
0.0
  0
LINE
  5
88
330
83
100
AcDbEntity
  8
COMMENT
  6
ByBlock
 62
     0
100
AcDbLine
 10
35.86049870042464
 20
26.23054414033999
 30
0.0
 11
89.15049734143876
 21
26.23054414033999
 31
0.0
  0
TEXT
  5
89
330
83
100
AcDbEntity
  8
COMMENT
  6
ByBlock
 62
     0
100
AcDbText
 10
38.35049870042464
 20
26.73054414033999
 30
0.0
 40
4.0
  1
アンカープラグ%%c8×40
  7
KNJYOKO
100
AcDbText
  0
TEXT
  5
8A
330
83
100
AcDbEntity
  8
COMMENT
  6
ByBlock
 62
     0
100
AcDbText
 10
38.35049870042464
 20
21.73054414033999
 30
0.0
 40
4.0
  1
AP-840-D30-50
100
AcDbText
  0
ENDBLK
  5
8B
330
83
100
AcDbEntity
  8
COMMENT
  6
ByBlock
 62
     5
100
AcDbBlockEnd
  0
BLOCK
  5
8D
330
8C
100
AcDbEntity
  8
COMMENT
  6
ByBlock
 62
     5
100
AcDbBlockBegin
  2
M1
 70
     0
 10
0.0
 20
0.0
 30
0.0
  3
M1
  1

  0
LINE
  5
8E
330
8C
100
AcDbEntity
  8
COMMENT
  6
ByBlock
 62
     0
100
AcDbLine
 10
0.0
 20
0.0
 30
0.0
 11
35.77869195894321
 21
27.66831044425135
 31
0.0
  0
LINE
  5
8F
330
8C
100
AcDbEntity
  8
COMMENT
  6
ByBlock
 62
     0
100
AcDbLine
 10
1.215073545810432
 20
1.698115516353906
 30
0.0
 11
0.0
 21
0.0
 31
0.0
  0
LINE
  5
90
330
8C
100
AcDbEntity
  8
COMMENT
  6
ByBlock
 62
     0
100
AcDbLine
 10
0.0
 20
0.0
 30
0.0
 11
1.949161701241918
 21
0.7488449045175773
 31
0.0
  0
LINE
  5
91
330
8C
100
AcDbEntity
  8
COMMENT
  6
ByBlock
 62
     0
100
AcDbLine
 10
35.77869195894321
 20
27.66831044425135
 30
0.0
 11
88.16869062379915
 21
27.66831044425135
 31
0.0
  0
TEXT
  5
92
330
8C
100
AcDbEntity
  8
COMMENT
  6
ByBlock
 62
     0
100
AcDbText
 10
38.26869195894321
 20
28.16831044425135
 30
0.0
 40
4.0
  1
ALCアンカーM6めねじ
  7
KNJYOKO
100
AcDbText
  0
TEXT
  5
93
330
8C
100
AcDbEntity
  8
COMMENT
  6
ByBlock
 62
     0
100
AcDbText
 10
38.26869195894321
 20
23.16831044425135
 30
0.0
 40
4.0
  1
AK-AL6M-D30-50
100
AcDbText
  0
ENDBLK
  5
94
330
8C
100
AcDbEntity
  8
COMMENT
  6
ByBlock
 62
     5
100
AcDbBlockEnd
  0
BLOCK
  5
96
330
95
100
AcDbEntity
  8
COMMENT
  6
ByBlock
 62
     5
100
AcDbBlockBegin
  2
M2
 70
     0
 10
0.0
 20
0.0
 30
0.0
  3
M2
  1

  0
LINE
  5
97
330
95
100
AcDbEntity
  8
COMMENT
  6
ByBlock
 62
     0
100
AcDbLine
 10
0.0
 20
0.0
 30
0.0
 11
29.26691434070444
 21
15.40929525068481
 31
0.0
  0
LINE
  5
98
330
95
100
AcDbEntity
  8
COMMENT
  6
ByBlock
 62
     0
100
AcDbLine
 10
1.490167251064112
 20
1.462669338048165
 30
0.0
 11
0.0
 21
0.0
 31
0.0
  0
LINE
  5
99
330
95
100
AcDbEntity
  8
COMMENT
  6
ByBlock
 62
     0
100
AcDbLine
 10
0.0
 20
0.0
 30
0.0
 11
2.049223679682842
 21
0.4008520166312505
 31
0.0
  0
LINE
  5
9A
330
95
100
AcDbEntity
  8
COMMENT
  6
ByBlock
 62
     0
100
AcDbLine
 10
29.26691434070449
 20
15.40929525068481
 30
0.0
 11
67.25691338703018
 21
15.40929525068481
 31
0.0
  0
TEXT
  5
9B
330
95
100
AcDbEntity
  8
COMMENT
  6
ByBlock
 62
     0
100
AcDbText
 10
31.75691434070449
 20
15.90929525068481
 30
0.0
 40
4.0
  1
平座金　
  7
KNJYOKO
100
AcDbText
  0
TEXT
  5
9C
330
95
100
AcDbEntity
  8
COMMENT
  6
ByBlock
 62
     0
100
AcDbText
 10
31.75691434070449
 20
10.90929525068481
 30
0.0
 40
4.0
  1
D30mm t2mm
100
AcDbText
  0
ENDBLK
  5
9D
330
95
100
AcDbEntity
  8
COMMENT
  6
ByBlock
 62
     5
100
AcDbBlockEnd
  0
BLOCK
  5
9F
330
9E
100
AcDbEntity
  8
COMMENT
  6
ByBlock
 62
     5
100
AcDbBlockBegin
  2
M3
 70
     0
 10
0.0
 20
0.0
 30
0.0
  3
M3
  1

  0
LINE
  5
A0
330
9E
100
AcDbEntity
  8
COMMENT
  6
ByBlock
 62
     0
100
AcDbLine
 10
0.0
 20
0.0
 30
0.0
 11
-16.20167411900647
 21
-15.89604044985168
 31
0.0
  0
LINE
  5
A1
330
9E
100
AcDbEntity
  8
COMMENT
  6
ByBlock
 62
     0
100
AcDbLine
 10
-1.007409748029108
 20
-1.828968460139799
 30
0.0
 11
0.0
 21
0.0
 31
0.0
  0
LINE
  5
A2
330
9E
100
AcDbEntity
  8
COMMENT
  6
ByBlock
 62
     0
100
AcDbLine
 10
0.0
 20
0.0
 30
0.0
 11
-1.847820155939615
 21
-0.9723994549121908
 31
0.0
  0
LINE
  5
A3
330
9E
100
AcDbEntity
  8
COMMENT
  6
ByBlock
 62
     0
100
AcDbLine
 10
-16.20167411900647
 20
-15.89604044985168
 30
0.0
 11
-31.6916737613786
 21
-15.89604044985168
 31
0.0
  0
TEXT
  5
A4
330
9E
100
AcDbEntity
  8
COMMENT
  6
ByBlock
 62
     0
100
AcDbText
 10
-31.6916737613786
 20
-15.39604044985168
 30
0.0
 40
4.0
  1
受け材
  7
KNJYOKO
100
AcDbText
  0
ENDBLK
  5
A5
330
9E
100
AcDbEntity
  8
COMMENT
  6
ByBlock
 62
     5
100
AcDbBlockEnd
  0
BLOCK
  5
A7
330
A6
100
AcDbEntity
  8
COMMENT
  6
ByBlock
 62
     5
100
AcDbBlockBegin
  2
M4
 70
     0
 10
0.0
 20
0.0
 30
0.0
  3
M4
  1

  0
LINE
  5
A8
330
A6
100
AcDbEntity
  8
COMMENT
  6
ByBlock
 62
     0
100
AcDbLine
 10
0.0
 20
0.0
 30
0.0
 11
35.77869195894321
 21
27.66831044425135
 31
0.0
  0
LINE
  5
A9
330
A6
100
AcDbEntity
  8
COMMENT
  6
ByBlock
 62
     0
100
AcDbLine
 10
1.215073545810432
 20
1.698115516353906
 30
0.0
 11
0.0
 21
0.0
 31
0.0
  0
LINE
  5
AA
330
A6
100
AcDbEntity
  8
COMMENT
  6
ByBlock
 62
     0
100
AcDbLine
 10
0.0
 20
0.0
 30
0.0
 11
1.949161701241918
 21
0.7488449045175773
 31
0.0
  0
LINE
  5
AB
330
A6
100
AcDbEntity
  8
COMMENT
  6
ByBlock
 62
     0
100
AcDbLine
 10
35.77869195894323
 20
27.66831044425135
 30
0.0
 11
95.36869043306429
 21
27.66831044425135
 31
0.0
  0
TEXT
  5
AC
330
A6
100
AcDbEntity
  8
COMMENT
  6
ByBlock
 62
     0
100
AcDbText
 10
38.26869195894323
 20
28.16831044425135
 30
0.0
 40
4.0
  1
ECPアンカー6×33
  7
KNJYOKO
100
AcDbText
  0
TEXT
  5
AD
330
A6
100
AcDbEntity
  8
COMMENT
  6
ByBlock
 62
     0
100
AcDbText
 10
38.26869195894323
 20
23.16831044425135
 30
0.0
 40
4.0
  1
AK-ECP633-D30-50
100
AcDbText
  0
ENDBLK
  5
AE
330
A6
100
AcDbEntity
  8
COMMENT
  6
ByBlock
 62
     5
100
AcDbBlockEnd
  0
BLOCK
  5
B0
330
AF
100
AcDbEntity
  8
COMMENT
  6
ByBlock
 62
     5
100
AcDbBlockBegin
  2
M5
 70
     0
 10
0.0
 20
0.0
 30
0.0
  3
M5
  1

  0
LINE
  5
B1
330
AF
100
AcDbEntity
  8
COMMENT
  6
ByBlock
 62
     0
100
AcDbLine
 10
0.0
 20
0.0
 30
0.0
 11
29.26691434070444
 21
15.40929525068481
 31
0.0
  0
LINE
  5
B2
330
AF
100
AcDbEntity
  8
COMMENT
  6
ByBlock
 62
     0
100
AcDbLine
 10
1.490167251064112
 20
1.462669338048165
 30
0.0
 11
0.0
 21
0.0
 31
0.0
  0
LINE
  5
B3
330
AF
100
AcDbEntity
  8
COMMENT
  6
ByBlock
 62
     0
100
AcDbLine
 10
0.0
 20
0.0
 30
0.0
 11
2.049223679682842
 21
0.4008520166312505
 31
0.0
  0
LINE
  5
B4
330
AF
100
AcDbEntity
  8
COMMENT
  6
ByBlock
 62
     0
100
AcDbLine
 10
29.26691434070449
 20
15.40929525068481
 30
0.0
 11
67.25691338703018
 21
15.40929525068481
 31
0.0
  0
TEXT
  5
B5
330
AF
100
AcDbEntity
  8
COMMENT
  6
ByBlock
 62
     0
100
AcDbText
 10
31.75691434070449
 20
15.90929525068481
 30
0.0
 40
4.0
  1
平座金　
  7
KNJYOKO
100
AcDbText
  0
TEXT
  5
B6
330
AF
100
AcDbEntity
  8
COMMENT
  6
ByBlock
 62
     0
100
AcDbText
 10
31.75691434070449
 20
10.90929525068481
 30
0.0
 40
4.0
  1
D30mm t2mm
100
AcDbText
  0
ENDBLK
  5
B7
330
AF
100
AcDbEntity
  8
COMMENT
  6
ByBlock
 62
     5
100
AcDbBlockEnd
  0
BLOCK
  5
B9
330
B8
100
AcDbEntity
  8
COMMENT
  6
ByBlock
 62
     5
100
AcDbBlockBegin
  2
M6
 70
     0
 10
0.0
 20
0.0
 30
0.0
  3
M6
  1

  0
LINE
  5
725
330
B8
100
AcDbEntity
  8
COMMENT
  6
ByBlock
 62
     0
100
AcDbLine
 10
0.0
 20
0.0
 30
0.0
 11
-33.14674432593161
 21
16.06536613128855
 31
0.0
  0
LINE
  5
726
330
B8
100
AcDbEntity
  8
COMMENT
  6
ByBlock
 62
     0
100
AcDbLine
 10
-2.061439299576263
 20
0.3323673310852724
 30
0.0
 11
0.0
 21
0.0
 31
0.0
  0
LINE
  5
727
330
B8
100
AcDbEntity
  8
COMMENT
  6
ByBlock
 62
     0
100
AcDbLine
 10
0.0
 20
0.0
 30
0.0
 11
-1.538063605773698
 21
1.412218245599679
 31
0.0
  0
LINE
  5
728
330
B8
100
AcDbEntity
  8
COMMENT
  6
ByBlock
 62
     0
100
AcDbLine
 10
-33.14674432593165
 20
16.06536613128856
 30
0.0
 11
-90.9367428477365
 21
16.06536613128856
 31
0.0
  0
TEXT
  5
729
330
B8
100
AcDbEntity
  8
COMMENT
  6
ByBlock
 62
     0
100
AcDbText
 10
-90.9367428477365
 20
16.56536613128856
 30
0.0
 40
4.0
  1
脱落防止ねじ(両端2ヶ所)
  7
KNJYOKO
100
AcDbText
  0
TEXT
  5
72A
330
B8
100
AcDbEntity
  8
COMMENT
  6
ByBlock
 62
     0
100
AcDbText
 10
-90.9367428477365
 20
11.56536613128856
 30
0.0
 40
4.0
  1
トラス頭ドリルねじ4×13
  7
KNJYOKO
100
AcDbText
  0
TEXT
  5
72B
330
B8
100
AcDbEntity
  8
COMMENT
  6
ByBlock
 62
     0
100
AcDbText
 10
-90.9367428477365
 20
6.565366131288556
 30
0.0
 40
4.0
  1
TBT-413-100
100
AcDbText
  0
ENDBLK
  5
C1
330
B8
100
AcDbEntity
  8
COMMENT
  6
ByBlock
 62
     5
100
AcDbBlockEnd
  0
BLOCK
  5
C3
330
C2
100
AcDbEntity
  8
COMMENT
  6
ByBlock
 62
     5
100
AcDbBlockBegin
  2
M7
 70
     0
 10
0.0
 20
0.0
 30
0.0
  3
M7
  1

  0
LINE
  5
C4
330
C2
100
AcDbEntity
  8
COMMENT
  6
ByBlock
 62
     0
100
AcDbLine
 10
0.0
 20
0.0
 30
0.0
 11
-16.11260387909147
 21
-8.950468762536488
 31
0.0
  0
LINE
  5
C5
330
C2
100
AcDbEntity
  8
COMMENT
  6
ByBlock
 62
     0
100
AcDbLine
 10
-1.456998148339609
 20
-1.495712681080553
 30
0.0
 11
0.0
 21
0.0
 31
0.0
  0
LINE
  5
C6
330
C2
100
AcDbEntity
  8
COMMENT
  6
ByBlock
 62
     0
100
AcDbLine
 10
0.0
 20
0.0
 30
0.0
 11
-2.039721040630698
 21
-0.4466968827053209
 31
0.0
  0
LINE
  5
C7
330
C2
100
AcDbEntity
  8
COMMENT
  6
ByBlock
 62
     0
100
AcDbLine
 10
-16.11260387909147
 20
-8.950468762536488
 30
0.0
 11
-31.6026035214636
 21
-8.950468762536488
 31
0.0
  0
TEXT
  5
C8
330
C2
100
AcDbEntity
  8
COMMENT
  6
ByBlock
 62
     0
100
AcDbText
 10
-31.6026035214636
 20
-8.450468762536488
 30
0.0
 40
4.0
  1
受け材
  7
KNJYOKO
100
AcDbText
  0
ENDBLK
  5
C9
330
C2
100
AcDbEntity
  8
COMMENT
  6
ByBlock
 62
     5
100
AcDbBlockEnd
  0
BLOCK
  5
CB
330
CA
100
AcDbEntity
  8
COMMENT
  6
ByBlock
 62
     5
100
AcDbBlockBegin
  2
M8
 70
     0
 10
0.0
 20
0.0
 30
0.0
  3
M8
  1

  0
LINE
  5
759
330
CA
100
AcDbEntity
  8
COMMENT
  6
ByBlock
 62
     0
100
AcDbLine
 10
0.0
 20
0.0
 30
0.0
 11
35.77869195894321
 21
27.66831044425135
 31
0.0
  0
LINE
  5
75A
330
CA
100
AcDbEntity
  8
COMMENT
  6
ByBlock
 62
     0
100
AcDbLine
 10
1.215073545810432
 20
1.698115516353906
 30
0.0
 11
0.0
 21
0.0
 31
0.0
  0
LINE
  5
75B
330
CA
100
AcDbEntity
  8
COMMENT
  6
ByBlock
 62
     0
100
AcDbLine
 10
0.0
 20
0.0
 30
0.0
 11
1.949161701241918
 21
0.7488449045175773
 31
0.0
  0
LINE
  5
75C
330
CA
100
AcDbEntity
  8
COMMENT
  6
ByBlock
 62
     0
100
AcDbLine
 10
35.77869195894317
 20
27.66831044425135
 30
0.0
 11
102.5686902423294
 21
27.66831044425135
 31
0.0
  0
TEXT
  5
75D
330
CA
100
AcDbEntity
  8
COMMENT
  6
ByBlock
 62
     0
100
AcDbText
 10
38.26869195894317
 20
28.16831044425135
 30
0.0
 40
4.0
  1
シンワッシャー頭ドリルねじ4×40
  7
KNJYOKO
100
AcDbText
  0
TEXT
  5
75E
330
CA
100
AcDbEntity
  8
COMMENT
  6
ByBlock
 62
     0
100
AcDbText
 10
38.26869195894317
 20
23.16831044425135
 30
0.0
 40
4.0
  1
TBS-440-D30-50
100
AcDbText
  0
ENDBLK
  5
D2
330
CA
100
AcDbEntity
  8
COMMENT
  6
ByBlock
 62
     5
100
AcDbBlockEnd
  0
BLOCK
  5
D4
330
D3
100
AcDbEntity
  8
COMMENT
  6
ByBlock
 62
     5
100
AcDbBlockBegin
  2
M9
 70
     0
 10
0.0
 20
0.0
 30
0.0
  3
M9
  1

  0
LINE
  5
D5
330
D3
100
AcDbEntity
  8
COMMENT
  6
ByBlock
 62
     0
100
AcDbLine
 10
0.0
 20
0.0
 30
0.0
 11
29.26691434070444
 21
15.40929525068481
 31
0.0
  0
LINE
  5
D6
330
D3
100
AcDbEntity
  8
COMMENT
  6
ByBlock
 62
     0
100
AcDbLine
 10
1.490167251064112
 20
1.462669338048165
 30
0.0
 11
0.0
 21
0.0
 31
0.0
  0
LINE
  5
D7
330
D3
100
AcDbEntity
  8
COMMENT
  6
ByBlock
 62
     0
100
AcDbLine
 10
0.0
 20
0.0
 30
0.0
 11
2.049223679682842
 21
0.4008520166312505
 31
0.0
  0
LINE
  5
D8
330
D3
100
AcDbEntity
  8
COMMENT
  6
ByBlock
 62
     0
100
AcDbLine
 10
29.26691434070443
 20
15.40929525068481
 30
0.0
 11
67.25691338703011
 21
15.40929525068481
 31
0.0
  0
TEXT
  5
D9
330
D3
100
AcDbEntity
  8
COMMENT
  6
ByBlock
 62
     0
100
AcDbText
 10
31.75691434070443
 20
15.90929525068481
 30
0.0
 40
4.0
  1
平座金　
  7
KNJYOKO
100
AcDbText
  0
TEXT
  5
DA
330
D3
100
AcDbEntity
  8
COMMENT
  6
ByBlock
 62
     0
100
AcDbText
 10
31.75691434070443
 20
10.90929525068481
 30
0.0
 40
4.0
  1
D30mm t2mm
100
AcDbText
  0
ENDBLK
  5
DB
330
D3
100
AcDbEntity
  8
COMMENT
  6
ByBlock
 62
     5
100
AcDbBlockEnd
  0
BLOCK
  5
DD
330
DC
100
AcDbEntity
  8
COMMENT
  6
ByBlock
 62
     5
100
AcDbBlockBegin
  2
M10
 70
     0
 10
0.0
 20
0.0
 30
0.0
  3
M10
  1

  0
LINE
  5
DE
330
DC
100
AcDbEntity
  8
COMMENT
  6
ByBlock
 62
     0
100
AcDbLine
 10
0.0
 20
0.0
 30
0.0
 11
-13.36828320362884
 21
-22.18113904044327
 31
0.0
  0
LINE
  5
DF
330
DC
100
AcDbEntity
  8
COMMENT
  6
ByBlock
 62
     0
100
AcDbLine
 10
-0.5184881909116222
 20
-2.022664090870113
 30
0.0
 11
0.0
 21
0.0
 31
0.0
  0
LINE
  5
E0
330
DC
100
AcDbEntity
  8
COMMENT
  6
ByBlock
 62
     0
100
AcDbLine
 10
0.0
 20
0.0
 30
0.0
 11
-1.546259396061915
 21
-1.403239790164343
 31
0.0
  0
LINE
  5
E1
330
DC
100
AcDbEntity
  8
COMMENT
  6
ByBlock
 62
     0
100
AcDbLine
 10
-13.36828320362884
 20
-22.18113904044327
 30
0.0
 11
-28.85828284600097
 21
-22.18113904044327
 31
0.0
  0
TEXT
  5
E2
330
DC
100
AcDbEntity
  8
COMMENT
  6
ByBlock
 62
     0
100
AcDbText
 10
-28.85828284600097
 20
-21.68113904044327
 30
0.0
 40
4.0
  1
受け材
  7
KNJYOKO
100
AcDbText
  0
ENDBLK
  5
E3
330
DC
100
AcDbEntity
  8
COMMENT
  6
ByBlock
 62
     5
100
AcDbBlockEnd
  0
BLOCK
  5
E5
330
E4
100
AcDbEntity
  8
COMMENT
  6
ByBlock
 62
     5
100
AcDbBlockBegin
  2
M11
 70
     0
 10
0.0
 20
0.0
 30
0.0
  3
M11
  1

  0
LINE
  5
E6
330
E4
100
AcDbEntity
  8
COMMENT
  6
ByBlock
 62
     0
100
AcDbLine
 10
0.0
 20
0.0
 30
0.0
 11
-25.46887471504397
 21
-14.91598911610524
 31
0.0
  0
LINE
  5
E7
330
E4
100
AcDbEntity
  8
COMMENT
  6
ByBlock
 62
     0
100
AcDbLine
 10
-1.422591633147098
 20
-1.528474099849292
 30
0.0
 11
0.0
 21
0.0
 31
0.0
  0
LINE
  5
E8
330
E4
100
AcDbEntity
  8
COMMENT
  6
ByBlock
 62
     0
100
AcDbLine
 10
0.0
 20
0.0
 30
0.0
 11
-2.02903014479557
 21
-0.4929875253199534
 31
0.0
  0
LINE
  5
E9
330
E4
100
AcDbEntity
  8
COMMENT
  6
ByBlock
 62
     0
100
AcDbLine
 10
-25.46887471504397
 20
-14.91598911610524
 30
0.0
 11
-60.66987558908646
 21
-14.91598911610524
 31
0.0
  0
TEXT
  5
EA
330
E4
100
AcDbEntity
  8
COMMENT
  6
ByBlock
 62
     0
100
AcDbText
 10
-60.66987558908646
 20
-14.41598911610524
 30
0.0
 40
3.099999904632568
  1
St t=1.6mm以上
  7
KNJYOKO
100
AcDbText
  0
ENDBLK
  5
EB
330
E4
100
AcDbEntity
  8
COMMENT
  6
ByBlock
 62
     5
100
AcDbBlockEnd
  0
BLOCK
  5
ED
330
EC
100
AcDbEntity
  8
KUTAI
  6
ByBlock
 62
    12
100
AcDbBlockBegin
  2
*X12
 70
     1
 10
0.0
 20
0.0
 30
0.0
  3
*X12
  1

  0
LINE
  5
EE
330
EC
100
AcDbEntity
  8
KUTAI
  6
ByBlock
 62
     0
100
AcDbLine
 10
227.7273721234332
 20
97.33644960962559
 30
0.0
 11
229.3273721234318
 21
98.93644960962369
 31
0.0
  0
LINE
  5
EF
330
EC
100
AcDbEntity
  8
KUTAI
  6
ByBlock
 62
     0
100
AcDbLine
 10
228.0509278357716
 20
96.24579175751655
 30
0.0
 11
229.3908846518857
 21
97.58574857507472
 31
0.0
  0
LINE
  5
F0
330
EC
100
AcDbEntity
  8
KUTAI
  6
ByBlock
 62
     0
100
AcDbLine
 10
227.7273721234332
 20
118.549653045222
 30
0.0
 11
229.3273721234303
 21
120.1496530452196
 31
0.0
  0
LINE
  5
F1
330
EC
100
AcDbEntity
  8
KUTAI
  6
ByBlock
 62
     0
100
AcDbLine
 10
256.1273721234334
 20
146.949653045222
 30
0.0
 11
257.7273721234319
 21
148.5496530452206
 31
0.0
  0
LINE
  5
F2
330
EC
100
AcDbEntity
  8
KUTAI
  6
ByBlock
 62
     0
100
AcDbLine
 10
227.7273721234328
 20
117.1354394828478
 30
0.0
 11
229.3273721234318
 21
118.7354394828473
 31
0.0
  0
LINE
  5
F3
330
EC
100
AcDbEntity
  8
KUTAI
  6
ByBlock
 62
     0
100
AcDbLine
 10
256.1273721234338
 20
145.5354394828493
 30
0.0
 11
257.7273721234333
 21
147.1354394828488
 31
0.0
  0
LINE
  5
F4
330
EC
100
AcDbEntity
  8
KUTAI
  6
ByBlock
 62
     0
100
AcDbLine
 10
227.7273721234315
 20
139.7628564808165
 30
0.0
 11
229.3273721234309
 21
141.362856480816
 31
0.0
  0
LINE
  5
F5
330
EC
100
AcDbEntity
  8
KUTAI
  6
ByBlock
 62
     0
100
AcDbLine
 10
241.7009652522406
 20
153.7364496096257
 30
0.0
 11
243.3009652522401
 21
155.3364496096252
 31
0.0
  0
LINE
  5
F6
330
EC
100
AcDbEntity
  8
KUTAI
  6
ByBlock
 62
     0
100
AcDbLine
 10
227.7273721234324
 20
138.3486429184442
 30
0.0
 11
229.3273721234314
 21
139.9486429184427
 31
0.0
  0
LINE
  5
F7
330
EC
100
AcDbEntity
  8
KUTAI
  6
ByBlock
 62
     0
100
AcDbLine
 10
243.1151788146158
 20
153.7364496096271
 30
0.0
 11
244.7151788146125
 21
155.3364496096243
 31
0.0
  0
LINE
  5
F8
330
EC
100
AcDbEntity
  8
KUTAI
  6
ByBlock
 62
     0
100
AcDbLine
 10
246.9405755590291
 20
95.3364496096252
 30
0.0
 11
248.5405755590272
 21
96.93644960962281
 31
0.0
  0
LINE
  5
F9
330
EC
100
AcDbEntity
  8
KUTAI
  6
ByBlock
 62
     0
100
AcDbLine
 10
256.1273721234341
 20
104.5232461740302
 30
0.0
 11
256.9405755590264
 21
105.3364496096224
 31
0.0
  0
LINE
  5
FA
330
EC
100
AcDbEntity
  8
KUTAI
  6
ByBlock
 62
     0
100
AcDbLine
 10
248.3547891214029
 20
95.33644960962559
 30
0.0
 11
249.9547891214005
 21
96.93644960962323
 31
0.0
  0
LINE
  5
FB
330
EC
100
AcDbEntity
  8
KUTAI
  6
ByBlock
 62
     0
100
AcDbLine
 10
256.1273721234347
 20
103.109032611657
 30
0.0
 11
257.727372123431
 21
104.7090326116537
 31
0.0
  0
ENDBLK
  5
FC
330
EC
100
AcDbEntity
  8
KUTAI
  6
ByBlock
 62
    12
100
AcDbBlockEnd
  0
BLOCK
  5
FE
330
FD
100
AcDbEntity
  8
COMMENT
  6
ByBlock
 62
     5
100
AcDbBlockBegin
  2
M12
 70
     0
 10
0.0
 20
0.0
 30
0.0
  3
M12
  1

  0
LINE
  5
70B
330
FD
100
AcDbEntity
  8
COMMENT
  6
ByBlock
 62
     0
100
AcDbLine
 10
0.0
 20
0.0
 30
0.0
 11
-33.14674432593161
 21
16.06536613128855
 31
0.0
  0
LINE
  5
70C
330
FD
100
AcDbEntity
  8
COMMENT
  6
ByBlock
 62
     0
100
AcDbLine
 10
-2.061439299576263
 20
0.3323673310852724
 30
0.0
 11
0.0
 21
0.0
 31
0.0
  0
LINE
  5
70D
330
FD
100
AcDbEntity
  8
COMMENT
  6
ByBlock
 62
     0
100
AcDbLine
 10
0.0
 20
0.0
 30
0.0
 11
-1.538063605773698
 21
1.412218245599679
 31
0.0
  0
LINE
  5
70E
330
FD
100
AcDbEntity
  8
COMMENT
  6
ByBlock
 62
     0
100
AcDbLine
 10
-33.14674432593165
 20
16.06536613128856
 30
0.0
 11
-90.9367428477365
 21
16.06536613128856
 31
0.0
  0
TEXT
  5
70F
330
FD
100
AcDbEntity
  8
COMMENT
  6
ByBlock
 62
     0
100
AcDbText
 10
-90.9367428477365
 20
16.56536613128856
 30
0.0
 40
4.0
  1
脱落防止ねじ(両端2ヶ所)
  7
KNJYOKO
100
AcDbText
  0
TEXT
  5
710
330
FD
100
AcDbEntity
  8
COMMENT
  6
ByBlock
 62
     0
100
AcDbText
 10
-90.9367428477365
 20
11.56536613128856
 30
0.0
 40
4.0
  1
トラス頭ドリルねじ4×13
  7
KNJYOKO
100
AcDbText
  0
TEXT
  5
711
330
FD
100
AcDbEntity
  8
COMMENT
  6
ByBlock
 62
     0
100
AcDbText
 10
-90.9367428477365
 20
6.565366131288556
 30
0.0
 40
4.0
  1
TBT-413-100
100
AcDbText
  0
ENDBLK
  5
106
330
FD
100
AcDbEntity
  8
COMMENT
  6
ByBlock
 62
     5
100
AcDbBlockEnd
  0
BLOCK
  5
108
330
107
100
AcDbEntity
  8
COMMENT
  6
ByBlock
 62
     5
100
AcDbBlockBegin
  2
M13
 70
     0
 10
0.0
 20
0.0
 30
0.0
  3
M13
  1

  0
LINE
  5
73F
330
107
100
AcDbEntity
  8
COMMENT
  6
ByBlock
 62
     0
100
AcDbLine
 10
0.0
 20
0.0
 30
0.0
 11
-33.14674432593161
 21
16.06536613128855
 31
0.0
  0
LINE
  5
740
330
107
100
AcDbEntity
  8
COMMENT
  6
ByBlock
 62
     0
100
AcDbLine
 10
-2.061439299576263
 20
0.3323673310852724
 30
0.0
 11
0.0
 21
0.0
 31
0.0
  0
LINE
  5
741
330
107
100
AcDbEntity
  8
COMMENT
  6
ByBlock
 62
     0
100
AcDbLine
 10
0.0
 20
0.0
 30
0.0
 11
-1.538063605773698
 21
1.412218245599679
 31
0.0
  0
LINE
  5
742
330
107
100
AcDbEntity
  8
COMMENT
  6
ByBlock
 62
     0
100
AcDbLine
 10
-33.14674432593165
 20
16.06536613128856
 30
0.0
 11
-90.9367428477365
 21
16.06536613128856
 31
0.0
  0
TEXT
  5
743
330
107
100
AcDbEntity
  8
COMMENT
  6
ByBlock
 62
     0
100
AcDbText
 10
-90.9367428477365
 20
16.56536613128856
 30
0.0
 40
4.0
  1
脱落防止ねじ(両端2ヶ所)
  7
KNJYOKO
100
AcDbText
  0
TEXT
  5
744
330
107
100
AcDbEntity
  8
COMMENT
  6
ByBlock
 62
     0
100
AcDbText
 10
-90.9367428477365
 20
11.56536613128856
 30
0.0
 40
4.0
  1
トラス頭ドリルねじ4×13
  7
KNJYOKO
100
AcDbText
  0
TEXT
  5
745
330
107
100
AcDbEntity
  8
COMMENT
  6
ByBlock
 62
     0
100
AcDbText
 10
-90.9367428477365
 20
6.565366131288556
 30
0.0
 40
4.0
  1
TBT-413-100
100
AcDbText
  0
ENDBLK
  5
110
330
107
100
AcDbEntity
  8
COMMENT
  6
ByBlock
 62
     5
100
AcDbBlockEnd
  0
BLOCK
  5
112
330
111
100
AcDbEntity
  8
COMMENT
  6
ByBlock
 62
     5
100
AcDbBlockBegin
  2
M14
 70
     0
 10
0.0
 20
0.0
 30
0.0
  3
M14
  1

  0
LINE
  5
6ED
330
111
100
AcDbEntity
  8
COMMENT
  6
ByBlock
 62
     0
100
AcDbLine
 10
0.0
 20
0.0
 30
0.0
 11
-33.14674432593161
 21
16.06536613128855
 31
0.0
  0
LINE
  5
6EE
330
111
100
AcDbEntity
  8
COMMENT
  6
ByBlock
 62
     0
100
AcDbLine
 10
-2.061439299576263
 20
0.3323673310852724
 30
0.0
 11
0.0
 21
0.0
 31
0.0
  0
LINE
  5
6EF
330
111
100
AcDbEntity
  8
COMMENT
  6
ByBlock
 62
     0
100
AcDbLine
 10
0.0
 20
0.0
 30
0.0
 11
-1.538063605773698
 21
1.412218245599679
 31
0.0
  0
LINE
  5
6F0
330
111
100
AcDbEntity
  8
COMMENT
  6
ByBlock
 62
     0
100
AcDbLine
 10
-33.14674432593165
 20
16.06536613128856
 30
0.0
 11
-90.9367428477365
 21
16.06536613128856
 31
0.0
  0
TEXT
  5
6F1
330
111
100
AcDbEntity
  8
COMMENT
  6
ByBlock
 62
     0
100
AcDbText
 10
-90.9367428477365
 20
16.56536613128856
 30
0.0
 40
4.0
  1
脱落防止ねじ(両端2ヶ所)
  7
KNJYOKO
100
AcDbText
  0
TEXT
  5
6F2
330
111
100
AcDbEntity
  8
COMMENT
  6
ByBlock
 62
     0
100
AcDbText
 10
-90.9367428477365
 20
11.56536613128856
 30
0.0
 40
4.0
  1
トラス頭ドリルねじ4×13
  7
KNJYOKO
100
AcDbText
  0
TEXT
  5
6F3
330
111
100
AcDbEntity
  8
COMMENT
  6
ByBlock
 62
     0
100
AcDbText
 10
-90.9367428477365
 20
6.565366131288556
 30
0.0
 40
4.0
  1
TBT-413-100
100
AcDbText
  0
ENDBLK
  5
11A
330
111
100
AcDbEntity
  8
COMMENT
  6
ByBlock
 62
     5
100
AcDbBlockEnd
  0
BLOCK
  5
11C
330
11B
100
AcDbEntity
  8
COMMENT
  6
ByBlock
 62
     5
100
AcDbBlockBegin
  2
M15
 70
     0
 10
0.0
 20
0.0
 30
0.0
  3
M15
  1

  0
LINE
  5
11D
330
11B
100
AcDbEntity
  8
COMMENT
  6
ByBlock
 62
     0
100
AcDbLine
 10
0.0
 20
0.0
 30
0.0
 11
12.50783234217451
 21
7.055905720190935
 31
0.0
  0
LINE
  5
11E
330
11B
100
AcDbEntity
  8
COMMENT
  6
ByBlock
 62
     0
100
AcDbLine
 10
1.447145457889147
 20
1.505247505336261
 30
0.0
 11
0.0
 21
0.0
 31
0.0
  0
LINE
  5
11F
330
11B
100
AcDbEntity
  8
COMMENT
  6
ByBlock
 62
     0
100
AcDbLine
 10
0.0
 20
0.0
 30
0.0
 11
2.036743927385376
 21
0.4600806482227072
 31
0.0
  0
LINE
  5
120
330
11B
100
AcDbEntity
  8
COMMENT
  6
ByBlock
 62
     0
100
AcDbLine
 10
12.50783234217454
 20
7.055905720190935
 30
0.0
 11
46.89783148386765
 21
7.055905720190935
 31
0.0
  0
TEXT
  5
121
330
11B
100
AcDbEntity
  8
COMMENT
  6
ByBlock
 62
     0
100
AcDbText
 10
14.99783234217454
 20
7.555905720190935
 30
0.0
 40
4.0
  1
アルミルーバー
  7
KNJYOKO
100
AcDbText
  0
TEXT
  5
122
330
11B
100
AcDbEntity
  8
COMMENT
  6
ByBlock
 62
     0
100
AcDbText
 10
14.99783234217454
 20
2.555905720190934
 30
0.0
 40
4.0
  1
CLKS-4075
100
AcDbText
  0
ENDBLK
  5
123
330
11B
100
AcDbEntity
  8
COMMENT
  6
ByBlock
 62
     5
100
AcDbBlockEnd
  0
BLOCK
  5
125
330
124
100
AcDbEntity
  8
COMMENT
  6
ByBlock
 62
     5
100
AcDbBlockBegin
  2
M16
 70
     0
 10
0.0
 20
0.0
 30
0.0
  3
M16
  1

  0
LINE
  5
126
330
124
100
AcDbEntity
  8
COMMENT
  6
ByBlock
 62
     0
100
AcDbLine
 10
0.0
 20
0.0
 30
0.0
 11
12.50783234217451
 21
7.055905720190935
 31
0.0
  0
LINE
  5
127
330
124
100
AcDbEntity
  8
COMMENT
  6
ByBlock
 62
     0
100
AcDbLine
 10
1.447145457889147
 20
1.505247505336261
 30
0.0
 11
0.0
 21
0.0
 31
0.0
  0
LINE
  5
128
330
124
100
AcDbEntity
  8
COMMENT
  6
ByBlock
 62
     0
100
AcDbLine
 10
0.0
 20
0.0
 30
0.0
 11
2.036743927385376
 21
0.4600806482227072
 31
0.0
  0
LINE
  5
129
330
124
100
AcDbEntity
  8
COMMENT
  6
ByBlock
 62
     0
100
AcDbLine
 10
12.50783234217454
 20
7.055905720190935
 30
0.0
 11
46.89783148386765
 21
7.055905720190935
 31
0.0
  0
TEXT
  5
12A
330
124
100
AcDbEntity
  8
COMMENT
  6
ByBlock
 62
     0
100
AcDbText
 10
14.99783234217454
 20
7.555905720190935
 30
0.0
 40
4.0
  1
アルミルーバー
  7
KNJYOKO
100
AcDbText
  0
TEXT
  5
12B
330
124
100
AcDbEntity
  8
COMMENT
  6
ByBlock
 62
     0
100
AcDbText
 10
14.99783234217454
 20
2.555905720190934
 30
0.0
 40
4.0
  1
CLKS-4075
100
AcDbText
  0
ENDBLK
  5
12C
330
124
100
AcDbEntity
  8
COMMENT
  6
ByBlock
 62
     5
100
AcDbBlockEnd
  0
BLOCK
  5
12E
330
12D
100
AcDbEntity
  8
COMMENT
  6
ByBlock
 62
     5
100
AcDbBlockBegin
  2
M17
 70
     0
 10
0.0
 20
0.0
 30
0.0
  3
M17
  1

  0
LINE
  5
12F
330
12D
100
AcDbEntity
  8
COMMENT
  6
ByBlock
 62
     0
100
AcDbLine
 10
0.0
 20
0.0
 30
0.0
 11
12.50783234217451
 21
7.055905720190935
 31
0.0
  0
LINE
  5
130
330
12D
100
AcDbEntity
  8
COMMENT
  6
ByBlock
 62
     0
100
AcDbLine
 10
1.447145457889147
 20
1.505247505336261
 30
0.0
 11
0.0
 21
0.0
 31
0.0
  0
LINE
  5
131
330
12D
100
AcDbEntity
  8
COMMENT
  6
ByBlock
 62
     0
100
AcDbLine
 10
0.0
 20
0.0
 30
0.0
 11
2.036743927385376
 21
0.4600806482227072
 31
0.0
  0
LINE
  5
132
330
12D
100
AcDbEntity
  8
COMMENT
  6
ByBlock
 62
     0
100
AcDbLine
 10
12.50783234217454
 20
7.055905720190935
 30
0.0
 11
46.89783148386765
 21
7.055905720190935
 31
0.0
  0
TEXT
  5
133
330
12D
100
AcDbEntity
  8
COMMENT
  6
ByBlock
 62
     0
100
AcDbText
 10
14.99783234217454
 20
7.555905720190935
 30
0.0
 40
4.0
  1
アルミルーバー
  7
KNJYOKO
100
AcDbText
  0
TEXT
  5
134
330
12D
100
AcDbEntity
  8
COMMENT
  6
ByBlock
 62
     0
100
AcDbText
 10
14.99783234217454
 20
2.555905720190934
 30
0.0
 40
4.0
  1
CLKS-4075
100
AcDbText
  0
ENDBLK
  5
135
330
12D
100
AcDbEntity
  8
COMMENT
  6
ByBlock
 62
     5
100
AcDbBlockEnd
  0
BLOCK
  5
137
330
136
100
AcDbEntity
  8
COMMENT
  6
ByBlock
 62
     5
100
AcDbBlockBegin
  2
M18
 70
     0
 10
0.0
 20
0.0
 30
0.0
  3
M18
  1

  0
LINE
  5
138
330
136
100
AcDbEntity
  8
COMMENT
  6
ByBlock
 62
     0
100
AcDbLine
 10
0.0
 20
0.0
 30
0.0
 11
12.50783234217451
 21
7.055905720190935
 31
0.0
  0
LINE
  5
139
330
136
100
AcDbEntity
  8
COMMENT
  6
ByBlock
 62
     0
100
AcDbLine
 10
1.447145457889147
 20
1.505247505336261
 30
0.0
 11
0.0
 21
0.0
 31
0.0
  0
LINE
  5
13A
330
136
100
AcDbEntity
  8
COMMENT
  6
ByBlock
 62
     0
100
AcDbLine
 10
0.0
 20
0.0
 30
0.0
 11
2.036743927385376
 21
0.4600806482227072
 31
0.0
  0
LINE
  5
13B
330
136
100
AcDbEntity
  8
COMMENT
  6
ByBlock
 62
     0
100
AcDbLine
 10
12.50783234217454
 20
7.055905720190935
 30
0.0
 11
46.89783148386765
 21
7.055905720190935
 31
0.0
  0
TEXT
  5
13C
330
136
100
AcDbEntity
  8
COMMENT
  6
ByBlock
 62
     0
100
AcDbText
 10
14.99783234217454
 20
7.555905720190935
 30
0.0
 40
4.0
  1
アルミルーバー
  7
KNJYOKO
100
AcDbText
  0
TEXT
  5
13D
330
136
100
AcDbEntity
  8
COMMENT
  6
ByBlock
 62
     0
100
AcDbText
 10
14.99783234217454
 20
2.555905720190934
 30
0.0
 40
4.0
  1
CLKS-4075
100
AcDbText
  0
ENDBLK
  5
13E
330
136
100
AcDbEntity
  8
COMMENT
  6
ByBlock
 62
     5
100
AcDbBlockEnd
  0
BLOCK
  5
140
330
13F
100
AcDbEntity
  8
COMMENT
  6
ByBlock
 62
     5
100
AcDbBlockBegin
  2
M19
 70
     0
 10
0.0
 20
0.0
 30
0.0
  3
M19
  1

  0
LINE
  5
141
330
13F
100
AcDbEntity
  8
COMMENT
  6
ByBlock
 62
     0
100
AcDbLine
 10
0.0
 20
0.0
 30
0.0
 11
-16.20167411900647
 21
-15.89604044985168
 31
0.0
  0
LINE
  5
142
330
13F
100
AcDbEntity
  8
COMMENT
  6
ByBlock
 62
     0
100
AcDbLine
 10
-1.007409748029108
 20
-1.828968460139799
 30
0.0
 11
0.0
 21
0.0
 31
0.0
  0
LINE
  5
143
330
13F
100
AcDbEntity
  8
COMMENT
  6
ByBlock
 62
     0
100
AcDbLine
 10
0.0
 20
0.0
 30
0.0
 11
-1.847820155939615
 21
-0.9723994549121908
 31
0.0
  0
LINE
  5
144
330
13F
100
AcDbEntity
  8
COMMENT
  6
ByBlock
 62
     0
100
AcDbLine
 10
-16.20167411900647
 20
-15.89604044985168
 30
0.0
 11
-31.6916737613786
 21
-15.89604044985168
 31
0.0
  0
TEXT
  5
145
330
13F
100
AcDbEntity
  8
COMMENT
  6
ByBlock
 62
     0
100
AcDbText
 10
-31.6916737613786
 20
-15.39604044985168
 30
0.0
 40
4.0
  1
受け材
  7
KNJYOKO
100
AcDbText
  0
ENDBLK
  5
146
330
13F
100
AcDbEntity
  8
COMMENT
  6
ByBlock
 62
     5
100
AcDbBlockEnd
  0
BLOCK
  5
148
330
147
100
AcDbEntity
  8
COMMENT
  6
ByBlock
 62
     5
100
AcDbBlockBegin
  2
M20
 70
     0
 10
0.0
 20
0.0
 30
0.0
  3
M20
  1

  0
LINE
  5
149
330
147
100
AcDbEntity
  8
COMMENT
  6
ByBlock
 62
     0
100
AcDbLine
 10
0.0
 20
0.0
 30
0.0
 11
26.33461325939049
 21
15.40929525068481
 31
0.0
  0
LINE
  5
14A
330
147
100
AcDbEntity
  8
COMMENT
  6
ByBlock
 62
     0
100
AcDbLine
 10
1.423184536854245
 20
1.52792205385916
 30
0.0
 11
0.0
 21
0.0
 31
0.0
  0
LINE
  5
14B
330
147
100
AcDbEntity
  8
COMMENT
  6
ByBlock
 62
     0
100
AcDbLine
 10
0.0
 20
0.0
 30
0.0
 11
2.029221259254889
 21
0.4922002738705348
 31
0.0
  0
LINE
  5
14C
330
147
100
AcDbEntity
  8
COMMENT
  6
ByBlock
 62
     0
100
AcDbLine
 10
26.33461325939049
 20
15.40929525068481
 30
0.0
 11
64.32461230571618
 21
15.40929525068481
 31
0.0
  0
TEXT
  5
14D
330
147
100
AcDbEntity
  8
COMMENT
  6
ByBlock
 62
     0
100
AcDbText
 10
28.82461325939051
 20
15.90929525068481
 30
0.0
 40
4.0
  1
平座金　
  7
KNJYOKO
100
AcDbText
  0
TEXT
  5
14E
330
147
100
AcDbEntity
  8
COMMENT
  6
ByBlock
 62
     0
100
AcDbText
 10
28.82461325939051
 20
10.90929525068481
 30
0.0
 40
4.0
  1
D30mm t2mm
100
AcDbText
  0
ENDBLK
  5
14F
330
147
100
AcDbEntity
  8
COMMENT
  6
ByBlock
 62
     5
100
AcDbBlockEnd
  0
ENDSEC
  0
SECTION
  2
ENTITIES
  0
LINE
  5
150
330
6F
100
AcDbEntity
  8
KUTAI
  6
Continuous
100
AcDbLine
 10
517.4856009406731
 20
335.7555691123014
 30
0.0
 11
692.665189448772
 21
335.7555691123014
 31
0.0
  0
INSERT
  5
151
330
6F
100
AcDbEntity
  8
COMMENT
  6
Continuous
100
AcDbBlockReference
  2
M0
 10
242.7273721234328
 20
428.1555691123021
 30
0.0
  0
LINE
  5
152
330
6F
100
AcDbEntity
  8
WASHER
  6
HIDDEN
100
AcDbLine
 10
239.5273721234329
 20
422.2555691123014
 30
0.0
 11
239.5273721234329
 21
424.2555691122945
 31
0.0
  0
LINE
  5
153
330
6F
100
AcDbEntity
  8
WASHER
  6
HIDDEN
100
AcDbLine
 10
245.9273721234328
 20
422.2555691123014
 30
0.0
 11
245.9273721234328
 21
424.2555691123081
 31
0.0
  0
LINE
  5
154
330
6F
100
AcDbEntity
  8
KUTAI
  6
Continuous
100
AcDbLine
 10
284.0129803851768
 20
384.6987978358873
 30
0.0
 11
320.0697516615908
 21
420.7555691123014
 31
0.0
  0
LINE
  5
155
330
6F
100
AcDbEntity
  8
KUTAI
  6
Continuous
100
AcDbLine
 10
276.9419125733111
 20
384.6987978358871
 30
0.0
 11
312.9986838497252
 21
420.7555691123013
 31
0.0
  0
LINE
  5
156
330
6F
100
AcDbEntity
  8
KUTAI
  6
Continuous
100
AcDbLine
 10
269.8708447614457
 20
384.6987978358873
 30
0.0
 11
305.9276160378598
 21
420.7555691123014
 31
0.0
  0
LINE
  5
157
330
6F
100
AcDbEntity
  8
KUTAI
  6
Continuous
100
AcDbLine
 10
148.4647851474592
 20
384.6987978358872
 30
0.0
 11
184.5215564238731
 21
420.7555691123012
 31
0.0
  0
LINE
  5
158
330
6F
100
AcDbEntity
  8
KUTAI
  6
Continuous
100
AcDbLine
 10
141.3937173355937
 20
384.6987978358872
 30
0.0
 11
177.4504886120079
 21
420.7555691123013
 31
0.0
  0
LINE
  5
159
330
6F
100
AcDbEntity
  8
KUTAI
  6
Continuous
100
AcDbLine
 10
134.3226495237282
 20
384.6987978358871
 30
0.0
 11
170.3794208001424
 21
420.7555691123013
 31
0.0
  0
LINE
  5
15A
330
6F
100
AcDbEntity
  8
KUTAI
  6
Continuous
100
AcDbLine
 10
572.1209905521605
 20
335.7555691123017
 30
0.0
 11
672.1209905521602
 21
435.7555691123015
 31
0.0
  0
LINE
  5
15B
330
6F
100
AcDbEntity
  8
KUTAI
  6
Continuous
100
AcDbLine
 10
565.0499227402947
 20
335.7555691123015
 30
0.0
 11
665.0499227402946
 21
435.7555691123013
 31
0.0
  0
LINE
  5
15C
330
6F
100
AcDbEntity
  8
WASHER
  6
HIDDEN
100
AcDbLine
 10
610.9412277190032
 20
437.2555691123013
 30
0.0
 11
610.9412277190032
 21
439.2555691123079
 31
0.0
  0
LINE
  5
15D
330
6F
100
AcDbEntity
  8
WASHER
  6
HIDDEN
100
AcDbLine
 10
604.5412277190032
 20
437.2555691123013
 30
0.0
 11
604.5412277190032
 21
439.2555691122943
 31
0.0
  0
LINE
  5
15E
330
6F
100
AcDbEntity
  8
ANCHOR
  6
HIDDEN
100
AcDbLine
 10
604.7412277190032
 20
429.1158044133073
 30
0.0
 11
604.7412277190032
 21
439.2555691123014
 31
0.0
  0
LINE
  5
15F
330
6F
100
AcDbEntity
  8
ANCHOR
  6
HIDDEN
100
AcDbLine
 10
610.7412277190031
 20
429.1158044133073
 30
0.0
 11
610.7412277190031
 21
439.2555691123014
 31
0.0
  0
INSERT
  5
160
330
6F
100
AcDbEntity
  8
COMMENT
  6
Continuous
100
AcDbBlockReference
  2
M1
 10
607.7412277190031
 20
443.1555691123021
 30
0.0
  0
INSERT
  5
161
330
6F
100
AcDbEntity
  8
COMMENT
  6
Continuous
100
AcDbBlockReference
  2
M2
 10
617.0612003824361
 20
439.2555691123016
 30
0.0
  0
INSERT
  5
162
330
6F
100
AcDbEntity
  8
COMMENT
  6
Continuous
100
AcDbBlockReference
  2
M3
 10
593.175048048338
 20
435.7555691123013
 30
0.0
  0
LINE
  5
163
330
6F
100
AcDbEntity
  8
LOUVER
  6
CENTER
100
AcDbLine
 10
607.7412277190031
 20
114.6259139050352
 30
0.0
 11
607.7412277190031
 21
170.3068162692735
 31
0.0
  0
LINE
  5
164
330
6F
100
AcDbEntity
  8
WASHER
  6
Continuous
100
AcDbLine
 10
592.7412277190032
 20
160.3364496096261
 30
0.0
 11
622.7412277190031
 21
160.3364496096261
 31
0.0
  0
LINE
  5
165
330
6F
100
AcDbEntity
  8
WASHER
  6
Continuous
100
AcDbLine
 10
622.7412277190031
 20
158.3364496096261
 30
0.0
 11
622.7412277190031
 21
160.3364496096261
 31
0.0
  0
LINE
  5
166
330
6F
100
AcDbEntity
  8
WASHER
  6
Continuous
100
AcDbLine
 10
592.7412277190032
 20
158.3364496096261
 30
0.0
 11
592.7412277190032
 21
160.3364496096261
 31
0.0
  0
LINE
  5
167
330
6F
100
AcDbEntity
  8
LOUVER
  6
CENTER
100
AcDbLine
 10
601.801588655121
 20
166.8364496096096
 30
0.0
 11
583.352625794548
 21
166.8364496096312
 31
0.0
  0
LINE
  5
168
330
6F
100
AcDbEntity
  8
ANCHOR
  6
HIDDEN
100
AcDbLine
 10
597.2412277204912
 20
168.8364496097355
 30
0.0
 11
587.7412277191625
 21
168.8364496097759
 31
0.0
  0
LINE
  5
169
330
6F
100
AcDbEntity
  8
ANCHOR
  6
HIDDEN
100
AcDbLine
 10
597.2412277210462
 20
164.8364496097355
 30
0.0
 11
587.7412277191467
 21
164.8364496097759
 31
0.0
  0
LINE
  5
16A
330
6F
100
AcDbEntity
  8
ANCHOR
  6
HIDDEN
100
AcDbLine
 10
600.1638774512562
 20
167.8364496097441
 30
0.0
 11
598.2412277205018
 21
167.8364496097402
 31
0.0
  0
LINE
  5
16B
330
6F
100
AcDbEntity
  8
ANCHOR
  6
HIDDEN
100
AcDbLine
 10
600.1638774514522
 20
165.8364496097441
 30
0.0
 11
598.2412277210397
 21
165.8364496097402
 31
0.0
  0
LINE
  5
16C
330
6F
100
AcDbEntity
  8
ANCHOR
  6
HIDDEN
100
AcDbLine
 10
600.7412277205443
 20
166.836449609584
 30
0.0
 11
600.1638774512566
 21
167.8364496097447
 31
0.0
  0
LINE
  5
16D
330
6F
100
AcDbEntity
  8
ANCHOR
  6
HIDDEN
100
AcDbLine
 10
600.163877451453
 20
165.8364496097453
 30
0.0
 11
600.7412277205447
 21
166.8364496095842
 31
0.0
  0
ARC
  5
16E
330
6F
100
AcDbEntity
  8
ANCHOR
  6
HIDDEN
100
AcDbCircle
 10
598.741227721049
 20
166.8364496097425
 30
0.0
 40
0.5
100
AcDbArc
 50
97.20679386168658
 51
262.7932061387912
  0
LINE
  5
16F
330
6F
100
AcDbEntity
  8
ANCHOR
  6
HIDDEN
100
AcDbLine
 10
598.6785022845842
 20
166.3403996932815
 30
0.0
 11
600.1638774514524
 21
165.8364496097437
 31
0.0
  0
LINE
  5
170
330
6F
100
AcDbEntity
  8
ANCHOR
  6
HIDDEN
100
AcDbLine
 10
598.6785022845808
 20
167.3324995262023
 30
0.0
 11
600.1638774512562
 21
167.8364496097443
 31
0.0
  0
LINE
  5
171
330
6F
100
AcDbEntity
  8
ANCHOR
  6
HIDDEN
100
AcDbLine
 10
598.2412277205001
 20
167.8364496097398
 30
0.0
 11
597.2412277204908
 21
168.8364496097371
 31
0.0
  0
LINE
  5
172
330
6F
100
AcDbEntity
  8
ANCHOR
  6
HIDDEN
100
AcDbLine
 10
597.2412277210463
 20
164.8364496097389
 30
0.0
 11
598.2412277210388
 21
165.836449609739
 31
0.0
  0
LINE
  5
173
330
6F
100
AcDbEntity
  8
ANCHOR
  6
HIDDEN
100
AcDbLine
 10
597.2412277207777
 20
164.8364496097379
 30
0.0
 11
597.2412277207628
 21
168.8364496097379
 31
0.0
  0
LINE
  5
174
330
6F
100
AcDbEntity
  8
ANCHOR
  6
HIDDEN
100
AcDbLine
 10
598.2412277205432
 20
165.8364496097379
 30
0.0
 11
598.2412277205337
 21
167.8364496097379
 31
0.0
  0
LINE
  5
175
330
6F
100
AcDbEntity
  8
ANCHOR
  6
HIDDEN
100
AcDbLine
 10
598.0412277210414
 20
165.6364496097384
 30
0.0
 11
587.7412277191507
 21
165.6364496097795
 31
0.0
  0
LINE
  5
176
330
6F
100
AcDbEntity
  8
ANCHOR
  6
HIDDEN
100
AcDbLine
 10
598.0412277205003
 20
168.036449609738
 30
0.0
 11
587.7412277191598
 21
168.0364496097791
 31
0.0
  0
LINE
  5
177
330
6F
100
AcDbEntity
  8
ANCHOR
  6
Continuous
100
AcDbLine
 10
585.7189171380127
 20
167.3346478573683
 30
0.0
 11
585.7189171380131
 21
166.3382513618861
 31
0.0
  0
LINE
  5
178
330
6F
100
AcDbEntity
  8
ANCHOR
  6
Continuous
100
AcDbLine
 10
585.7189171380124
 20
167.3346478573685
 30
0.0
 11
585.2412277193381
 21
167.3346478573685
 31
0.0
  0
LINE
  5
179
330
6F
100
AcDbEntity
  8
ANCHOR
  6
Continuous
100
AcDbLine
 10
585.7189171380127
 20
166.3382513618863
 30
0.0
 11
585.2412277193385
 21
166.3382513618863
 31
0.0
  0
LINE
  5
17A
330
6F
100
AcDbEntity
  8
ANCHOR
  6
Continuous
100
AcDbLine
 10
587.2412277193547
 20
162.1364496096253
 30
0.0
 11
587.7412277193548
 21
162.1364496096257
 31
0.0
  0
ARC
  5
17B
330
6F
100
AcDbEntity
  8
ANCHOR
  6
Continuous
100
AcDbCircle
 10
591.3326931136611
 20
166.66081817631
 30
0.0
 40
6.099999999999998
100
AcDbArc
 50
183.0312034848472
 51
227.876411461438
  0
LINE
  5
17C
330
6F
100
AcDbEntity
  8
ANCHOR
  6
Continuous
100
AcDbLine
 10
587.2412277193212
 20
171.5364496096272
 30
0.0
 11
587.2412277193557
 21
162.1364496096256
 31
0.0
  0
ARC
  5
17D
330
6F
100
AcDbEntity
  8
ANCHOR
  6
Continuous
100
AcDbCircle
 10
591.3326931136611
 20
167.0120810429476
 30
0.0
 40
6.099999999999998
100
AcDbArc
 50
132.1235885386251
 51
176.9687965152159
  0
LINE
  5
17E
330
6F
100
AcDbEntity
  8
ANCHOR
  6
Continuous
100
AcDbLine
 10
587.7412277193217
 20
171.5364496096285
 30
0.0
 11
587.7412277193561
 21
162.1364496096271
 31
0.0
  0
LINE
  5
17F
330
6F
100
AcDbEntity
  8
ANCHOR
  6
Continuous
100
AcDbLine
 10
587.2412277193507
 20
171.5364496096269
 30
0.0
 11
587.7412277193506
 21
171.5364496096273
 31
0.0
  0
LINE
  5
180
330
6F
100
AcDbEntity
  8
WASHER
  6
Continuous
100
AcDbLine
 10
592.7412277190032
 20
158.3364496096261
 30
0.0
 11
622.7412277190031
 21
158.3364496096261
 31
0.0
  0
LINE
  5
181
330
6F
100
AcDbEntity
  8
WASHER
  6
HIDDEN
100
AcDbLine
 10
610.9412277190032
 20
158.336449609626
 30
0.0
 11
610.9412277190032
 21
160.3364496096327
 31
0.0
  0
LINE
  5
182
330
6F
100
AcDbEntity
  8
WASHER
  6
HIDDEN
100
AcDbLine
 10
604.5412277190032
 20
158.336449609626
 30
0.0
 11
604.5412277190032
 21
160.3364496096191
 31
0.0
  0
INSERT
  5
183
330
6F
100
AcDbEntity
  8
COMMENT
  6
Continuous
100
AcDbBlockReference
  2
M4
 10
607.7412277190031
 20
162.7364496094666
 30
0.0
  0
INSERT
  5
184
330
6F
100
AcDbEntity
  8
COMMENT
  6
Continuous
100
AcDbBlockReference
  2
M5
 10
617.0612003824361
 20
160.3364496096263
 30
0.0
  0
INSERT
  5
185
330
6F
100
AcDbEntity
  8
COMMENT
  6
Continuous
100
AcDbBlockReference
  2
M6
 10
585.2412277193377
 20
167.3346478573688
 30
0.0
  0
INSERT
  5
186
330
6F
100
AcDbEntity
  8
COMMENT
  6
Continuous
100
AcDbBlockReference
  2
M7
 10
598.175048048338
 20
156.836449609626
 30
0.0
  0
LINE
  5
187
330
6F
100
AcDbEntity
  8
KUTAI
  6
Continuous
100
AcDbLine
 10
132.4720475945935
 20
158.336449609626
 30
0.0
 11
334.6456117066339
 21
158.336449609626
 31
0.0
  0
LINE
  5
188
330
6F
100
AcDbEntity
  8
LOUVER
  6
CENTER
100
AcDbLine
 10
242.7273721234328
 20
111.766394050431
 30
0.0
 11
242.7273721234328
 21
171.8068162692732
 31
0.0
  0
LINE
  5
189
330
6F
100
AcDbEntity
  8
WASHER
  6
Continuous
100
AcDbLine
 10
227.7273721234328
 20
161.8364496096258
 30
0.0
 11
257.7273721234328
 21
161.8364496096258
 31
0.0
  0
LINE
  5
18A
330
6F
100
AcDbEntity
  8
WASHER
  6
Continuous
100
AcDbLine
 10
257.7273721234328
 20
159.8364496096258
 30
0.0
 11
257.7273721234328
 21
161.8364496096258
 31
0.0
  0
LINE
  5
18B
330
6F
100
AcDbEntity
  8
WASHER
  6
Continuous
100
AcDbLine
 10
227.7273721234328
 20
159.8364496096258
 30
0.0
 11
227.7273721234328
 21
161.8364496096258
 31
0.0
  0
LINE
  5
18C
330
6F
100
AcDbEntity
  8
LOUVER
  6
CENTER
100
AcDbLine
 10
236.7877330595507
 20
168.3364496096092
 30
0.0
 11
218.3387701989777
 21
168.3364496096309
 31
0.0
  0
LINE
  5
18D
330
6F
100
AcDbEntity
  8
ANCHOR
  6
HIDDEN
100
AcDbLine
 10
232.2273721249208
 20
170.3364496097352
 30
0.0
 11
222.727372123592
 21
170.3364496097755
 31
0.0
  0
LINE
  5
18E
330
6F
100
AcDbEntity
  8
ANCHOR
  6
HIDDEN
100
AcDbLine
 10
232.2273721254759
 20
166.3364496097352
 30
0.0
 11
222.7273721235764
 21
166.3364496097755
 31
0.0
  0
LINE
  5
18F
330
6F
100
AcDbEntity
  8
ANCHOR
  6
HIDDEN
100
AcDbLine
 10
235.150021855686
 20
169.3364496097436
 30
0.0
 11
233.2273721249314
 21
169.3364496097398
 31
0.0
  0
LINE
  5
190
330
6F
100
AcDbEntity
  8
ANCHOR
  6
HIDDEN
100
AcDbLine
 10
235.1500218558819
 20
167.3364496097437
 30
0.0
 11
233.2273721254694
 21
167.3364496097398
 31
0.0
  0
LINE
  5
191
330
6F
100
AcDbEntity
  8
ANCHOR
  6
HIDDEN
100
AcDbLine
 10
235.7273721249738
 20
168.3364496095836
 30
0.0
 11
235.1500218556863
 21
169.3364496097443
 31
0.0
  0
LINE
  5
192
330
6F
100
AcDbEntity
  8
ANCHOR
  6
HIDDEN
100
AcDbLine
 10
235.1500218558826
 20
167.336449609745
 30
0.0
 11
235.7273721249743
 21
168.3364496095839
 31
0.0
  0
ARC
  5
193
330
6F
100
AcDbEntity
  8
ANCHOR
  6
HIDDEN
100
AcDbCircle
 10
233.7273721254787
 20
168.3364496097421
 30
0.0
 40
0.5
100
AcDbArc
 50
97.20679386168658
 51
262.7932061387912
  0
LINE
  5
194
330
6F
100
AcDbEntity
  8
ANCHOR
  6
HIDDEN
100
AcDbLine
 10
233.6646466890138
 20
167.840399693281
 30
0.0
 11
235.150021855882
 21
167.3364496097432
 31
0.0
  0
LINE
  5
195
330
6F
100
AcDbEntity
  8
ANCHOR
  6
HIDDEN
100
AcDbLine
 10
233.6646466890101
 20
168.8324995262019
 30
0.0
 11
235.1500218556859
 21
169.3364496097439
 31
0.0
  0
LINE
  5
196
330
6F
100
AcDbEntity
  8
ANCHOR
  6
HIDDEN
100
AcDbLine
 10
233.2273721249297
 20
169.3364496097394
 30
0.0
 11
232.2273721249204
 21
170.3364496097367
 31
0.0
  0
LINE
  5
197
330
6F
100
AcDbEntity
  8
ANCHOR
  6
HIDDEN
100
AcDbLine
 10
232.227372125476
 20
166.3364496097385
 30
0.0
 11
233.2273721254686
 21
167.3364496097387
 31
0.0
  0
LINE
  5
198
330
6F
100
AcDbEntity
  8
ANCHOR
  6
HIDDEN
100
AcDbLine
 10
232.2273721252073
 20
166.3364496097375
 30
0.0
 11
232.2273721251925
 21
170.3364496097375
 31
0.0
  0
LINE
  5
199
330
6F
100
AcDbEntity
  8
ANCHOR
  6
HIDDEN
100
AcDbLine
 10
233.2273721249726
 20
167.3364496097376
 30
0.0
 11
233.2273721249634
 21
169.3364496097376
 31
0.0
  0
LINE
  5
19A
330
6F
100
AcDbEntity
  8
ANCHOR
  6
HIDDEN
100
AcDbLine
 10
233.0273721254709
 20
167.136449609738
 30
0.0
 11
222.7273721235803
 21
167.1364496097791
 31
0.0
  0
LINE
  5
19B
330
6F
100
AcDbEntity
  8
ANCHOR
  6
HIDDEN
100
AcDbLine
 10
233.0273721249297
 20
169.5364496097376
 30
0.0
 11
222.7273721235894
 21
169.5364496097787
 31
0.0
  0
LINE
  5
19C
330
6F
100
AcDbEntity
  8
ANCHOR
  6
Continuous
100
AcDbLine
 10
220.7050615424424
 20
168.8346478573679
 30
0.0
 11
220.7050615424429
 21
167.8382513618856
 31
0.0
  0
LINE
  5
19D
330
6F
100
AcDbEntity
  8
ANCHOR
  6
Continuous
100
AcDbLine
 10
220.7050615424421
 20
168.8346478573681
 30
0.0
 11
220.2273721237678
 21
168.8346478573681
 31
0.0
  0
LINE
  5
19E
330
6F
100
AcDbEntity
  8
ANCHOR
  6
Continuous
100
AcDbLine
 10
220.7050615424426
 20
167.8382513618859
 30
0.0
 11
220.2273721237682
 21
167.8382513618859
 31
0.0
  0
LINE
  5
19F
330
6F
100
AcDbEntity
  8
ANCHOR
  6
Continuous
100
AcDbLine
 10
222.2273721237846
 20
163.6364496096248
 30
0.0
 11
222.7273721237846
 21
163.6364496096252
 31
0.0
  0
ARC
  5
1A0
330
6F
100
AcDbEntity
  8
ANCHOR
  6
Continuous
100
AcDbCircle
 10
226.3188375180907
 20
168.1608181763096
 30
0.0
 40
6.099999999999998
100
AcDbArc
 50
183.0312034848472
 51
227.876411461438
  0
LINE
  5
1A1
330
6F
100
AcDbEntity
  8
ANCHOR
  6
Continuous
100
AcDbLine
 10
222.2273721237506
 20
173.0364496096268
 30
0.0
 11
222.2273721237854
 21
163.6364496096252
 31
0.0
  0
ARC
  5
1A2
330
6F
100
AcDbEntity
  8
ANCHOR
  6
Continuous
100
AcDbCircle
 10
226.3188375180907
 20
168.5120810429472
 30
0.0
 40
6.099999999999998
100
AcDbArc
 50
132.1235885386251
 51
176.9687965152159
  0
LINE
  5
1A3
330
6F
100
AcDbEntity
  8
ANCHOR
  6
Continuous
100
AcDbLine
 10
222.7273721237515
 20
173.0364496096282
 30
0.0
 11
222.7273721237862
 21
163.6364496096267
 31
0.0
  0
LINE
  5
1A4
330
6F
100
AcDbEntity
  8
ANCHOR
  6
Continuous
100
AcDbLine
 10
222.2273721237803
 20
173.0364496096265
 30
0.0
 11
222.7273721237803
 21
173.0364496096269
 31
0.0
  0
LINE
  5
1A5
330
6F
100
AcDbEntity
  8
WASHER
  6
Continuous
100
AcDbLine
 10
227.7273721234328
 20
159.8364496096258
 30
0.0
 11
257.7273721234328
 21
159.8364496096258
 31
0.0
  0
LINE
  5
1A6
330
6F
100
AcDbEntity
  8
WASHER
  6
HIDDEN
100
AcDbLine
 10
245.9273721234329
 20
159.8364496096256
 30
0.0
 11
245.9273721234329
 21
161.8364496096323
 31
0.0
  0
LINE
  5
1A7
330
6F
100
AcDbEntity
  8
WASHER
  6
HIDDEN
100
AcDbLine
 10
239.527372123433
 20
159.8364496096256
 30
0.0
 11
239.527372123433
 21
161.8364496096188
 31
0.0
  0
INSERT
  5
1A8
330
6F
100
AcDbEntity
  8
COMMENT
  6
Continuous
100
AcDbBlockReference
  2
M8
 10
242.7273721234328
 20
164.2364496094663
 30
0.0
  0
INSERT
  5
1A9
330
6F
100
AcDbEntity
  8
COMMENT
  6
Continuous
100
AcDbBlockReference
  2
M9
 10
252.0473447868658
 20
161.836449609626
 30
0.0
  0
INSERT
  5
1AA
330
6F
100
AcDbEntity
  8
COMMENT
  6
Continuous
100
AcDbBlockReference
  2
M10
 10
223.1611924527676
 20
158.3364496096256
 30
0.0
  0
LINE
  5
1AB
330
6F
100
AcDbEntity
  8
ANCHOR
  6
Continuous
100
AcDbLine
 10
248.2273721234651
 20
161.8364496096299
 30
0.0
 11
237.2273721234651
 21
161.8364496096218
 31
0.0
  0
LINE
  5
1AC
330
6F
100
AcDbEntity
  8
ANCHOR
  6
Continuous
100
AcDbLine
 10
248.2273721234645
 20
161.8364496096304
 30
0.0
 11
248.2273721234648
 21
162.6364496096301
 31
0.0
  0
LINE
  5
1AD
330
6F
100
AcDbEntity
  8
ANCHOR
  6
Continuous
100
AcDbLine
 10
237.2273721234645
 20
161.8364496096219
 30
0.0
 11
237.2273721234648
 21
162.6364496096221
 31
0.0
  0
LINE
  5
1AE
330
6F
100
AcDbEntity
  8
ANCHOR
  6
Continuous
100
AcDbLine
 10
248.2273721234645
 20
162.6364496096301
 30
0.0
 11
237.2273721234645
 21
162.636449609622
 31
0.0
  0
ARC
  5
1AF
330
6F
100
AcDbEntity
  8
ANCHOR
  6
Continuous
100
AcDbCircle
 10
242.7273721234668
 20
158.7805672566849
 30
0.0
 40
5.555882352941173
100
AcDbArc
 50
43.94901598298635
 51
136.0509840170985
  0
LINE
  5
1B0
330
6F
100
AcDbEntity
  8
ANCHOR
  6
HIDDEN
100
AcDbLine
 10
240.7273721233263
 20
125.3364496096783
 30
0.0
 11
240.7273721232859
 21
161.8364496098018
 31
0.0
  0
LINE
  5
1B1
330
6F
100
AcDbEntity
  8
ANCHOR
  6
HIDDEN
100
AcDbLine
 10
244.7273721233263
 20
125.3364496091232
 30
0.0
 11
244.7273721232859
 21
161.8364496098174
 31
0.0
  0
LINE
  5
1B2
330
6F
100
AcDbEntity
  8
ANCHOR
  6
HIDDEN
100
AcDbLine
 10
241.7273721233181
 20
122.4137998789131
 30
0.0
 11
241.727372123322
 21
124.3364496096676
 31
0.0
  0
LINE
  5
1B3
330
6F
100
AcDbEntity
  8
ANCHOR
  6
HIDDEN
100
AcDbLine
 10
243.7273721233181
 20
122.4137998787172
 30
0.0
 11
243.727372123322
 21
124.3364496091297
 31
0.0
  0
LINE
  5
1B4
330
6F
100
AcDbEntity
  8
ANCHOR
  6
HIDDEN
100
AcDbLine
 10
242.7273721234784
 20
121.836449609625
 30
0.0
 11
241.7273721233177
 21
122.4137998789124
 31
0.0
  0
LINE
  5
1B5
330
6F
100
AcDbEntity
  8
ANCHOR
  6
HIDDEN
100
AcDbLine
 10
243.727372123317
 20
122.4137998787168
 30
0.0
 11
242.7273721234781
 21
121.836449609625
 31
0.0
  0
ARC
  5
1B6
330
6F
100
AcDbEntity
  8
ANCHOR
  6
HIDDEN
100
AcDbCircle
 10
242.7273721233194
 20
123.8364496091199
 30
0.0
 40
0.5
100
AcDbArc
 50
7.206793861208892
 51
172.7932061383134
  0
LINE
  5
1B7
330
6F
100
AcDbEntity
  8
ANCHOR
  6
HIDDEN
100
AcDbLine
 10
243.2234220397804
 20
123.8991750455848
 30
0.0
 11
243.7273721233182
 21
122.4137998787164
 31
0.0
  0
LINE
  5
1B8
330
6F
100
AcDbEntity
  8
ANCHOR
  6
HIDDEN
100
AcDbLine
 10
242.2313222068599
 20
123.8991750455883
 30
0.0
 11
241.7273721233178
 21
122.4137998789128
 31
0.0
  0
LINE
  5
1B9
330
6F
100
AcDbEntity
  8
ANCHOR
  6
HIDDEN
100
AcDbLine
 10
241.7273721233227
 20
124.3364496096696
 30
0.0
 11
240.7273721233254
 21
125.336449609679
 31
0.0
  0
LINE
  5
1BA
330
6F
100
AcDbEntity
  8
ANCHOR
  6
HIDDEN
100
AcDbLine
 10
244.7273721233234
 20
125.3364496091232
 30
0.0
 11
243.7273721233232
 21
124.3364496091307
 31
0.0
  0
LINE
  5
1BB
330
6F
100
AcDbEntity
  8
ANCHOR
  6
HIDDEN
100
AcDbLine
 10
244.727372123324
 20
125.3364496093916
 30
0.0
 11
240.727372123324
 21
125.3364496094064
 31
0.0
  0
LINE
  5
1BC
330
6F
100
AcDbEntity
  8
ANCHOR
  6
HIDDEN
100
AcDbLine
 10
243.7273721233241
 20
124.3364496096263
 30
0.0
 11
241.7273721233241
 21
124.3364496096355
 31
0.0
  0
LINE
  5
1BD
330
6F
100
AcDbEntity
  8
ANCHOR
  6
HIDDEN
100
AcDbLine
 10
243.9273721233238
 20
124.5364496091281
 30
0.0
 11
243.9273721232827
 21
161.8364496098135
 31
0.0
  0
LINE
  5
1BE
330
6F
100
AcDbEntity
  8
ANCHOR
  6
HIDDEN
100
AcDbLine
 10
241.5273721233242
 20
124.5364496096693
 30
0.0
 11
241.5273721232831
 21
161.8364496098043
 31
0.0
  0
LINE
  5
1BF
330
6F
100
AcDbEntity
  8
KUTAI
  6
Continuous
100
AcDbLine
 10
227.7273721234328
 20
97.33644960962593
 30
0.0
 11
227.7273721234328
 21
153.336449609626
 31
0.0
  0
LINE
  5
1C0
330
6F
100
AcDbEntity
  8
KUTAI
  6
Continuous
100
AcDbLine
 10
229.7273721234328
 20
95.33644960962595
 30
0.0
 11
255.7273721234328
 21
95.33644960962595
 31
0.0
  0
LINE
  5
1C1
330
6F
100
AcDbEntity
  8
KUTAI
  6
Continuous
100
AcDbLine
 10
230.3273721234328
 20
153.736449609626
 30
0.0
 11
255.1273721234328
 21
153.736449609626
 31
0.0
  0
LINE
  5
1C2
330
6F
100
AcDbEntity
  8
KUTAI
  6
Continuous
100
AcDbLine
 10
229.3273721234328
 20
97.93644960962595
 30
0.0
 11
229.3273721234328
 21
152.736449609626
 31
0.0
  0
LINE
  5
1C3
330
6F
100
AcDbEntity
  8
KUTAI
  6
Continuous
100
AcDbLine
 10
230.3273721234328
 20
96.93644960962595
 30
0.0
 11
255.1273721234329
 21
96.93644960962595
 31
0.0
  0
LINE
  5
1C4
330
6F
100
AcDbEntity
  8
KUTAI
  6
Continuous
100
AcDbLine
 10
256.1273721234328
 20
145.336449609626
 30
0.0
 11
257.7273721234328
 21
145.336449609626
 31
0.0
  0
LINE
  5
1C5
330
6F
100
AcDbEntity
  8
KUTAI
  6
Continuous
100
AcDbLine
 10
256.1273721234328
 20
105.336449609626
 30
0.0
 11
257.7273721234328
 21
105.336449609626
 31
0.0
  0
LINE
  5
1C6
330
6F
100
AcDbEntity
  8
KUTAI
  6
Continuous
100
AcDbLine
 10
256.1273721234328
 20
97.93644960962595
 30
0.0
 11
256.1273721234328
 21
105.336449609626
 31
0.0
  0
LINE
  5
1C7
330
6F
100
AcDbEntity
  8
KUTAI
  6
Continuous
100
AcDbLine
 10
256.1273721234328
 20
145.336449609626
 30
0.0
 11
256.1273721234328
 21
152.736449609626
 31
0.0
  0
LINE
  5
1C8
330
6F
100
AcDbEntity
  8
KUTAI
  6
Continuous
100
AcDbLine
 10
257.7273721234328
 20
97.33644960962593
 30
0.0
 11
257.7273721234328
 21
105.336449609626
 31
0.0
  0
LINE
  5
1C9
330
6F
100
AcDbEntity
  8
KUTAI
  6
Continuous
100
AcDbLine
 10
257.7273721234328
 20
145.336449609626
 30
0.0
 11
257.7273721234328
 21
153.336449609626
 31
0.0
  0
ARC
  5
1CA
330
6F
100
AcDbEntity
  8
KUTAI
  6
Continuous
100
AcDbCircle
 10
255.7273721234328
 20
153.336449609626
 30
0.0
 40
2.0
100
AcDbArc
 50
0.0
 51
90.0
  0
ARC
  5
1CB
330
6F
100
AcDbEntity
  8
KUTAI
  6
Continuous
100
AcDbCircle
 10
229.7273721234328
 20
153.336449609626
 30
0.0
 40
2.0
100
AcDbArc
 50
90.0
 51
180.0
  0
ARC
  5
1CC
330
6F
100
AcDbEntity
  8
KUTAI
  6
Continuous
100
AcDbCircle
 10
229.7273721234328
 20
97.33644960962593
 30
0.0
 40
2.0
100
AcDbArc
 50
180.0
 51
270.0
  0
ARC
  5
1CD
330
6F
100
AcDbEntity
  8
KUTAI
  6
Continuous
100
AcDbCircle
 10
255.7273721234328
 20
97.33644960962593
 30
0.0
 40
2.0
100
AcDbArc
 50
270.0
 51
0.0
  0
ARC
  5
1CE
330
6F
100
AcDbEntity
  8
KUTAI
  6
Continuous
100
AcDbCircle
 10
255.1273721234329
 20
97.93644960962595
 30
0.0
 40
1.0
100
AcDbArc
 50
270.0
 51
0.0
  0
ARC
  5
1CF
330
6F
100
AcDbEntity
  8
KUTAI
  6
Continuous
100
AcDbCircle
 10
255.1273721234328
 20
152.736449609626
 30
0.0
 40
1.0
100
AcDbArc
 50
0.0
 51
90.0
  0
ARC
  5
1D0
330
6F
100
AcDbEntity
  8
KUTAI
  6
Continuous
100
AcDbCircle
 10
230.3273721234328
 20
152.736449609626
 30
0.0
 40
1.0
100
AcDbArc
 50
90.0
 51
180.0
  0
ARC
  5
1D1
330
6F
100
AcDbEntity
  8
KUTAI
  6
Continuous
100
AcDbCircle
 10
230.3273721234328
 20
97.93644960962595
 30
0.0
 40
1.0
100
AcDbArc
 50
180.0
 51
270.0
  0
INSERT
  5
1D2
330
6F
100
AcDbEntity
  8
COMMENT
  6
Continuous
100
AcDbBlockReference
  2
M11
 10
227.7273721234328
 20
111.9183403354645
 30
0.0
  0
LINE
  5
1D3
330
6F
100
AcDbEntity
  8
KUTAI
  6
Continuous
100
AcDbLine
 10
132.4720475945935
 20
155.336449609626
 30
0.0
 11
334.6456117066339
 21
155.336449609626
 31
0.0
  0
INSERT
  5
1D4
330
6F
100
AcDbEntity
  8
KUTAI
  6
Continuous
100
AcDbBlockReference
  2
*X12
 10
0.0
 20
0.0
 30
0.0
  0
TEXT
  5
1D5
330
6F
100
AcDbEntity
  8
COMMENT
  6
Continuous
100
AcDbText
 10
349.9418172490461
 20
322.2594101746117
 30
0.0
 40
6.0
  1
RC納まり図
  7
KNJYOKO
100
AcDbText
  0
LINE
  5
1D6
330
6F
100
AcDbEntity
  8
COMMENT
  6
Continuous
100
AcDbLine
 10
343.7194436660042
 20
316.0977062953458
 30
0.0
 11
393.4272863119038
 21
316.0977062953458
 31
0.0
  0
LINE
  5
1D7
330
6F
100
AcDbEntity
  8
COMMENT
  6
Continuous
100
AcDbLine
 10
393.4272863119038
 20
316.0977062953458
 30
0.0
 11
393.4272863119038
 21
332.4572886387153
 31
0.0
  0
LINE
  5
1D8
330
6F
100
AcDbEntity
  8
COMMENT
  6
Continuous
100
AcDbLine
 10
393.4272863119038
 20
332.4572886387153
 30
0.0
 11
343.7194436660042
 21
332.4572886387153
 31
0.0
  0
LINE
  5
1D9
330
6F
100
AcDbEntity
  8
COMMENT
  6
Continuous
100
AcDbLine
 10
343.7194436660042
 20
332.4572886387153
 30
0.0
 11
343.7194436660042
 21
316.0977062953458
 31
0.0
  0
TEXT
  5
1DA
330
6F
100
AcDbEntity
  8
COMMENT
  6
Continuous
100
AcDbText
 10
727.6557351031136
 20
321.7013496810606
 30
0.0
 40
6.0
  1
ALC納まり図
  7
KNJYOKO
100
AcDbText
  0
LINE
  5
1DB
330
6F
100
AcDbEntity
  8
COMMENT
  6
Continuous
100
AcDbLine
 10
723.8888328008928
 20
316.0977062953458
 30
0.0
 11
773.5966754467924
 21
316.0977062953458
 31
0.0
  0
LINE
  5
1DC
330
6F
100
AcDbEntity
  8
COMMENT
  6
Continuous
100
AcDbLine
 10
773.5966754467924
 20
316.0977062953458
 30
0.0
 11
773.5966754467924
 21
332.4572886387153
 31
0.0
  0
LINE
  5
1DD
330
6F
100
AcDbEntity
  8
COMMENT
  6
Continuous
100
AcDbLine
 10
773.5966754467924
 20
332.4572886387153
 30
0.0
 11
723.8888328008928
 21
332.4572886387153
 31
0.0
  0
LINE
  5
1DE
330
6F
100
AcDbEntity
  8
COMMENT
  6
Continuous
100
AcDbLine
 10
723.8888328008928
 20
332.4572886387153
 30
0.0
 11
723.8888328008928
 21
316.0977062953458
 31
0.0
  0
TEXT
  5
1DF
330
6F
100
AcDbEntity
  8
COMMENT
  6
Continuous
100
AcDbText
 10
727.6696757584102
 20
53.68204903107908
 30
0.0
 40
6.0
  1
ECP納まり図
  7
KNJYOKO
100
AcDbText
  0
LINE
  5
1E0
330
6F
100
AcDbEntity
  8
COMMENT
  6
Continuous
100
AcDbLine
 10
723.8888328008928
 20
47.52034515181314
 30
0.0
 11
773.5966754467924
 21
47.52034515181314
 31
0.0
  0
LINE
  5
1E1
330
6F
100
AcDbEntity
  8
COMMENT
  6
Continuous
100
AcDbLine
 10
773.5966754467924
 20
47.52034515181314
 30
0.0
 11
773.5966754467924
 21
63.87992749518264
 31
0.0
  0
LINE
  5
1E2
330
6F
100
AcDbEntity
  8
COMMENT
  6
Continuous
100
AcDbLine
 10
773.5966754467924
 20
63.87992749518264
 30
0.0
 11
723.8888328008928
 21
63.87992749518264
 31
0.0
  0
LINE
  5
1E3
330
6F
100
AcDbEntity
  8
COMMENT
  6
Continuous
100
AcDbLine
 10
723.8888328008928
 20
63.87992749518264
 30
0.0
 11
723.8888328008928
 21
47.52034515181314
 31
0.0
  0
TEXT
  5
1E4
330
6F
100
AcDbEntity
  8
COMMENT
  6
Continuous
100
AcDbText
 10
349.941817249046
 20
53.68204903107908
 30
0.0
 40
6.0
  1
鉄骨納まり図
  7
KNJYOKO
100
AcDbText
  0
LINE
  5
1E5
330
6F
100
AcDbEntity
  8
COMMENT
  6
Continuous
100
AcDbLine
 10
343.7194436660041
 20
47.52034515181314
 30
0.0
 11
393.4272863119038
 21
47.52034515181314
 31
0.0
  0
LINE
  5
1E6
330
6F
100
AcDbEntity
  8
COMMENT
  6
Continuous
100
AcDbLine
 10
393.4272863119038
 20
47.52034515181314
 30
0.0
 11
393.4272863119038
 21
63.87992749518264
 31
0.0
  0
LINE
  5
1E7
330
6F
100
AcDbEntity
  8
COMMENT
  6
Continuous
100
AcDbLine
 10
393.4272863119038
 20
63.87992749518264
 30
0.0
 11
343.7194436660041
 21
63.87992749518264
 31
0.0
  0
LINE
  5
1E8
330
6F
100
AcDbEntity
  8
COMMENT
  6
Continuous
100
AcDbLine
 10
343.7194436660041
 20
63.87992749518264
 30
0.0
 11
343.7194436660041
 21
47.52034515181314
 31
0.0
  0
LINE
  5
1E9
330
6F
100
AcDbEntity
  8
WAKU
  6
Continuous
100
AcDbLine
 10
33.25789717601344
 20
27.52034515181316
 30
0.0
 11
793.5966754467925
 21
27.52034515181316
 31
0.0
  0
LINE
  5
1EA
330
6F
100
AcDbEntity
  8
WAKU
  6
Continuous
100
AcDbLine
 10
793.5966754467925
 20
27.52034515181316
 30
0.0
 11
793.5966754467925
 21
574.6750674359868
 31
0.0
  0
LINE
  5
1EB
330
6F
100
AcDbEntity
  8
WAKU
  6
Continuous
100
AcDbLine
 10
33.25789717601344
 20
574.6750674359868
 30
0.0
 11
33.25789717601344
 21
27.52034515181316
 31
0.0
  0
LINE
  5
1EC
330
6F
100
AcDbEntity
  8
WAKU
  6
Continuous
100
AcDbLine
 10
793.5966754467925
 20
296.0977062953458
 30
0.0
 11
33.25789717601344
 21
296.0977062953458
 31
0.0
  0
LINE
  5
1ED
330
6F
100
AcDbEntity
  8
WAKU
  6
Continuous
100
AcDbLine
 10
413.4272863119038
 20
27.52034515181315
 30
0.0
 11
413.4272863119038
 21
549.6750674359868
 31
0.0
  0
LINE
  5
1EE
330
6F
100
AcDbEntity
  8
WAKU
  6
Continuous
100
AcDbLine
 10
793.5966754467925
 20
574.6750674359868
 30
0.0
 11
33.25789717601344
 21
574.6750674359868
 31
0.0
  0
LINE
  5
1EF
330
6F
100
AcDbEntity
  8
WAKU
  6
Continuous
100
AcDbLine
 10
793.5966754467925
 20
549.6750674359868
 30
0.0
 11
33.25789717601344
 21
549.6750674359868
 31
0.0
  0
INSERT
  5
1F0
330
6F
100
AcDbEntity
  8
COMMENT
  6
Continuous
100
AcDbBlockReference
  2
M12
 10
585.2412277193378
 20
446.2537673600441
 30
0.0
  0
INSERT
  5
1F1
330
6F
100
AcDbEntity
  8
COMMENT
  6
Continuous
100
AcDbBlockReference
  2
M13
 10
220.2273721229401
 20
168.8346478573686
 30
0.0
  0
INSERT
  5
1F2
330
6F
100
AcDbEntity
  8
COMMENT
  6
Continuous
100
AcDbBlockReference
  2
M14
 10
220.2273721221127
 20
431.2537673600441
 30
0.0
  0
ARC
  5
1F3
330
6F
100
AcDbEntity
  8
LOUVER
  6
Continuous
100
AcDbCircle
 10
607.7412277201057
 20
228.3364496096398
 30
0.0
 40
2.1
100
AcDbArc
 50
171.042328421765
 51
188.9576715807843
  0
ARC
  5
1F4
330
6F
100
AcDbEntity
  8
LOUVER
  6
Continuous
100
AcDbCircle
 10
607.7412277201057
 20
228.3364496096398
 30
0.0
 40
1.8
100
AcDbArc
 50
200.3599951900864
 51
222.7186445082694
  0
ARC
  5
1F5
330
6F
100
AcDbEntity
  8
LOUVER
  6
Continuous
100
AcDbCircle
 10
605.8644008037502
 20
228.0406105891567
 30
0.0
 40
0.2
100
AcDbArc
 50
188.9576715807859
 51
269.9999999998204
  0
ARC
  5
1F6
330
6F
100
AcDbEntity
  8
LOUVER
  6
Continuous
100
AcDbCircle
 10
605.8644008037362
 20
228.6322886300401
 30
0.0
 40
0.2
100
AcDbArc
 50
89.99999999982042
 51
171.0423284217637
  0
ARC
  5
1F7
330
6F
100
AcDbEntity
  8
LOUVER
  6
Continuous
100
AcDbCircle
 10
605.8661774411431
 20
229.0322846844698
 30
0.0
 40
0.2
100
AcDbArc
 50
269.9999999998204
 51
339.6400048124608
  0
ARC
  5
1F8
330
6F
100
AcDbEntity
  8
LOUVER
  6
Continuous
100
AcDbCircle
 10
605.866177441174
 20
227.640614534727
 30
0.0
 40
0.2
100
AcDbArc
 50
20.35999519009133
 51
89.99999999982028
  0
ARC
  5
1F9
330
6F
100
AcDbEntity
  8
LOUVER
  6
Continuous
100
AcDbCircle
 10
605.9412277199283
 20
226.6743725959728
 30
0.0
 40
0.6500000000000014
100
AcDbArc
 50
222.7186445082704
 51
42.71864450827043
  0
ARC
  5
1FA
330
6F
100
AcDbEntity
  8
LOUVER
  6
Continuous
100
AcDbCircle
 10
607.7412277201057
 20
228.3364496096398
 30
0.0
 40
1.8
100
AcDbArc
 50
110.3599951900866
 51
159.6400048124626
  0
ARC
  5
1FB
330
6F
100
AcDbEntity
  8
LOUVER
  6
Continuous
100
AcDbCircle
 10
607.7412277201057
 20
228.3364496096398
 30
0.0
 40
1.8
100
AcDbArc
 50
317.281355473095
 51
339.6400048124627
  0
ARC
  5
1FC
330
6F
100
AcDbEntity
  8
LOUVER
  6
Continuous
100
AcDbCircle
 10
607.7412277201057
 20
228.3364496096398
 30
0.0
 40
1.8
100
AcDbArc
 50
20.35999519008635
 51
69.64000481246268
  0
ARC
  5
1FD
330
6F
100
AcDbEntity
  8
LOUVER
  6
Continuous
100
AcDbCircle
 10
609.5412277197429
 20
226.6743725953871
 30
0.0
 40
0.6500000000000048
100
AcDbArc
 50
137.2813554730932
 51
317.2813554730932
  0
ARC
  5
1FE
330
6F
100
AcDbEntity
  8
LOUVER
  6
Continuous
100
AcDbCircle
 10
607.7412277201057
 20
228.3364496096398
 30
0.0
 40
3.1
100
AcDbArc
 50
317.2813554730942
 51
21.59674775560783
  0
ARC
  5
1FF
330
6F
100
AcDbEntity
  8
LOUVER
  6
Continuous
100
AcDbCircle
 10
607.7412277201057
 20
228.3364496096398
 30
0.0
 40
3.1
100
AcDbArc
 50
158.4032522443896
 51
222.7186445082701
  0
LINE
  5
200
330
6F
100
AcDbEntity
  8
LOUVER
  6
Continuous
100
AcDbLine
 10
605.8661774411769
 20
227.8406145347263
 30
0.0
 11
605.8644008037502
 21
227.8406105891562
 31
0.0
  0
LINE
  5
201
330
6F
100
AcDbEntity
  8
LOUVER
  6
Continuous
100
AcDbLine
 10
605.8661774411423
 20
228.8322846844694
 30
0.0
 11
605.8644008037365
 21
228.8322886300394
 31
0.0
  0
ARC
  5
202
330
6F
100
AcDbEntity
  8
LOUVER
  6
Continuous
100
AcDbCircle
 10
607.7412277201057
 20
228.3364496096407
 30
0.0
 40
2.1
100
AcDbArc
 50
81.042328421765
 51
98.95767158078427
  0
ARC
  5
203
330
6F
100
AcDbEntity
  8
LOUVER
  6
Continuous
100
AcDbCircle
 10
607.4453886996226
 20
230.2132765259963
 30
0.0
 40
0.2
100
AcDbArc
 50
98.95767158078593
 51
179.9999999998205
  0
ARC
  5
204
330
6F
100
AcDbEntity
  8
LOUVER
  6
Continuous
100
AcDbCircle
 10
608.037066740506
 20
230.21327652601
 30
0.0
 40
0.2
100
AcDbArc
 50
359.9999999998204
 51
81.04232842176369
  0
ARC
  5
205
330
6F
100
AcDbEntity
  8
LOUVER
  6
Continuous
100
AcDbCircle
 10
608.4370627949357
 20
230.2114998886024
 30
0.0
 40
0.2
100
AcDbArc
 50
179.9999999998204
 51
249.6400048124609
  0
ARC
  5
206
330
6F
100
AcDbEntity
  8
LOUVER
  6
Continuous
100
AcDbCircle
 10
607.0453926451929
 20
230.2114998885714
 30
0.0
 40
0.2
100
AcDbArc
 50
290.3599951900913
 51
359.9999999998204
  0
LINE
  5
207
330
6F
100
AcDbEntity
  8
LOUVER
  6
Continuous
100
AcDbLine
 10
607.2453926451933
 20
230.2114998885701
 30
0.0
 11
607.2453886996231
 21
230.2132765259958
 31
0.0
  0
LINE
  5
208
330
6F
100
AcDbEntity
  8
LOUVER
  6
Continuous
100
AcDbLine
 10
608.2370627949351
 20
230.2114998886026
 30
0.0
 11
608.2370667405053
 21
230.2132765260082
 31
0.0
  0
ARC
  5
209
330
6F
100
AcDbEntity
  8
LOUVER
  6
Continuous
100
AcDbCircle
 10
607.7412277201057
 20
228.3364496096398
 30
0.0
 40
2.1
100
AcDbArc
 50
351.042328421765
 51
8.95767158078419
  0
ARC
  5
20A
330
6F
100
AcDbEntity
  8
LOUVER
  6
Continuous
100
AcDbCircle
 10
609.6180546364622
 20
228.6322886301238
 30
0.0
 40
0.2
100
AcDbArc
 50
8.957671580785854
 51
89.99999999982028
  0
ARC
  5
20B
330
6F
100
AcDbEntity
  8
LOUVER
  6
Continuous
100
AcDbCircle
 10
609.6180546364759
 20
228.0406105892404
 30
0.0
 40
0.2
100
AcDbArc
 50
269.9999999998204
 51
351.0423284217637
  0
ARC
  5
20C
330
6F
100
AcDbEntity
  8
LOUVER
  6
Continuous
100
AcDbCircle
 10
609.6162779990682
 20
227.6406145348107
 30
0.0
 40
0.2
100
AcDbArc
 50
89.99999999982042
 51
159.6400048124608
  0
ARC
  5
20D
330
6F
100
AcDbEntity
  8
LOUVER
  6
Continuous
100
AcDbCircle
 10
609.6162779990374
 20
229.0322846845535
 30
0.0
 40
0.2
100
AcDbArc
 50
200.3599951900913
 51
269.9999999998204
  0
LINE
  5
20E
330
6F
100
AcDbEntity
  8
LOUVER
  6
Continuous
100
AcDbLine
 10
609.6162779990367
 20
228.8322846845524
 30
0.0
 11
609.6180546364614
 21
228.8322886301225
 31
0.0
  0
LINE
  5
20F
330
6F
100
AcDbEntity
  8
LOUVER
  6
Continuous
100
AcDbLine
 10
609.616277999069
 20
227.8406145348091
 30
0.0
 11
609.6180546364755
 21
227.8406105892391
 31
0.0
  0
LINE
  5
210
330
6F
100
AcDbEntity
  8
LOUVER
  6
Continuous
100
AcDbLine
 10
587.7412277201053
 20
231.83644960964
 30
0.0
 11
627.7412277201054
 21
231.83644960964
 31
0.0
  0
LINE
  5
211
330
6F
100
AcDbEntity
  8
LOUVER
  6
Continuous
100
AcDbLine
 10
590.2412277202455
 20
166.6364496096238
 30
0.0
 11
588.9412277201024
 21
166.6364496096238
 31
0.0
  0
LINE
  5
212
330
6F
100
AcDbEntity
  8
LOUVER
  6
Continuous
100
AcDbLine
 10
589.5412277200478
 20
157.8364496096401
 30
0.0
 11
589.5412277200466
 21
162.8364496093282
 31
0.0
  0
LINE
  5
213
330
6F
100
AcDbEntity
  8
LOUVER
  6
Continuous
100
AcDbLine
 10
589.5412277200502
 20
157.8364496096409
 30
0.0
 11
587.7412277201017
 21
157.8364496096409
 31
0.0
  0
LINE
  5
214
330
6F
100
AcDbEntity
  8
LOUVER
  6
Continuous
100
AcDbLine
 10
588.9412277201017
 20
171.8364496096414
 30
0.0
 11
593.0412277201012
 21
171.8364496096427
 31
0.0
  0
LINE
  5
215
330
6F
100
AcDbEntity
  8
LOUVER
  6
Continuous
100
AcDbLine
 10
593.041227720102
 20
171.8364496096428
 30
0.0
 11
593.041227720102
 21
173.0364496096426
 31
0.0
  0
LINE
  5
216
330
6F
100
AcDbEntity
  8
LOUVER
  6
Continuous
100
AcDbLine
 10
588.9412277201024
 20
173.036449609641
 30
0.0
 11
593.0412277201018
 21
173.0364496096424
 31
0.0
  0
ARC
  5
217
330
6F
100
AcDbEntity
  8
LOUVER
  6
Continuous
100
AcDbCircle
 10
607.7412277201057
 20
200.8364496096398
 30
0.0
 40
2.1
100
AcDbArc
 50
171.0423284192157
 51
188.9576715782349
  0
ARC
  5
218
330
6F
100
AcDbEntity
  8
LOUVER
  6
Continuous
100
AcDbCircle
 10
607.7412277201057
 20
200.8364496096398
 30
0.0
 40
1.8
100
AcDbArc
 50
137.2813554917305
 51
159.6400048099136
  0
ARC
  5
219
330
6F
100
AcDbEntity
  8
LOUVER
  6
Continuous
100
AcDbCircle
 10
605.8644008037502
 20
201.1322886301228
 30
0.0
 40
0.2
100
AcDbArc
 50
90.00000000017953
 51
171.042328419214
  0
ARC
  5
21A
330
6F
100
AcDbEntity
  8
LOUVER
  6
Continuous
100
AcDbCircle
 10
605.8644008037362
 20
200.5406105892404
 30
0.0
 40
0.2
100
AcDbArc
 50
188.9576715782362
 51
270.0000000001795
  0
ARC
  5
21B
330
6F
100
AcDbEntity
  8
LOUVER
  6
Continuous
100
AcDbCircle
 10
605.8661774411431
 20
200.1406145348107
 30
0.0
 40
0.2
100
AcDbArc
 50
20.3599951875391
 51
90.00000000017953
  0
ARC
  5
21C
330
6F
100
AcDbEntity
  8
LOUVER
  6
Continuous
100
AcDbCircle
 10
605.866177441174
 20
201.5322846845526
 30
0.0
 40
0.2
100
AcDbArc
 50
270.0000000001796
 51
339.6400048099085
  0
ARC
  5
21D
330
6F
100
AcDbEntity
  8
LOUVER
  6
Continuous
100
AcDbCircle
 10
605.9412277199283
 20
202.4985266233076
 30
0.0
 40
0.6500000000000014
100
AcDbArc
 50
317.2813554917294
 51
137.2813554917293
  0
ARC
  5
21E
330
6F
100
AcDbEntity
  8
LOUVER
  6
Continuous
100
AcDbCircle
 10
607.7412277201057
 20
200.8364496096398
 30
0.0
 40
1.8
100
AcDbArc
 50
200.3599951875373
 51
249.6400048099133
  0
ARC
  5
21F
330
6F
100
AcDbEntity
  8
LOUVER
  6
Continuous
100
AcDbCircle
 10
607.7412277201057
 20
200.8364496096398
 30
0.0
 40
1.8
100
AcDbArc
 50
20.35999518753717
 51
42.71864452690496
  0
ARC
  5
220
330
6F
100
AcDbEntity
  8
LOUVER
  6
Continuous
100
AcDbCircle
 10
607.7412277201057
 20
200.8364496096398
 30
0.0
 40
1.8
100
AcDbArc
 50
290.3599951875372
 51
339.6400048099135
  0
ARC
  5
221
330
6F
100
AcDbEntity
  8
LOUVER
  6
Continuous
100
AcDbCircle
 10
609.5412277197429
 20
202.4985266238933
 30
0.0
 40
0.6500000000000048
100
AcDbArc
 50
42.71864452690667
 51
222.7186445269066
  0
ARC
  5
222
330
6F
100
AcDbEntity
  8
LOUVER
  6
Continuous
100
AcDbCircle
 10
607.7412277201057
 20
200.8364496096398
 30
0.0
 40
3.1
100
AcDbArc
 50
338.8315511541686
 51
42.71864452690567
  0
ARC
  5
223
330
6F
100
AcDbEntity
  8
LOUVER
  6
Continuous
100
AcDbCircle
 10
607.7412277201057
 20
200.8364496096398
 30
0.0
 40
3.1
100
AcDbArc
 50
137.28135549173
 51
201.1684488458311
  0
LINE
  5
224
330
6F
100
AcDbEntity
  8
LOUVER
  6
Continuous
100
AcDbLine
 10
605.8661774411752
 20
201.3322846845542
 30
0.0
 11
605.8644008037483
 21
201.3322886301243
 31
0.0
  0
LINE
  5
225
330
6F
100
AcDbEntity
  8
LOUVER
  6
Continuous
100
AcDbLine
 10
605.8661774411431
 20
200.340614534809
 30
0.0
 11
605.8644008037374
 21
200.340610589239
 31
0.0
  0
ARC
  5
226
330
6F
100
AcDbEntity
  8
LOUVER
  6
Continuous
100
AcDbCircle
 10
607.7412277201057
 20
200.8364496096398
 30
0.0
 40
2.1
100
AcDbArc
 50
261.0423284192156
 51
278.9576715782349
  0
ARC
  5
227
330
6F
100
AcDbEntity
  8
LOUVER
  6
Continuous
100
AcDbCircle
 10
607.4453886996226
 20
198.9596226932832
 30
0.0
 40
0.2
100
AcDbArc
 50
180.0000000001794
 51
261.0423284192139
  0
ARC
  5
228
330
6F
100
AcDbEntity
  8
LOUVER
  6
Continuous
100
AcDbCircle
 10
608.037066740506
 20
198.9596226932705
 30
0.0
 40
0.2
100
AcDbArc
 50
278.9576715782362
 51
0.0000000001796163
  0
ARC
  5
229
330
6F
100
AcDbEntity
  8
LOUVER
  6
Continuous
100
AcDbCircle
 10
608.4370627949357
 20
198.9613993306772
 30
0.0
 40
0.2
100
AcDbArc
 50
110.3599951875391
 51
180.0000000001795
  0
ARC
  5
22A
330
6F
100
AcDbEntity
  8
LOUVER
  6
Continuous
100
AcDbCircle
 10
607.0453926451929
 20
198.9613993307081
 30
0.0
 40
0.2
100
AcDbArc
 50
0.000000000179536
 51
69.64000480990852
  0
LINE
  5
22B
330
6F
100
AcDbEntity
  8
LOUVER
  6
Continuous
100
AcDbLine
 10
607.2453926451941
 20
198.9613993307092
 30
0.0
 11
607.2453886996241
 21
198.9596226932827
 31
0.0
  0
LINE
  5
22C
330
6F
100
AcDbEntity
  8
LOUVER
  6
Continuous
100
AcDbLine
 10
608.2370627949358
 20
198.9613993306773
 30
0.0
 11
608.2370667405057
 21
198.9596226932717
 31
0.0
  0
ARC
  5
22D
330
6F
100
AcDbEntity
  8
LOUVER
  6
Continuous
100
AcDbCircle
 10
607.7412277201057
 20
200.8364496096398
 30
0.0
 40
2.1
100
AcDbArc
 50
351.0423284192156
 51
8.957671578234869
  0
ARC
  5
22E
330
6F
100
AcDbEntity
  8
LOUVER
  6
Continuous
100
AcDbCircle
 10
609.6180546364622
 20
200.5406105891567
 30
0.0
 40
0.2
100
AcDbArc
 50
270.0000000001796
 51
351.042328419214
  0
ARC
  5
22F
330
6F
100
AcDbEntity
  8
LOUVER
  6
Continuous
100
AcDbCircle
 10
609.6180546364759
 20
201.1322886300401
 30
0.0
 40
0.2
100
AcDbArc
 50
8.957671578236167
 51
90.00000000017953
  0
ARC
  5
230
330
6F
100
AcDbEntity
  8
LOUVER
  6
Continuous
100
AcDbCircle
 10
609.6162779990682
 20
201.5322846844698
 30
0.0
 40
0.2
100
AcDbArc
 50
200.3599951875391
 51
270.0000000001795
  0
ARC
  5
231
330
6F
100
AcDbEntity
  8
LOUVER
  6
Continuous
100
AcDbCircle
 10
609.6162779990374
 20
200.140614534727
 30
0.0
 40
0.2
100
AcDbArc
 50
90.00000000017953
 51
159.6400048099086
  0
LINE
  5
232
330
6F
100
AcDbEntity
  8
LOUVER
  6
Continuous
100
AcDbLine
 10
609.6162779990372
 20
200.3406145347273
 30
0.0
 11
609.6180546364628
 21
200.3406105891572
 31
0.0
  0
LINE
  5
233
330
6F
100
AcDbEntity
  8
LOUVER
  6
Continuous
100
AcDbLine
 10
609.6162779990687
 20
201.3322846844694
 30
0.0
 11
609.6180546364752
 21
201.3322886300394
 31
0.0
  0
LINE
  5
234
330
6F
100
AcDbEntity
  8
LOUVER
  6
Continuous
100
AcDbLine
 10
611.0983097864243
 20
199.0364496096408
 30
0.0
 11
626.5412277201402
 21
199.0364496096408
 31
0.0
  0
LINE
  5
235
330
6F
100
AcDbEntity
  8
LOUVER
  6
Continuous
100
AcDbLine
 10
587.7412277201056
 20
231.8364496096399
 30
0.0
 11
587.7412277201021
 21
157.8364496096388
 31
0.0
  0
LINE
  5
236
330
6F
100
AcDbEntity
  8
LOUVER
  6
Continuous
100
AcDbLine
 10
588.9412277201033
 20
199.0364496096398
 30
0.0
 11
604.3841456537863
 21
199.0364496096398
 31
0.0
  0
LINE
  5
237
330
6F
100
AcDbEntity
  8
LOUVER
  6
Continuous
100
AcDbLine
 10
588.9412277201028
 20
197.8364496096397
 30
0.0
 11
626.5412277201387
 21
197.8364496096397
 31
0.0
  0
LINE
  5
238
330
6F
100
AcDbEntity
  8
LOUVER
  6
Continuous
100
AcDbLine
 10
625.2412277199709
 20
166.6364496096109
 30
0.0
 11
626.5412277201094
 21
166.6364496096087
 31
0.0
  0
LINE
  5
239
330
6F
100
AcDbEntity
  8
LOUVER
  6
Continuous
100
AcDbLine
 10
625.9412277201546
 20
157.836449609626
 30
0.0
 11
625.9412277201573
 21
162.8364496093145
 31
0.0
  0
LINE
  5
23A
330
6F
100
AcDbEntity
  8
LOUVER
  6
Continuous
100
AcDbLine
 10
625.9412277201529
 20
157.8364496096262
 30
0.0
 11
627.7412277201013
 21
157.8364496096232
 31
0.0
  0
LINE
  5
23B
330
6F
100
AcDbEntity
  8
LOUVER
  6
Continuous
100
AcDbLine
 10
626.5412277201147
 20
171.8364496096259
 30
0.0
 11
622.4412277201244
 21
171.8364496096342
 31
0.0
  0
LINE
  5
23C
330
6F
100
AcDbEntity
  8
LOUVER
  6
Continuous
100
AcDbLine
 10
622.4412277201243
 20
171.836449609634
 30
0.0
 11
622.4412277201261
 21
173.0364496096338
 31
0.0
  0
ARC
  5
23D
330
6F
100
AcDbEntity
  8
LOUVER
  6
Continuous
100
AcDbCircle
 10
625.2412277199709
 20
166.436449609611
 30
0.0
 40
0.2
100
AcDbArc
 50
90.0
 51
194.1296704973614
  0
LINE
  5
23E
330
6F
100
AcDbEntity
  8
LOUVER
  6
Continuous
100
AcDbLine
 10
626.5412277201151
 20
173.0364496096261
 30
0.0
 11
622.4412277201267
 21
173.0364496096343
 31
0.0
  0
LINE
  5
23F
330
6F
100
AcDbEntity
  8
LOUVER
  6
Continuous
100
AcDbLine
 10
627.7412277201968
 20
231.8364496096271
 30
0.0
 11
627.7412277201013
 21
157.8364496096235
 31
0.0
  0
ARC
  5
240
330
6F
100
AcDbEntity
  8
LOUVER
  6
Continuous
100
AcDbCircle
 10
604.3841456537867
 20
199.5364496096405
 30
0.0
 40
0.5
100
AcDbArc
 50
270.0
 51
21.16844884583121
  0
ARC
  5
241
330
6F
100
AcDbEntity
  8
LOUVER
  6
Continuous
100
AcDbCircle
 10
611.0983097864247
 20
199.5364496096405
 30
0.0
 40
0.5
100
AcDbArc
 50
158.8315511541688
 51
270.0
  0
LINE
  5
242
330
6F
100
AcDbEntity
  8
LOUVER
  6
Continuous
100
AcDbLine
 10
588.9412277201061
 20
230.6364496096403
 30
0.0
 11
588.9412277201041
 21
199.0364496096399
 31
0.0
  0
LINE
  5
243
330
6F
100
AcDbEntity
  8
LOUVER
  6
Continuous
100
AcDbLine
 10
626.5412277201952
 20
230.6364496096407
 30
0.0
 11
626.5412277201406
 21
199.0364496096403
 31
0.0
  0
LINE
  5
244
330
6F
100
AcDbEntity
  8
LOUVER
  6
Continuous
100
AcDbLine
 10
588.9412277201047
 20
197.83644960964
 30
0.0
 11
588.9412277201039
 21
173.0364496096406
 31
0.0
  0
LINE
  5
245
330
6F
100
AcDbEntity
  8
LOUVER
  6
Continuous
100
AcDbLine
 10
588.9412277201039
 20
171.8364496096399
 30
0.0
 11
588.9412277201037
 21
166.6364496096228
 31
0.0
  0
LINE
  5
246
330
6F
100
AcDbEntity
  8
LOUVER
  6
Continuous
100
AcDbLine
 10
626.54122772014
 20
197.8364496096411
 30
0.0
 11
626.5412277201161
 21
173.0364496096264
 31
0.0
  0
LINE
  5
247
330
6F
100
AcDbEntity
  8
LOUVER
  6
Continuous
100
AcDbLine
 10
626.5412277201147
 20
171.8364496096262
 30
0.0
 11
626.5412277201098
 21
166.6364496096091
 31
0.0
  0
ARC
  5
248
330
6F
100
AcDbEntity
  8
LOUVER
  6
Continuous
100
AcDbCircle
 10
590.2412277202301
 20
166.4364496096092
 30
0.0
 40
0.2
100
AcDbArc
 50
345.8703295026307
 51
90.0
  0
LINE
  5
249
330
6F
100
AcDbEntity
  8
LOUVER
  6
Continuous
100
AcDbLine
 10
590.4351768661768
 20
166.3876261645587
 30
0.0
 11
589.541227720047
 21
162.8364496093283
 31
0.0
  0
LINE
  5
24A
330
6F
100
AcDbEntity
  8
LOUVER
  6
Continuous
100
AcDbLine
 10
625.9412277201586
 20
162.8364496093147
 30
0.0
 11
625.0472785740257
 21
166.3876261645603
 31
0.0
  0
LINE
  5
24B
330
6F
100
AcDbEntity
  8
LOUVER
  6
Continuous
100
AcDbLine
 10
604.4093098411602
 20
230.161272241774
 30
0.0
 11
588.9412277201063
 21
230.6364496096396
 31
0.0
  0
LINE
  5
24C
330
6F
100
AcDbEntity
  8
LOUVER
  6
Continuous
100
AcDbLine
 10
626.5412277201958
 20
230.6364496096394
 30
0.0
 11
611.0731455990527
 21
230.1612722417738
 31
0.0
  0
ARC
  5
24D
330
6F
100
AcDbEntity
  8
LOUVER
  6
Continuous
100
AcDbCircle
 10
611.0884982881543
 20
229.66150800242
 30
0.0
 40
0.5
100
AcDbArc
 50
91.75956514561034
 51
201.5967477556075
  0
ARC
  5
24E
330
6F
100
AcDbEntity
  8
LOUVER
  6
Continuous
100
AcDbCircle
 10
604.3939571520569
 20
229.66150800242
 30
0.0
 40
0.5
100
AcDbArc
 50
338.4032522443904
 51
88.24043485437984
  0
LINE
  5
24F
330
6F
100
AcDbEntity
  8
UKEZAI
  6
Continuous
100
AcDbLine
 10
624.4412277201014
 20
159.8364496096264
 30
0.0
 11
624.4412277201014
 21
166.8364496096264
 31
0.0
  0
LINE
  5
250
330
6F
100
AcDbEntity
  8
UKEZAI
  6
Continuous
100
AcDbLine
 10
625.9412277201533
 20
156.8364496096262
 30
0.0
 11
625.9412277201554
 21
158.8364496093394
 31
0.0
  0
LINE
  5
251
330
6F
100
AcDbEntity
  8
UKEZAI
  6
Continuous
100
AcDbLine
 10
622.9412277201014
 20
158.3364496096264
 30
0.0
 11
622.9412277201014
 21
171.0864496096264
 31
0.0
  0
LINE
  5
252
330
6F
100
AcDbEntity
  8
UKEZAI
  6
Continuous
100
AcDbLine
 10
624.4412277201014
 20
166.8364496095808
 30
0.0
 11
625.7412277193703
 21
166.8364496095818
 31
0.0
  0
LINE
  5
253
330
6F
100
AcDbEntity
  8
UKEZAI
  6
Continuous
100
AcDbLine
 10
624.4412277201014
 20
159.8364496096264
 30
0.0
 11
625.7412277201567
 21
159.8364496096264
 31
0.0
  0
LINE
  5
254
330
6F
100
AcDbEntity
  8
UKEZAI
  6
Continuous
100
AcDbLine
 10
591.0412277201015
 20
159.8364496096264
 30
0.0
 11
591.0412277201015
 21
166.8364496096264
 31
0.0
  0
LINE
  5
255
330
6F
100
AcDbEntity
  8
UKEZAI
  6
Continuous
100
AcDbLine
 10
589.5412277200496
 20
156.8364496096263
 30
0.0
 11
589.5412277200472
 21
158.8364496093363
 31
0.0
  0
LINE
  5
256
330
6F
100
AcDbEntity
  8
UKEZAI
  6
Continuous
100
AcDbLine
 10
592.5412277201014
 20
158.3364496096264
 30
0.0
 11
592.5412277201014
 21
171.0864496096264
 31
0.0
  0
ARC
  5
257
330
6F
100
AcDbEntity
  8
UKEZAI
  6
Continuous
100
AcDbCircle
 10
591.7912277201016
 20
171.0864496096264
 30
0.0
 40
0.75
100
AcDbArc
 50
0.0
 51
160.1120357041571
  0
LINE
  5
258
330
6F
100
AcDbEntity
  8
UKEZAI
  6
Continuous
100
AcDbLine
 10
591.0412277201015
 20
166.836449609581
 30
0.0
 11
589.7412277208323
 21
166.836449609582
 31
0.0
  0
LINE
  5
259
330
6F
100
AcDbEntity
  8
UKEZAI
  6
Continuous
100
AcDbLine
 10
591.0412277201015
 20
159.8364496096264
 30
0.0
 11
589.7412277200462
 21
159.8364496096264
 31
0.0
  0
LINE
  5
25A
330
6F
100
AcDbEntity
  8
UKEZAI
  6
Continuous
100
AcDbLine
 10
589.5412277200502
 20
156.8364496096264
 30
0.0
 11
625.9412277201533
 21
156.8364496096264
 31
0.0
  0
ARC
  5
25B
330
6F
100
AcDbEntity
  8
UKEZAI
  6
Continuous
100
AcDbCircle
 10
607.7412277201013
 20
158.3364496096264
 30
0.0
 40
0.3
100
AcDbArc
 50
180.0
 51
0.0
  0
ARC
  5
25C
330
6F
100
AcDbEntity
  8
UKEZAI
  6
Continuous
100
AcDbCircle
 10
623.6912277201014
 20
171.0864496096264
 30
0.0
 40
0.75
100
AcDbArc
 50
19.8879642958426
 51
180.0
  0
LINE
  5
25D
330
6F
100
AcDbEntity
  8
UKEZAI
  6
Continuous
100
AcDbLine
 10
625.9412277201552
 20
158.8364496093394
 30
0.0
 11
625.7412277201564
 21
159.8364496096263
 31
0.0
  0
LINE
  5
25E
330
6F
100
AcDbEntity
  8
UKEZAI
  6
Continuous
100
AcDbLine
 10
589.5412277200476
 20
158.8364496093392
 30
0.0
 11
589.7412277200465
 21
159.8364496096262
 31
0.0
  0
ARC
  5
25F
330
6F
100
AcDbEntity
  8
UKEZAI
  6
Continuous
100
AcDbCircle
 10
589.7412277208326
 20
167.036449609582
 30
0.0
 40
0.2
100
AcDbArc
 50
160.1120357041559
 51
270.0
  0
LINE
  5
260
330
6F
100
AcDbEntity
  8
UKEZAI
  6
Continuous
100
AcDbLine
 10
589.5531557993725
 20
167.104486014237
 30
0.0
 11
591.0859580146263
 21
171.3415861270824
 31
0.0
  0
ARC
  5
261
330
6F
100
AcDbEntity
  8
UKEZAI
  6
Continuous
100
AcDbCircle
 10
625.7412277193703
 20
167.036449609582
 30
0.0
 40
0.2
100
AcDbArc
 50
270.0
 51
19.88796429584412
  0
LINE
  5
262
330
6F
100
AcDbEntity
  8
UKEZAI
  6
Continuous
100
AcDbLine
 10
625.9292996408301
 20
167.104486014237
 30
0.0
 11
624.3964974255764
 21
171.3415861270823
 31
0.0
  0
ARC
  5
263
330
6F
100
AcDbEntity
  8
UKEZAI
  6
Continuous
100
AcDbCircle
 10
609.7412277201014
 20
158.3364496096264
 30
0.0
 40
0.3
100
AcDbArc
 50
0.0
 51
180.0
  0
LINE
  5
264
330
6F
100
AcDbEntity
  8
UKEZAI
  6
Continuous
100
AcDbLine
 10
608.0412277201014
 20
158.3364496096264
 30
0.0
 11
609.4412277201017
 21
158.3364496096264
 31
0.0
  0
LINE
  5
265
330
6F
100
AcDbEntity
  8
UKEZAI
  6
Continuous
100
AcDbLine
 10
610.0412277201016
 20
158.3364496096264
 30
0.0
 11
622.9412277201014
 21
158.3364496096264
 31
0.0
  0
ARC
  5
266
330
6F
100
AcDbEntity
  8
UKEZAI
  6
Continuous
100
AcDbCircle
 10
605.7412277201014
 20
158.3364496096264
 30
0.0
 40
0.3
100
AcDbArc
 50
0.0
 51
180.0
  0
LINE
  5
267
330
6F
100
AcDbEntity
  8
UKEZAI
  6
Continuous
100
AcDbLine
 10
592.5412277201014
 20
158.3364496096264
 30
0.0
 11
605.4412277201017
 21
158.3364496096264
 31
0.0
  0
LINE
  5
268
330
6F
100
AcDbEntity
  8
UKEZAI
  6
Continuous
100
AcDbLine
 10
606.0412277201016
 20
158.3364496096264
 30
0.0
 11
607.4412277201018
 21
158.3364496096264
 31
0.0
  0
ARC
  5
269
330
6F
100
AcDbEntity
  8
LOUVER
  6
Continuous
100
AcDbCircle
 10
242.7273721245354
 20
229.8364496096394
 30
0.0
 40
2.1
100
AcDbArc
 50
171.042328421765
 51
188.9576715807843
  0
ARC
  5
26A
330
6F
100
AcDbEntity
  8
LOUVER
  6
Continuous
100
AcDbCircle
 10
242.7273721245354
 20
229.8364496096394
 30
0.0
 40
1.8
100
AcDbArc
 50
200.3599951900864
 51
222.7186445082694
  0
ARC
  5
26B
330
6F
100
AcDbEntity
  8
LOUVER
  6
Continuous
100
AcDbCircle
 10
240.8505452081797
 20
229.5406105891564
 30
0.0
 40
0.2
100
AcDbArc
 50
188.9576715807859
 51
269.9999999998204
  0
ARC
  5
26C
330
6F
100
AcDbEntity
  8
LOUVER
  6
Continuous
100
AcDbCircle
 10
240.8505452081661
 20
230.1322886300397
 30
0.0
 40
0.2
100
AcDbArc
 50
89.99999999982042
 51
171.0423284217637
  0
ARC
  5
26D
330
6F
100
AcDbEntity
  8
LOUVER
  6
Continuous
100
AcDbCircle
 10
240.8523218455728
 20
230.5322846844695
 30
0.0
 40
0.2
100
AcDbArc
 50
269.9999999998204
 51
339.6400048124608
  0
ARC
  5
26E
330
6F
100
AcDbEntity
  8
LOUVER
  6
Continuous
100
AcDbCircle
 10
240.8523218456037
 20
229.1406145347266
 30
0.0
 40
0.2
100
AcDbArc
 50
20.35999519009133
 51
89.99999999982028
  0
ARC
  5
26F
330
6F
100
AcDbEntity
  8
LOUVER
  6
Continuous
100
AcDbCircle
 10
240.9273721243578
 20
228.1743725959725
 30
0.0
 40
0.6500000000000014
100
AcDbArc
 50
222.7186445082704
 51
42.71864450827043
  0
ARC
  5
270
330
6F
100
AcDbEntity
  8
LOUVER
  6
Continuous
100
AcDbCircle
 10
242.7273721245354
 20
229.8364496096394
 30
0.0
 40
1.8
100
AcDbArc
 50
110.3599951900866
 51
159.6400048124626
  0
ARC
  5
271
330
6F
100
AcDbEntity
  8
LOUVER
  6
Continuous
100
AcDbCircle
 10
242.7273721245354
 20
229.8364496096394
 30
0.0
 40
1.8
100
AcDbArc
 50
317.281355473095
 51
339.6400048124627
  0
ARC
  5
272
330
6F
100
AcDbEntity
  8
LOUVER
  6
Continuous
100
AcDbCircle
 10
242.7273721245354
 20
229.8364496096394
 30
0.0
 40
1.8
100
AcDbArc
 50
20.35999519008635
 51
69.64000481246268
  0
ARC
  5
273
330
6F
100
AcDbEntity
  8
LOUVER
  6
Continuous
100
AcDbCircle
 10
244.5273721241726
 20
228.1743725953868
 30
0.0
 40
0.6500000000000048
100
AcDbArc
 50
137.2813554730932
 51
317.2813554730932
  0
ARC
  5
274
330
6F
100
AcDbEntity
  8
LOUVER
  6
Continuous
100
AcDbCircle
 10
242.7273721245354
 20
229.8364496096394
 30
0.0
 40
3.1
100
AcDbArc
 50
317.2813554730942
 51
21.59674775560783
  0
ARC
  5
275
330
6F
100
AcDbEntity
  8
LOUVER
  6
Continuous
100
AcDbCircle
 10
242.7273721245354
 20
229.8364496096394
 30
0.0
 40
3.1
100
AcDbArc
 50
158.4032522443896
 51
222.7186445082701
  0
LINE
  5
276
330
6F
100
AcDbEntity
  8
LOUVER
  6
Continuous
100
AcDbLine
 10
240.8523218456065
 20
229.3406145347259
 30
0.0
 11
240.8505452081799
 21
229.3406105891558
 31
0.0
  0
LINE
  5
277
330
6F
100
AcDbEntity
  8
LOUVER
  6
Continuous
100
AcDbLine
 10
240.8523218455718
 20
230.332284684469
 30
0.0
 11
240.8505452081661
 21
230.332288630039
 31
0.0
  0
ARC
  5
278
330
6F
100
AcDbEntity
  8
LOUVER
  6
Continuous
100
AcDbCircle
 10
242.7273721245354
 20
229.8364496096403
 30
0.0
 40
2.1
100
AcDbArc
 50
81.042328421765
 51
98.95767158078427
  0
ARC
  5
279
330
6F
100
AcDbEntity
  8
LOUVER
  6
Continuous
100
AcDbCircle
 10
242.4315331040523
 20
231.713276525996
 30
0.0
 40
0.2
100
AcDbArc
 50
98.95767158078593
 51
179.9999999998205
  0
ARC
  5
27A
330
6F
100
AcDbEntity
  8
LOUVER
  6
Continuous
100
AcDbCircle
 10
243.0232111449357
 20
231.7132765260096
 30
0.0
 40
0.2
100
AcDbArc
 50
359.9999999998204
 51
81.04232842176369
  0
ARC
  5
27B
330
6F
100
AcDbEntity
  8
LOUVER
  6
Continuous
100
AcDbCircle
 10
243.4232071993654
 20
231.711499888602
 30
0.0
 40
0.2
100
AcDbArc
 50
179.9999999998204
 51
249.6400048124609
  0
ARC
  5
27C
330
6F
100
AcDbEntity
  8
LOUVER
  6
Continuous
100
AcDbCircle
 10
242.0315370496226
 20
231.7114998885711
 30
0.0
 40
0.2
100
AcDbArc
 50
290.3599951900913
 51
359.9999999998204
  0
LINE
  5
27D
330
6F
100
AcDbEntity
  8
LOUVER
  6
Continuous
100
AcDbLine
 10
242.2315370496227
 20
231.7114998885698
 30
0.0
 11
242.2315331040526
 21
231.7132765259954
 31
0.0
  0
LINE
  5
27E
330
6F
100
AcDbEntity
  8
LOUVER
  6
Continuous
100
AcDbLine
 10
243.2232071993647
 20
231.7114998886023
 30
0.0
 11
243.2232111449347
 21
231.7132765260079
 31
0.0
  0
ARC
  5
27F
330
6F
100
AcDbEntity
  8
LOUVER
  6
Continuous
100
AcDbCircle
 10
242.7273721245354
 20
229.8364496096394
 30
0.0
 40
2.1
100
AcDbArc
 50
351.042328421765
 51
8.95767158078419
  0
ARC
  5
280
330
6F
100
AcDbEntity
  8
LOUVER
  6
Continuous
100
AcDbCircle
 10
244.6041990408919
 20
230.1322886301234
 30
0.0
 40
0.2
100
AcDbArc
 50
8.957671580785854
 51
89.99999999982028
  0
ARC
  5
281
330
6F
100
AcDbEntity
  8
LOUVER
  6
Continuous
100
AcDbCircle
 10
244.6041990409055
 20
229.54061058924
 30
0.0
 40
0.2
100
AcDbArc
 50
269.9999999998204
 51
351.0423284217637
  0
ARC
  5
282
330
6F
100
AcDbEntity
  8
LOUVER
  6
Continuous
100
AcDbCircle
 10
244.6024224034979
 20
229.1406145348103
 30
0.0
 40
0.2
100
AcDbArc
 50
89.99999999982042
 51
159.6400048124608
  0
ARC
  5
283
330
6F
100
AcDbEntity
  8
LOUVER
  6
Continuous
100
AcDbCircle
 10
244.602422403467
 20
230.5322846845531
 30
0.0
 40
0.2
100
AcDbArc
 50
200.3599951900913
 51
269.9999999998204
  0
LINE
  5
284
330
6F
100
AcDbEntity
  8
LOUVER
  6
Continuous
100
AcDbLine
 10
244.6024224034664
 20
230.3322846845521
 30
0.0
 11
244.6041990408912
 21
230.3322886301222
 31
0.0
  0
LINE
  5
285
330
6F
100
AcDbEntity
  8
LOUVER
  6
Continuous
100
AcDbLine
 10
244.6024224034987
 20
229.3406145348088
 30
0.0
 11
244.6041990409052
 21
229.3406105892387
 31
0.0
  0
LINE
  5
286
330
6F
100
AcDbEntity
  8
LOUVER
  6
Continuous
100
AcDbLine
 10
222.7273721245351
 20
233.3364496096397
 30
0.0
 11
262.7273721245351
 21
233.3364496096397
 31
0.0
  0
LINE
  5
287
330
6F
100
AcDbEntity
  8
LOUVER
  6
Continuous
100
AcDbLine
 10
225.2273721246752
 20
168.1364496096235
 30
0.0
 11
223.9273721245322
 21
168.1364496096235
 31
0.0
  0
LINE
  5
288
330
6F
100
AcDbEntity
  8
LOUVER
  6
Continuous
100
AcDbLine
 10
224.5273721244775
 20
159.3364496096398
 30
0.0
 11
224.5273721244762
 21
164.3364496093278
 31
0.0
  0
LINE
  5
289
330
6F
100
AcDbEntity
  8
LOUVER
  6
Continuous
100
AcDbLine
 10
224.5273721244798
 20
159.3364496096406
 30
0.0
 11
222.7273721245315
 21
159.3364496096406
 31
0.0
  0
LINE
  5
28A
330
6F
100
AcDbEntity
  8
LOUVER
  6
Continuous
100
AcDbLine
 10
223.9273721245315
 20
173.336449609641
 30
0.0
 11
228.0273721245309
 21
173.3364496096424
 31
0.0
  0
LINE
  5
28B
330
6F
100
AcDbEntity
  8
LOUVER
  6
Continuous
100
AcDbLine
 10
228.0273721245317
 20
173.3364496096424
 30
0.0
 11
228.0273721245317
 21
174.5364496096422
 31
0.0
  0
LINE
  5
28C
330
6F
100
AcDbEntity
  8
LOUVER
  6
Continuous
100
AcDbLine
 10
223.927372124532
 20
174.5364496096407
 30
0.0
 11
228.0273721245314
 21
174.5364496096421
 31
0.0
  0
ARC
  5
28D
330
6F
100
AcDbEntity
  8
LOUVER
  6
Continuous
100
AcDbCircle
 10
242.7273721245354
 20
202.3364496096394
 30
0.0
 40
2.1
100
AcDbArc
 50
171.0423284192157
 51
188.9576715782349
  0
ARC
  5
28E
330
6F
100
AcDbEntity
  8
LOUVER
  6
Continuous
100
AcDbCircle
 10
242.7273721245354
 20
202.3364496096394
 30
0.0
 40
1.8
100
AcDbArc
 50
137.2813554917305
 51
159.6400048099136
  0
ARC
  5
28F
330
6F
100
AcDbEntity
  8
LOUVER
  6
Continuous
100
AcDbCircle
 10
240.8505452081797
 20
202.6322886301225
 30
0.0
 40
0.2
100
AcDbArc
 50
90.00000000017953
 51
171.042328419214
  0
ARC
  5
290
330
6F
100
AcDbEntity
  8
LOUVER
  6
Continuous
100
AcDbCircle
 10
240.8505452081661
 20
202.04061058924
 30
0.0
 40
0.2
100
AcDbArc
 50
188.9576715782362
 51
270.0000000001795
  0
ARC
  5
291
330
6F
100
AcDbEntity
  8
LOUVER
  6
Continuous
100
AcDbCircle
 10
240.8523218455728
 20
201.6406145348103
 30
0.0
 40
0.2
100
AcDbArc
 50
20.3599951875391
 51
90.00000000017953
  0
ARC
  5
292
330
6F
100
AcDbEntity
  8
LOUVER
  6
Continuous
100
AcDbCircle
 10
240.8523218456037
 20
203.0322846845522
 30
0.0
 40
0.2
100
AcDbArc
 50
270.0000000001796
 51
339.6400048099085
  0
ARC
  5
293
330
6F
100
AcDbEntity
  8
LOUVER
  6
Continuous
100
AcDbCircle
 10
240.9273721243578
 20
203.9985266233073
 30
0.0
 40
0.6500000000000014
100
AcDbArc
 50
317.2813554917294
 51
137.2813554917293
  0
ARC
  5
294
330
6F
100
AcDbEntity
  8
LOUVER
  6
Continuous
100
AcDbCircle
 10
242.7273721245354
 20
202.3364496096394
 30
0.0
 40
1.8
100
AcDbArc
 50
200.3599951875373
 51
249.6400048099133
  0
ARC
  5
295
330
6F
100
AcDbEntity
  8
LOUVER
  6
Continuous
100
AcDbCircle
 10
242.7273721245354
 20
202.3364496096394
 30
0.0
 40
1.8
100
AcDbArc
 50
20.35999518753717
 51
42.71864452690496
  0
ARC
  5
296
330
6F
100
AcDbEntity
  8
LOUVER
  6
Continuous
100
AcDbCircle
 10
242.7273721245354
 20
202.3364496096394
 30
0.0
 40
1.8
100
AcDbArc
 50
290.3599951875372
 51
339.6400048099135
  0
ARC
  5
297
330
6F
100
AcDbEntity
  8
LOUVER
  6
Continuous
100
AcDbCircle
 10
244.5273721241726
 20
203.998526623893
 30
0.0
 40
0.6500000000000048
100
AcDbArc
 50
42.71864452690667
 51
222.7186445269066
  0
ARC
  5
298
330
6F
100
AcDbEntity
  8
LOUVER
  6
Continuous
100
AcDbCircle
 10
242.7273721245354
 20
202.3364496096394
 30
0.0
 40
3.1
100
AcDbArc
 50
338.8315511541686
 51
42.71864452690567
  0
ARC
  5
299
330
6F
100
AcDbEntity
  8
LOUVER
  6
Continuous
100
AcDbCircle
 10
242.7273721245354
 20
202.3364496096394
 30
0.0
 40
3.1
100
AcDbArc
 50
137.28135549173
 51
201.1684488458311
  0
LINE
  5
29A
330
6F
100
AcDbEntity
  8
LOUVER
  6
Continuous
100
AcDbLine
 10
240.8523218456048
 20
202.8322846845539
 30
0.0
 11
240.8505452081782
 21
202.832288630124
 31
0.0
  0
LINE
  5
29B
330
6F
100
AcDbEntity
  8
LOUVER
  6
Continuous
100
AcDbLine
 10
240.8523218455727
 20
201.8406145348087
 30
0.0
 11
240.850545208167
 21
201.8406105892386
 31
0.0
  0
ARC
  5
29C
330
6F
100
AcDbEntity
  8
LOUVER
  6
Continuous
100
AcDbCircle
 10
242.7273721245354
 20
202.3364496096394
 30
0.0
 40
2.1
100
AcDbArc
 50
261.0423284192156
 51
278.9576715782349
  0
ARC
  5
29D
330
6F
100
AcDbEntity
  8
LOUVER
  6
Continuous
100
AcDbCircle
 10
242.4315331040523
 20
200.4596226932829
 30
0.0
 40
0.2
100
AcDbArc
 50
180.0000000001794
 51
261.0423284192139
  0
ARC
  5
29E
330
6F
100
AcDbEntity
  8
LOUVER
  6
Continuous
100
AcDbCircle
 10
243.0232111449357
 20
200.4596226932702
 30
0.0
 40
0.2
100
AcDbArc
 50
278.9576715782362
 51
0.0000000001796163
  0
ARC
  5
29F
330
6F
100
AcDbEntity
  8
LOUVER
  6
Continuous
100
AcDbCircle
 10
243.4232071993654
 20
200.4613993306768
 30
0.0
 40
0.2
100
AcDbArc
 50
110.3599951875391
 51
180.0000000001795
  0
ARC
  5
2A0
330
6F
100
AcDbEntity
  8
LOUVER
  6
Continuous
100
AcDbCircle
 10
242.0315370496226
 20
200.4613993307078
 30
0.0
 40
0.2
100
AcDbArc
 50
0.000000000179536
 51
69.64000480990852
  0
LINE
  5
2A1
330
6F
100
AcDbEntity
  8
LOUVER
  6
Continuous
100
AcDbLine
 10
242.2315370496237
 20
200.4613993307089
 30
0.0
 11
242.2315331040536
 21
200.4596226932823
 31
0.0
  0
LINE
  5
2A2
330
6F
100
AcDbEntity
  8
LOUVER
  6
Continuous
100
AcDbLine
 10
243.2232071993655
 20
200.461399330677
 30
0.0
 11
243.2232111449356
 21
200.4596226932713
 31
0.0
  0
ARC
  5
2A3
330
6F
100
AcDbEntity
  8
LOUVER
  6
Continuous
100
AcDbCircle
 10
242.7273721245354
 20
202.3364496096394
 30
0.0
 40
2.1
100
AcDbArc
 50
351.0423284192156
 51
8.957671578234869
  0
ARC
  5
2A4
330
6F
100
AcDbEntity
  8
LOUVER
  6
Continuous
100
AcDbCircle
 10
244.6041990408919
 20
202.0406105891564
 30
0.0
 40
0.2
100
AcDbArc
 50
270.0000000001796
 51
351.042328419214
  0
ARC
  5
2A5
330
6F
100
AcDbEntity
  8
LOUVER
  6
Continuous
100
AcDbCircle
 10
244.6041990409055
 20
202.6322886300397
 30
0.0
 40
0.2
100
AcDbArc
 50
8.957671578236167
 51
90.00000000017953
  0
ARC
  5
2A6
330
6F
100
AcDbEntity
  8
LOUVER
  6
Continuous
100
AcDbCircle
 10
244.6024224034979
 20
203.0322846844695
 30
0.0
 40
0.2
100
AcDbArc
 50
200.3599951875391
 51
270.0000000001795
  0
ARC
  5
2A7
330
6F
100
AcDbEntity
  8
LOUVER
  6
Continuous
100
AcDbCircle
 10
244.602422403467
 20
201.6406145347266
 30
0.0
 40
0.2
100
AcDbArc
 50
90.00000000017953
 51
159.6400048099086
  0
LINE
  5
2A8
330
6F
100
AcDbEntity
  8
LOUVER
  6
Continuous
100
AcDbLine
 10
244.6024224034669
 20
201.840614534727
 30
0.0
 11
244.6041990408926
 21
201.8406105891569
 31
0.0
  0
LINE
  5
2A9
330
6F
100
AcDbEntity
  8
LOUVER
  6
Continuous
100
AcDbLine
 10
244.6024224034984
 20
202.832284684469
 30
0.0
 11
244.6041990409049
 21
202.8322886300391
 31
0.0
  0
LINE
  5
2AA
330
6F
100
AcDbEntity
  8
LOUVER
  6
Continuous
100
AcDbLine
 10
246.0844541908541
 20
200.5364496096404
 30
0.0
 11
261.5273721245699
 21
200.5364496096404
 31
0.0
  0
LINE
  5
2AB
330
6F
100
AcDbEntity
  8
LOUVER
  6
Continuous
100
AcDbLine
 10
222.7273721245352
 20
233.3364496096396
 30
0.0
 11
222.7273721245317
 21
159.3364496096385
 31
0.0
  0
LINE
  5
2AC
330
6F
100
AcDbEntity
  8
LOUVER
  6
Continuous
100
AcDbLine
 10
223.9273721245331
 20
200.5364496096395
 30
0.0
 11
239.3702900582161
 21
200.5364496096395
 31
0.0
  0
LINE
  5
2AD
330
6F
100
AcDbEntity
  8
LOUVER
  6
Continuous
100
AcDbLine
 10
223.9273721245326
 20
199.3364496096394
 30
0.0
 11
261.5273721245684
 21
199.3364496096394
 31
0.0
  0
LINE
  5
2AE
330
6F
100
AcDbEntity
  8
LOUVER
  6
Continuous
100
AcDbLine
 10
260.2273721244007
 20
168.1364496096106
 30
0.0
 11
261.5273721245391
 21
168.1364496096084
 31
0.0
  0
LINE
  5
2AF
330
6F
100
AcDbEntity
  8
LOUVER
  6
Continuous
100
AcDbLine
 10
260.9273721245843
 20
159.3364496096256
 30
0.0
 11
260.9273721245871
 21
164.3364496093142
 31
0.0
  0
LINE
  5
2B0
330
6F
100
AcDbEntity
  8
LOUVER
  6
Continuous
100
AcDbLine
 10
260.9273721245825
 20
159.3364496096259
 30
0.0
 11
262.7273721245309
 21
159.3364496096229
 31
0.0
  0
LINE
  5
2B1
330
6F
100
AcDbEntity
  8
LOUVER
  6
Continuous
100
AcDbLine
 10
261.5273721245445
 20
173.3364496096256
 30
0.0
 11
257.4273721245541
 21
173.3364496096338
 31
0.0
  0
LINE
  5
2B2
330
6F
100
AcDbEntity
  8
LOUVER
  6
Continuous
100
AcDbLine
 10
257.4273721245538
 20
173.3364496096336
 30
0.0
 11
257.4273721245558
 21
174.5364496096334
 31
0.0
  0
ARC
  5
2B3
330
6F
100
AcDbEntity
  8
LOUVER
  6
Continuous
100
AcDbCircle
 10
260.2273721244007
 20
167.9364496096107
 30
0.0
 40
0.2
100
AcDbArc
 50
90.0
 51
194.1296704973614
  0
LINE
  5
2B4
330
6F
100
AcDbEntity
  8
LOUVER
  6
Continuous
100
AcDbLine
 10
261.5273721245447
 20
174.5364496096257
 30
0.0
 11
257.4273721245562
 21
174.5364496096339
 31
0.0
  0
LINE
  5
2B5
330
6F
100
AcDbEntity
  8
LOUVER
  6
Continuous
100
AcDbLine
 10
262.7273721246266
 20
233.3364496096268
 30
0.0
 11
262.7273721245309
 21
159.3364496096231
 31
0.0
  0
ARC
  5
2B6
330
6F
100
AcDbEntity
  8
LOUVER
  6
Continuous
100
AcDbCircle
 10
239.3702900582164
 20
201.0364496096402
 30
0.0
 40
0.5
100
AcDbArc
 50
270.0
 51
21.16844884583121
  0
ARC
  5
2B7
330
6F
100
AcDbEntity
  8
LOUVER
  6
Continuous
100
AcDbCircle
 10
246.0844541908543
 20
201.0364496096402
 30
0.0
 40
0.5
100
AcDbArc
 50
158.8315511541688
 51
270.0
  0
LINE
  5
2B8
330
6F
100
AcDbEntity
  8
LOUVER
  6
Continuous
100
AcDbLine
 10
223.9273721245358
 20
232.13644960964
 30
0.0
 11
223.9273721245338
 21
200.5364496096395
 31
0.0
  0
LINE
  5
2B9
330
6F
100
AcDbEntity
  8
LOUVER
  6
Continuous
100
AcDbLine
 10
261.527372124625
 20
232.1364496096404
 30
0.0
 11
261.5273721245702
 21
200.53644960964
 31
0.0
  0
LINE
  5
2BA
330
6F
100
AcDbEntity
  8
LOUVER
  6
Continuous
100
AcDbLine
 10
223.9273721245345
 20
199.3364496096397
 30
0.0
 11
223.9273721245336
 21
174.5364496096403
 31
0.0
  0
LINE
  5
2BB
330
6F
100
AcDbEntity
  8
LOUVER
  6
Continuous
100
AcDbLine
 10
223.9273721245335
 20
173.3364496096395
 30
0.0
 11
223.9273721245334
 21
168.1364496096225
 31
0.0
  0
LINE
  5
2BC
330
6F
100
AcDbEntity
  8
LOUVER
  6
Continuous
100
AcDbLine
 10
261.5273721245698
 20
199.3364496096407
 30
0.0
 11
261.5273721245458
 21
174.536449609626
 31
0.0
  0
LINE
  5
2BD
330
6F
100
AcDbEntity
  8
LOUVER
  6
Continuous
100
AcDbLine
 10
261.5273721245445
 20
173.3364496096258
 30
0.0
 11
261.5273721245395
 21
168.1364496096087
 31
0.0
  0
ARC
  5
2BE
330
6F
100
AcDbEntity
  8
LOUVER
  6
Continuous
100
AcDbCircle
 10
225.22737212466
 20
167.9364496096089
 30
0.0
 40
0.2
100
AcDbArc
 50
345.8703295026307
 51
90.0
  0
LINE
  5
2BF
330
6F
100
AcDbEntity
  8
LOUVER
  6
Continuous
100
AcDbLine
 10
225.4213212706065
 20
167.8876261645583
 30
0.0
 11
224.5273721244767
 21
164.336449609328
 31
0.0
  0
LINE
  5
2C0
330
6F
100
AcDbEntity
  8
LOUVER
  6
Continuous
100
AcDbLine
 10
260.9273721245882
 20
164.3364496093144
 30
0.0
 11
260.0334229784553
 21
167.88762616456
 31
0.0
  0
LINE
  5
2C1
330
6F
100
AcDbEntity
  8
LOUVER
  6
Continuous
100
AcDbLine
 10
239.3954542455899
 20
231.6612722417736
 30
0.0
 11
223.927372124536
 21
232.1364496096392
 31
0.0
  0
LINE
  5
2C2
330
6F
100
AcDbEntity
  8
LOUVER
  6
Continuous
100
AcDbLine
 10
261.5273721246255
 20
232.1364496096391
 30
0.0
 11
246.0592900034826
 21
231.6612722417735
 31
0.0
  0
ARC
  5
2C3
330
6F
100
AcDbEntity
  8
LOUVER
  6
Continuous
100
AcDbCircle
 10
246.0746426925841
 20
231.1615080024196
 30
0.0
 40
0.5
100
AcDbArc
 50
91.75956514561034
 51
201.5967477556075
  0
ARC
  5
2C4
330
6F
100
AcDbEntity
  8
LOUVER
  6
Continuous
100
AcDbCircle
 10
239.3801015564866
 20
231.1615080024196
 30
0.0
 40
0.5
100
AcDbArc
 50
338.4032522443904
 51
88.24043485437984
  0
LINE
  5
2C5
330
6F
100
AcDbEntity
  8
UKEZAI
  6
Continuous
100
AcDbLine
 10
259.4273721245311
 20
161.336449609626
 30
0.0
 11
259.4273721245311
 21
168.336449609626
 31
0.0
  0
LINE
  5
2C6
330
6F
100
AcDbEntity
  8
UKEZAI
  6
Continuous
100
AcDbLine
 10
260.9273721245829
 20
158.3364496096258
 30
0.0
 11
260.9273721245851
 21
160.336449609339
 31
0.0
  0
LINE
  5
2C7
330
6F
100
AcDbEntity
  8
UKEZAI
  6
Continuous
100
AcDbLine
 10
257.9273721245311
 20
159.836449609626
 30
0.0
 11
257.9273721245311
 21
172.586449609626
 31
0.0
  0
LINE
  5
2C8
330
6F
100
AcDbEntity
  8
UKEZAI
  6
Continuous
100
AcDbLine
 10
259.4273721245311
 20
168.3364496095804
 30
0.0
 11
260.7273721238
 21
168.3364496095815
 31
0.0
  0
LINE
  5
2C9
330
6F
100
AcDbEntity
  8
UKEZAI
  6
Continuous
100
AcDbLine
 10
259.4273721245311
 20
161.336449609626
 30
0.0
 11
260.7273721245863
 21
161.336449609626
 31
0.0
  0
LINE
  5
2CA
330
6F
100
AcDbEntity
  8
UKEZAI
  6
Continuous
100
AcDbLine
 10
226.0273721245312
 20
161.336449609626
 30
0.0
 11
226.0273721245312
 21
168.336449609626
 31
0.0
  0
LINE
  5
2CB
330
6F
100
AcDbEntity
  8
UKEZAI
  6
Continuous
100
AcDbLine
 10
224.5273721244793
 20
158.336449609626
 30
0.0
 11
224.527372124477
 21
160.336449609336
 31
0.0
  0
LINE
  5
2CC
330
6F
100
AcDbEntity
  8
UKEZAI
  6
Continuous
100
AcDbLine
 10
227.5273721245312
 20
159.836449609626
 30
0.0
 11
227.5273721245312
 21
172.586449609626
 31
0.0
  0
ARC
  5
2CD
330
6F
100
AcDbEntity
  8
UKEZAI
  6
Continuous
100
AcDbCircle
 10
226.7773721245312
 20
172.586449609626
 30
0.0
 40
0.75
100
AcDbArc
 50
0.0
 51
160.1120357041571
  0
LINE
  5
2CE
330
6F
100
AcDbEntity
  8
UKEZAI
  6
Continuous
100
AcDbLine
 10
226.0273721245311
 20
168.3364496095807
 30
0.0
 11
224.7273721252621
 21
168.3364496095816
 31
0.0
  0
LINE
  5
2CF
330
6F
100
AcDbEntity
  8
UKEZAI
  6
Continuous
100
AcDbLine
 10
226.0273721245312
 20
161.336449609626
 30
0.0
 11
224.727372124476
 21
161.336449609626
 31
0.0
  0
LINE
  5
2D0
330
6F
100
AcDbEntity
  8
UKEZAI
  6
Continuous
100
AcDbLine
 10
224.5273721244798
 20
158.336449609626
 30
0.0
 11
260.9273721245829
 21
158.336449609626
 31
0.0
  0
ARC
  5
2D1
330
6F
100
AcDbEntity
  8
UKEZAI
  6
Continuous
100
AcDbCircle
 10
242.727372124531
 20
159.836449609626
 30
0.0
 40
0.3
100
AcDbArc
 50
180.0
 51
0.0
  0
ARC
  5
2D2
330
6F
100
AcDbEntity
  8
UKEZAI
  6
Continuous
100
AcDbCircle
 10
258.6773721245311
 20
172.586449609626
 30
0.0
 40
0.75
100
AcDbArc
 50
19.8879642958426
 51
180.0
  0
LINE
  5
2D3
330
6F
100
AcDbEntity
  8
UKEZAI
  6
Continuous
100
AcDbLine
 10
260.927372124585
 20
160.336449609339
 30
0.0
 11
260.7273721245861
 21
161.336449609626
 31
0.0
  0
LINE
  5
2D4
330
6F
100
AcDbEntity
  8
UKEZAI
  6
Continuous
100
AcDbLine
 10
224.5273721244772
 20
160.3364496093389
 30
0.0
 11
224.7273721244761
 21
161.3364496096259
 31
0.0
  0
ARC
  5
2D5
330
6F
100
AcDbEntity
  8
UKEZAI
  6
Continuous
100
AcDbCircle
 10
224.7273721252623
 20
168.5364496095816
 30
0.0
 40
0.2
100
AcDbArc
 50
160.1120357041559
 51
270.0
  0
LINE
  5
2D6
330
6F
100
AcDbEntity
  8
UKEZAI
  6
Continuous
100
AcDbLine
 10
224.5393002038023
 20
168.6044860142366
 30
0.0
 11
226.0721024190563
 21
172.841586127082
 31
0.0
  0
ARC
  5
2D7
330
6F
100
AcDbEntity
  8
UKEZAI
  6
Continuous
100
AcDbCircle
 10
260.7273721238
 20
168.5364496095816
 30
0.0
 40
0.2
100
AcDbArc
 50
270.0
 51
19.88796429584412
  0
LINE
  5
2D8
330
6F
100
AcDbEntity
  8
UKEZAI
  6
Continuous
100
AcDbLine
 10
260.91544404526
 20
168.6044860142366
 30
0.0
 11
259.382641830006
 21
172.8415861270819
 31
0.0
  0
ARC
  5
2D9
330
6F
100
AcDbEntity
  8
UKEZAI
  6
Continuous
100
AcDbCircle
 10
244.727372124531
 20
159.836449609626
 30
0.0
 40
0.3
100
AcDbArc
 50
0.0
 51
180.0
  0
LINE
  5
2DA
330
6F
100
AcDbEntity
  8
UKEZAI
  6
Continuous
100
AcDbLine
 10
243.0273721245312
 20
159.836449609626
 30
0.0
 11
244.4273721245313
 21
159.836449609626
 31
0.0
  0
LINE
  5
2DB
330
6F
100
AcDbEntity
  8
UKEZAI
  6
Continuous
100
AcDbLine
 10
245.0273721245312
 20
159.836449609626
 30
0.0
 11
257.9273721245311
 21
159.836449609626
 31
0.0
  0
ARC
  5
2DC
330
6F
100
AcDbEntity
  8
UKEZAI
  6
Continuous
100
AcDbCircle
 10
240.727372124531
 20
159.836449609626
 30
0.0
 40
0.3
100
AcDbArc
 50
0.0
 51
180.0
  0
LINE
  5
2DD
330
6F
100
AcDbEntity
  8
UKEZAI
  6
Continuous
100
AcDbLine
 10
227.5273721245312
 20
159.836449609626
 30
0.0
 11
240.4273721245314
 21
159.836449609626
 31
0.0
  0
LINE
  5
2DE
330
6F
100
AcDbEntity
  8
UKEZAI
  6
Continuous
100
AcDbLine
 10
241.0273721245312
 20
159.836449609626
 30
0.0
 11
242.4273721245313
 21
159.836449609626
 31
0.0
  0
ARC
  5
2DF
330
6F
100
AcDbEntity
  8
LOUVER
  6
Continuous
100
AcDbCircle
 10
242.7273721245354
 20
492.2555691123148
 30
0.0
 40
2.1
100
AcDbArc
 50
171.042328421765
 51
188.9576715807843
  0
ARC
  5
2E0
330
6F
100
AcDbEntity
  8
LOUVER
  6
Continuous
100
AcDbCircle
 10
242.7273721245354
 20
492.2555691123148
 30
0.0
 40
1.8
100
AcDbArc
 50
200.3599951900864
 51
222.7186445082694
  0
ARC
  5
2E1
330
6F
100
AcDbEntity
  8
LOUVER
  6
Continuous
100
AcDbCircle
 10
240.8505452081797
 20
491.9597300918316
 30
0.0
 40
0.2
100
AcDbArc
 50
188.9576715807859
 51
269.9999999998204
  0
ARC
  5
2E2
330
6F
100
AcDbEntity
  8
LOUVER
  6
Continuous
100
AcDbCircle
 10
240.8505452081661
 20
492.5514081327151
 30
0.0
 40
0.2
100
AcDbArc
 50
89.99999999982042
 51
171.0423284217637
  0
ARC
  5
2E3
330
6F
100
AcDbEntity
  8
LOUVER
  6
Continuous
100
AcDbCircle
 10
240.8523218455728
 20
492.9514041871446
 30
0.0
 40
0.2
100
AcDbArc
 50
269.9999999998204
 51
339.6400048124608
  0
ARC
  5
2E4
330
6F
100
AcDbEntity
  8
LOUVER
  6
Continuous
100
AcDbCircle
 10
240.8523218456037
 20
491.5597340374018
 30
0.0
 40
0.2
100
AcDbArc
 50
20.35999519009133
 51
89.99999999982028
  0
ARC
  5
2E5
330
6F
100
AcDbEntity
  8
LOUVER
  6
Continuous
100
AcDbCircle
 10
240.9273721243578
 20
490.5934920986478
 30
0.0
 40
0.6500000000000014
100
AcDbArc
 50
222.7186445082704
 51
42.71864450827043
  0
ARC
  5
2E6
330
6F
100
AcDbEntity
  8
LOUVER
  6
Continuous
100
AcDbCircle
 10
242.7273721245354
 20
492.2555691123148
 30
0.0
 40
1.8
100
AcDbArc
 50
110.3599951900866
 51
159.6400048124626
  0
ARC
  5
2E7
330
6F
100
AcDbEntity
  8
LOUVER
  6
Continuous
100
AcDbCircle
 10
242.7273721245354
 20
492.2555691123148
 30
0.0
 40
1.8
100
AcDbArc
 50
317.281355473095
 51
339.6400048124627
  0
ARC
  5
2E8
330
6F
100
AcDbEntity
  8
LOUVER
  6
Continuous
100
AcDbCircle
 10
242.7273721245354
 20
492.2555691123148
 30
0.0
 40
1.8
100
AcDbArc
 50
20.35999519008635
 51
69.64000481246268
  0
ARC
  5
2E9
330
6F
100
AcDbEntity
  8
LOUVER
  6
Continuous
100
AcDbCircle
 10
244.5273721241726
 20
490.5934920980621
 30
0.0
 40
0.6500000000000048
100
AcDbArc
 50
137.2813554730932
 51
317.2813554730932
  0
ARC
  5
2EA
330
6F
100
AcDbEntity
  8
LOUVER
  6
Continuous
100
AcDbCircle
 10
242.7273721245354
 20
492.2555691123148
 30
0.0
 40
3.1
100
AcDbArc
 50
317.2813554730942
 51
21.59674775560783
  0
ARC
  5
2EB
330
6F
100
AcDbEntity
  8
LOUVER
  6
Continuous
100
AcDbCircle
 10
242.7273721245354
 20
492.2555691123148
 30
0.0
 40
3.1
100
AcDbArc
 50
158.4032522443896
 51
222.7186445082701
  0
LINE
  5
2EC
330
6F
100
AcDbEntity
  8
LOUVER
  6
Continuous
100
AcDbLine
 10
240.8523218456065
 20
491.7597340374013
 30
0.0
 11
240.8505452081799
 21
491.7597300918312
 31
0.0
  0
LINE
  5
2ED
330
6F
100
AcDbEntity
  8
LOUVER
  6
Continuous
100
AcDbLine
 10
240.8523218455718
 20
492.7514041871443
 30
0.0
 11
240.8505452081661
 21
492.7514081327144
 31
0.0
  0
ARC
  5
2EE
330
6F
100
AcDbEntity
  8
LOUVER
  6
Continuous
100
AcDbCircle
 10
242.7273721245354
 20
492.2555691123156
 30
0.0
 40
2.1
100
AcDbArc
 50
81.042328421765
 51
98.95767158078427
  0
ARC
  5
2EF
330
6F
100
AcDbEntity
  8
LOUVER
  6
Continuous
100
AcDbCircle
 10
242.4315331040523
 20
494.1323960286713
 30
0.0
 40
0.2
100
AcDbArc
 50
98.95767158078593
 51
179.9999999998205
  0
ARC
  5
2F0
330
6F
100
AcDbEntity
  8
LOUVER
  6
Continuous
100
AcDbCircle
 10
243.0232111449357
 20
494.1323960286848
 30
0.0
 40
0.2
100
AcDbArc
 50
359.9999999998204
 51
81.04232842176369
  0
ARC
  5
2F1
330
6F
100
AcDbEntity
  8
LOUVER
  6
Continuous
100
AcDbCircle
 10
243.4232071993654
 20
494.1306193912772
 30
0.0
 40
0.2
100
AcDbArc
 50
179.9999999998204
 51
249.6400048124609
  0
ARC
  5
2F2
330
6F
100
AcDbEntity
  8
LOUVER
  6
Continuous
100
AcDbCircle
 10
242.0315370496226
 20
494.1306193912465
 30
0.0
 40
0.2
100
AcDbArc
 50
290.3599951900913
 51
359.9999999998204
  0
LINE
  5
2F3
330
6F
100
AcDbEntity
  8
LOUVER
  6
Continuous
100
AcDbLine
 10
242.2315370496228
 20
494.1306193912452
 30
0.0
 11
242.2315331040527
 21
494.1323960286708
 31
0.0
  0
LINE
  5
2F4
330
6F
100
AcDbEntity
  8
LOUVER
  6
Continuous
100
AcDbLine
 10
243.2232071993647
 20
494.1306193912776
 30
0.0
 11
243.2232111449347
 21
494.1323960286833
 31
0.0
  0
ARC
  5
2F5
330
6F
100
AcDbEntity
  8
LOUVER
  6
Continuous
100
AcDbCircle
 10
242.7273721245354
 20
492.2555691123148
 30
0.0
 40
2.1
100
AcDbArc
 50
351.042328421765
 51
8.95767158078419
  0
ARC
  5
2F6
330
6F
100
AcDbEntity
  8
LOUVER
  6
Continuous
100
AcDbCircle
 10
244.6041990408919
 20
492.5514081327988
 30
0.0
 40
0.2
100
AcDbArc
 50
8.957671580785854
 51
89.99999999982028
  0
ARC
  5
2F7
330
6F
100
AcDbEntity
  8
LOUVER
  6
Continuous
100
AcDbCircle
 10
244.6041990409055
 20
491.9597300919153
 30
0.0
 40
0.2
100
AcDbArc
 50
269.9999999998204
 51
351.0423284217637
  0
ARC
  5
2F8
330
6F
100
AcDbEntity
  8
LOUVER
  6
Continuous
100
AcDbCircle
 10
244.6024224034979
 20
491.5597340374857
 30
0.0
 40
0.2
100
AcDbArc
 50
89.99999999982042
 51
159.6400048124608
  0
ARC
  5
2F9
330
6F
100
AcDbEntity
  8
LOUVER
  6
Continuous
100
AcDbCircle
 10
244.602422403467
 20
492.9514041872285
 30
0.0
 40
0.2
100
AcDbArc
 50
200.3599951900913
 51
269.9999999998204
  0
LINE
  5
2FA
330
6F
100
AcDbEntity
  8
LOUVER
  6
Continuous
100
AcDbLine
 10
244.6024224034664
 20
492.7514041872274
 30
0.0
 11
244.6041990408912
 21
492.7514081327974
 31
0.0
  0
LINE
  5
2FB
330
6F
100
AcDbEntity
  8
LOUVER
  6
Continuous
100
AcDbLine
 10
244.6024224034987
 20
491.7597340374839
 30
0.0
 11
244.6041990409052
 21
491.759730091914
 31
0.0
  0
LINE
  5
2FC
330
6F
100
AcDbEntity
  8
LOUVER
  6
Continuous
100
AcDbLine
 10
222.7273721245351
 20
495.7555691123149
 30
0.0
 11
262.7273721245351
 21
495.7555691123149
 31
0.0
  0
LINE
  5
2FD
330
6F
100
AcDbEntity
  8
LOUVER
  6
Continuous
100
AcDbLine
 10
225.2273721246752
 20
430.5555691122988
 30
0.0
 11
223.9273721245322
 21
430.5555691122988
 31
0.0
  0
LINE
  5
2FE
330
6F
100
AcDbEntity
  8
LOUVER
  6
Continuous
100
AcDbLine
 10
224.5273721244773
 20
421.7555691123151
 30
0.0
 11
224.5273721244762
 21
426.7555691120032
 31
0.0
  0
LINE
  5
2FF
330
6F
100
AcDbEntity
  8
LOUVER
  6
Continuous
100
AcDbLine
 10
224.5273721244798
 20
421.7555691123159
 30
0.0
 11
222.7273721245315
 21
421.7555691123159
 31
0.0
  0
LINE
  5
300
330
6F
100
AcDbEntity
  8
LOUVER
  6
Continuous
100
AcDbLine
 10
223.9273721245315
 20
435.7555691123162
 30
0.0
 11
228.0273721245309
 21
435.7555691123176
 31
0.0
  0
LINE
  5
301
330
6F
100
AcDbEntity
  8
LOUVER
  6
Continuous
100
AcDbLine
 10
228.0273721245317
 20
435.7555691123176
 30
0.0
 11
228.0273721245317
 21
436.9555691123176
 31
0.0
  0
LINE
  5
302
330
6F
100
AcDbEntity
  8
LOUVER
  6
Continuous
100
AcDbLine
 10
223.927372124532
 20
436.9555691123161
 30
0.0
 11
228.0273721245314
 21
436.9555691123172
 31
0.0
  0
ARC
  5
303
330
6F
100
AcDbEntity
  8
LOUVER
  6
Continuous
100
AcDbCircle
 10
242.7273721245354
 20
464.7555691123148
 30
0.0
 40
2.1
100
AcDbArc
 50
171.0423284192157
 51
188.9576715782349
  0
ARC
  5
304
330
6F
100
AcDbEntity
  8
LOUVER
  6
Continuous
100
AcDbCircle
 10
242.7273721245354
 20
464.7555691123148
 30
0.0
 40
1.8
100
AcDbArc
 50
137.2813554917305
 51
159.6400048099136
  0
ARC
  5
305
330
6F
100
AcDbEntity
  8
LOUVER
  6
Continuous
100
AcDbCircle
 10
240.8505452081797
 20
465.0514081327978
 30
0.0
 40
0.2
100
AcDbArc
 50
90.00000000017953
 51
171.042328419214
  0
ARC
  5
306
330
6F
100
AcDbEntity
  8
LOUVER
  6
Continuous
100
AcDbCircle
 10
240.8505452081661
 20
464.4597300919152
 30
0.0
 40
0.2
100
AcDbArc
 50
188.9576715782362
 51
270.0000000001795
  0
ARC
  5
307
330
6F
100
AcDbEntity
  8
LOUVER
  6
Continuous
100
AcDbCircle
 10
240.8523218455728
 20
464.0597340374856
 30
0.0
 40
0.2
100
AcDbArc
 50
20.3599951875391
 51
90.00000000017953
  0
ARC
  5
308
330
6F
100
AcDbEntity
  8
LOUVER
  6
Continuous
100
AcDbCircle
 10
240.8523218456037
 20
465.4514041872276
 30
0.0
 40
0.2
100
AcDbArc
 50
270.0000000001796
 51
339.6400048099085
  0
ARC
  5
309
330
6F
100
AcDbEntity
  8
LOUVER
  6
Continuous
100
AcDbCircle
 10
240.9273721243578
 20
466.4176461259826
 30
0.0
 40
0.6500000000000014
100
AcDbArc
 50
317.2813554917294
 51
137.2813554917293
  0
ARC
  5
30A
330
6F
100
AcDbEntity
  8
LOUVER
  6
Continuous
100
AcDbCircle
 10
242.7273721245354
 20
464.7555691123148
 30
0.0
 40
1.8
100
AcDbArc
 50
200.3599951875373
 51
249.6400048099133
  0
ARC
  5
30B
330
6F
100
AcDbEntity
  8
LOUVER
  6
Continuous
100
AcDbCircle
 10
242.7273721245354
 20
464.7555691123148
 30
0.0
 40
1.8
100
AcDbArc
 50
20.35999518753717
 51
42.71864452690496
  0
ARC
  5
30C
330
6F
100
AcDbEntity
  8
LOUVER
  6
Continuous
100
AcDbCircle
 10
242.7273721245354
 20
464.7555691123148
 30
0.0
 40
1.8
100
AcDbArc
 50
290.3599951875372
 51
339.6400048099135
  0
ARC
  5
30D
330
6F
100
AcDbEntity
  8
LOUVER
  6
Continuous
100
AcDbCircle
 10
244.5273721241726
 20
466.4176461265681
 30
0.0
 40
0.6500000000000048
100
AcDbArc
 50
42.71864452690667
 51
222.7186445269066
  0
ARC
  5
30E
330
6F
100
AcDbEntity
  8
LOUVER
  6
Continuous
100
AcDbCircle
 10
242.7273721245354
 20
464.7555691123148
 30
0.0
 40
3.1
100
AcDbArc
 50
338.8315511541686
 51
42.71864452690567
  0
ARC
  5
30F
330
6F
100
AcDbEntity
  8
LOUVER
  6
Continuous
100
AcDbCircle
 10
242.7273721245354
 20
464.7555691123148
 30
0.0
 40
3.1
100
AcDbArc
 50
137.28135549173
 51
201.1684488458311
  0
LINE
  5
310
330
6F
100
AcDbEntity
  8
LOUVER
  6
Continuous
100
AcDbLine
 10
240.8523218456048
 20
465.2514041872292
 30
0.0
 11
240.8505452081782
 21
465.2514081327993
 31
0.0
  0
LINE
  5
311
330
6F
100
AcDbEntity
  8
LOUVER
  6
Continuous
100
AcDbLine
 10
240.8523218455727
 20
464.2597340374838
 30
0.0
 11
240.850545208167
 21
464.2597300919139
 31
0.0
  0
ARC
  5
312
330
6F
100
AcDbEntity
  8
LOUVER
  6
Continuous
100
AcDbCircle
 10
242.7273721245354
 20
464.7555691123148
 30
0.0
 40
2.1
100
AcDbArc
 50
261.0423284192156
 51
278.9576715782349
  0
ARC
  5
313
330
6F
100
AcDbEntity
  8
LOUVER
  6
Continuous
100
AcDbCircle
 10
242.4315331040523
 20
462.8787421959581
 30
0.0
 40
0.2
100
AcDbArc
 50
180.0000000001794
 51
261.0423284192139
  0
ARC
  5
314
330
6F
100
AcDbEntity
  8
LOUVER
  6
Continuous
100
AcDbCircle
 10
243.0232111449357
 20
462.8787421959453
 30
0.0
 40
0.2
100
AcDbArc
 50
278.9576715782362
 51
0.0000000001796163
  0
ARC
  5
315
330
6F
100
AcDbEntity
  8
LOUVER
  6
Continuous
100
AcDbCircle
 10
243.4232071993654
 20
462.8805188333521
 30
0.0
 40
0.2
100
AcDbArc
 50
110.3599951875391
 51
180.0000000001795
  0
ARC
  5
316
330
6F
100
AcDbEntity
  8
LOUVER
  6
Continuous
100
AcDbCircle
 10
242.0315370496226
 20
462.8805188333831
 30
0.0
 40
0.2
100
AcDbArc
 50
0.000000000179536
 51
69.64000480990852
  0
LINE
  5
317
330
6F
100
AcDbEntity
  8
LOUVER
  6
Continuous
100
AcDbLine
 10
242.2315370496237
 20
462.8805188333843
 30
0.0
 11
242.2315331040536
 21
462.8787421959577
 31
0.0
  0
LINE
  5
318
330
6F
100
AcDbEntity
  8
LOUVER
  6
Continuous
100
AcDbLine
 10
243.2232071993655
 20
462.8805188333521
 30
0.0
 11
243.2232111449356
 21
462.8787421959466
 31
0.0
  0
ARC
  5
319
330
6F
100
AcDbEntity
  8
LOUVER
  6
Continuous
100
AcDbCircle
 10
242.7273721245354
 20
464.7555691123148
 30
0.0
 40
2.1
100
AcDbArc
 50
351.0423284192156
 51
8.957671578234869
  0
ARC
  5
31A
330
6F
100
AcDbEntity
  8
LOUVER
  6
Continuous
100
AcDbCircle
 10
244.6041990408919
 20
464.4597300918317
 30
0.0
 40
0.2
100
AcDbArc
 50
270.0000000001796
 51
351.042328419214
  0
ARC
  5
31B
330
6F
100
AcDbEntity
  8
LOUVER
  6
Continuous
100
AcDbCircle
 10
244.6041990409055
 20
465.0514081327151
 30
0.0
 40
0.2
100
AcDbArc
 50
8.957671578236167
 51
90.00000000017953
  0
ARC
  5
31C
330
6F
100
AcDbEntity
  8
LOUVER
  6
Continuous
100
AcDbCircle
 10
244.6024224034979
 20
465.4514041871447
 30
0.0
 40
0.2
100
AcDbArc
 50
200.3599951875391
 51
270.0000000001795
  0
ARC
  5
31D
330
6F
100
AcDbEntity
  8
LOUVER
  6
Continuous
100
AcDbCircle
 10
244.602422403467
 20
464.0597340374019
 30
0.0
 40
0.2
100
AcDbArc
 50
90.00000000017953
 51
159.6400048099086
  0
LINE
  5
31E
330
6F
100
AcDbEntity
  8
LOUVER
  6
Continuous
100
AcDbLine
 10
244.6024224034669
 20
464.2597340374023
 30
0.0
 11
244.6041990408926
 21
464.2597300918321
 31
0.0
  0
LINE
  5
31F
330
6F
100
AcDbEntity
  8
LOUVER
  6
Continuous
100
AcDbLine
 10
244.6024224034983
 20
465.2514041871444
 30
0.0
 11
244.6041990409049
 21
465.2514081327145
 31
0.0
  0
LINE
  5
320
330
6F
100
AcDbEntity
  8
LOUVER
  6
Continuous
100
AcDbLine
 10
246.0844541908541
 20
462.9555691123155
 30
0.0
 11
261.5273721245699
 21
462.9555691123155
 31
0.0
  0
LINE
  5
321
330
6F
100
AcDbEntity
  8
LOUVER
  6
Continuous
100
AcDbLine
 10
222.7273721245352
 20
495.7555691123149
 30
0.0
 11
222.7273721245317
 21
421.7555691123138
 31
0.0
  0
LINE
  5
322
330
6F
100
AcDbEntity
  8
LOUVER
  6
Continuous
100
AcDbLine
 10
223.9273721245331
 20
462.9555691123148
 30
0.0
 11
239.3702900582161
 21
462.9555691123148
 31
0.0
  0
LINE
  5
323
330
6F
100
AcDbEntity
  8
LOUVER
  6
Continuous
100
AcDbLine
 10
223.9273721245326
 20
461.7555691123146
 30
0.0
 11
261.5273721245684
 21
461.7555691123146
 31
0.0
  0
LINE
  5
324
330
6F
100
AcDbEntity
  8
LOUVER
  6
Continuous
100
AcDbLine
 10
260.2273721244007
 20
430.555569112286
 30
0.0
 11
261.5273721245392
 21
430.5555691122838
 31
0.0
  0
LINE
  5
325
330
6F
100
AcDbEntity
  8
LOUVER
  6
Continuous
100
AcDbLine
 10
260.9273721245843
 20
421.7555691123011
 30
0.0
 11
260.9273721245871
 21
426.7555691119896
 31
0.0
  0
LINE
  5
326
330
6F
100
AcDbEntity
  8
LOUVER
  6
Continuous
100
AcDbLine
 10
260.9273721245825
 20
421.7555691123012
 30
0.0
 11
262.7273721245309
 21
421.7555691122981
 31
0.0
  0
LINE
  5
327
330
6F
100
AcDbEntity
  8
LOUVER
  6
Continuous
100
AcDbLine
 10
261.5273721245445
 20
435.7555691123009
 30
0.0
 11
257.4273721245541
 21
435.755569112309
 31
0.0
  0
LINE
  5
328
330
6F
100
AcDbEntity
  8
LOUVER
  6
Continuous
100
AcDbLine
 10
257.4273721245538
 20
435.755569112309
 30
0.0
 11
257.4273721245558
 21
436.9555691123088
 31
0.0
  0
ARC
  5
329
330
6F
100
AcDbEntity
  8
LOUVER
  6
Continuous
100
AcDbCircle
 10
260.2273721244007
 20
430.3555691122861
 30
0.0
 40
0.2
100
AcDbArc
 50
90.0
 51
194.1296704973614
  0
LINE
  5
32A
330
6F
100
AcDbEntity
  8
LOUVER
  6
Continuous
100
AcDbLine
 10
261.5273721245448
 20
436.955569112301
 30
0.0
 11
257.4273721245563
 21
436.9555691123093
 31
0.0
  0
LINE
  5
32B
330
6F
100
AcDbEntity
  8
LOUVER
  6
Continuous
100
AcDbLine
 10
262.7273721246266
 20
495.7555691123022
 30
0.0
 11
262.7273721245309
 21
421.7555691122985
 31
0.0
  0
ARC
  5
32C
330
6F
100
AcDbEntity
  8
LOUVER
  6
Continuous
100
AcDbCircle
 10
239.3702900582164
 20
463.4555691123153
 30
0.0
 40
0.5
100
AcDbArc
 50
270.0
 51
21.16844884583121
  0
ARC
  5
32D
330
6F
100
AcDbEntity
  8
LOUVER
  6
Continuous
100
AcDbCircle
 10
246.0844541908543
 20
463.4555691123153
 30
0.0
 40
0.5
100
AcDbArc
 50
158.8315511541688
 51
270.0
  0
LINE
  5
32E
330
6F
100
AcDbEntity
  8
LOUVER
  6
Continuous
100
AcDbLine
 10
223.9273721245358
 20
494.5555691123153
 30
0.0
 11
223.9273721245338
 21
462.9555691123148
 31
0.0
  0
LINE
  5
32F
330
6F
100
AcDbEntity
  8
LOUVER
  6
Continuous
100
AcDbLine
 10
261.527372124625
 20
494.5555691123155
 30
0.0
 11
261.5273721245702
 21
462.9555691123153
 31
0.0
  0
LINE
  5
330
330
6F
100
AcDbEntity
  8
LOUVER
  6
Continuous
100
AcDbLine
 10
223.9273721245345
 20
461.755569112315
 30
0.0
 11
223.9273721245336
 21
436.9555691123156
 31
0.0
  0
LINE
  5
331
330
6F
100
AcDbEntity
  8
LOUVER
  6
Continuous
100
AcDbLine
 10
223.9273721245336
 20
435.7555691123149
 30
0.0
 11
223.9273721245334
 21
430.5555691122978
 31
0.0
  0
LINE
  5
332
330
6F
100
AcDbEntity
  8
LOUVER
  6
Continuous
100
AcDbLine
 10
261.5273721245697
 20
461.7555691123161
 30
0.0
 11
261.5273721245456
 21
436.9555691123014
 31
0.0
  0
LINE
  5
333
330
6F
100
AcDbEntity
  8
LOUVER
  6
Continuous
100
AcDbLine
 10
261.5273721245445
 20
435.755569112301
 30
0.0
 11
261.5273721245395
 21
430.5555691122839
 31
0.0
  0
ARC
  5
334
330
6F
100
AcDbEntity
  8
LOUVER
  6
Continuous
100
AcDbCircle
 10
225.22737212466
 20
430.355569112284
 30
0.0
 40
0.2
100
AcDbArc
 50
345.8703295026307
 51
90.0
  0
LINE
  5
335
330
6F
100
AcDbEntity
  8
LOUVER
  6
Continuous
100
AcDbLine
 10
225.4213212706065
 20
430.3067456672336
 30
0.0
 11
224.5273721244768
 21
426.7555691120033
 31
0.0
  0
LINE
  5
336
330
6F
100
AcDbEntity
  8
LOUVER
  6
Continuous
100
AcDbLine
 10
260.9273721245883
 20
426.7555691119897
 30
0.0
 11
260.0334229784554
 21
430.3067456672354
 31
0.0
  0
LINE
  5
337
330
6F
100
AcDbEntity
  8
LOUVER
  6
Continuous
100
AcDbLine
 10
239.3954542455899
 20
494.0803917444488
 30
0.0
 11
223.927372124536
 21
494.5555691123145
 31
0.0
  0
LINE
  5
338
330
6F
100
AcDbEntity
  8
LOUVER
  6
Continuous
100
AcDbLine
 10
261.5273721246255
 20
494.5555691123145
 30
0.0
 11
246.0592900034826
 21
494.0803917444488
 31
0.0
  0
ARC
  5
339
330
6F
100
AcDbEntity
  8
LOUVER
  6
Continuous
100
AcDbCircle
 10
246.0746426925841
 20
493.5806275050949
 30
0.0
 40
0.5
100
AcDbArc
 50
91.75956514561034
 51
201.5967477556075
  0
ARC
  5
33A
330
6F
100
AcDbEntity
  8
LOUVER
  6
Continuous
100
AcDbCircle
 10
239.3801015564866
 20
493.5806275050949
 30
0.0
 40
0.5
100
AcDbArc
 50
338.4032522443904
 51
88.24043485437984
  0
LINE
  5
33B
330
6F
100
AcDbEntity
  8
UKEZAI
  6
Continuous
100
AcDbLine
 10
259.4273721245311
 20
423.7555691123014
 30
0.0
 11
259.4273721245311
 21
430.7555691123014
 31
0.0
  0
LINE
  5
33C
330
6F
100
AcDbEntity
  8
UKEZAI
  6
Continuous
100
AcDbLine
 10
260.9273721245829
 20
420.7555691123012
 30
0.0
 11
260.9273721245851
 21
422.7555691120143
 31
0.0
  0
LINE
  5
33D
330
6F
100
AcDbEntity
  8
UKEZAI
  6
Continuous
100
AcDbLine
 10
257.9273721245311
 20
422.2555691123014
 30
0.0
 11
257.9273721245311
 21
435.0055691123014
 31
0.0
  0
LINE
  5
33E
330
6F
100
AcDbEntity
  8
UKEZAI
  6
Continuous
100
AcDbLine
 10
259.4273721245311
 20
430.7555691122558
 30
0.0
 11
260.7273721238
 21
430.7555691122566
 31
0.0
  0
LINE
  5
33F
330
6F
100
AcDbEntity
  8
UKEZAI
  6
Continuous
100
AcDbLine
 10
259.4273721245311
 20
423.7555691123014
 30
0.0
 11
260.7273721245863
 21
423.7555691123014
 31
0.0
  0
LINE
  5
340
330
6F
100
AcDbEntity
  8
UKEZAI
  6
Continuous
100
AcDbLine
 10
226.0273721245312
 20
423.7555691123014
 30
0.0
 11
226.0273721245312
 21
430.7555691123014
 31
0.0
  0
LINE
  5
341
330
6F
100
AcDbEntity
  8
UKEZAI
  6
Continuous
100
AcDbLine
 10
224.5273721244793
 20
420.7555691123013
 30
0.0
 11
224.527372124477
 21
422.7555691120113
 31
0.0
  0
LINE
  5
342
330
6F
100
AcDbEntity
  8
UKEZAI
  6
Continuous
100
AcDbLine
 10
227.5273721245312
 20
422.2555691123014
 30
0.0
 11
227.5273721245312
 21
435.0055691123014
 31
0.0
  0
ARC
  5
343
330
6F
100
AcDbEntity
  8
UKEZAI
  6
Continuous
100
AcDbCircle
 10
226.7773721245312
 20
435.0055691123014
 30
0.0
 40
0.75
100
AcDbArc
 50
0.0
 51
160.1120357041571
  0
LINE
  5
344
330
6F
100
AcDbEntity
  8
UKEZAI
  6
Continuous
100
AcDbLine
 10
226.0273721245311
 20
430.7555691122559
 30
0.0
 11
224.7273721252622
 21
430.7555691122568
 31
0.0
  0
LINE
  5
345
330
6F
100
AcDbEntity
  8
UKEZAI
  6
Continuous
100
AcDbLine
 10
226.0273721245312
 20
423.7555691123014
 30
0.0
 11
224.727372124476
 21
423.7555691123014
 31
0.0
  0
LINE
  5
346
330
6F
100
AcDbEntity
  8
UKEZAI
  6
Continuous
100
AcDbLine
 10
224.5273721244798
 20
420.7555691123014
 30
0.0
 11
260.9273721245829
 21
420.7555691123014
 31
0.0
  0
ARC
  5
347
330
6F
100
AcDbEntity
  8
UKEZAI
  6
Continuous
100
AcDbCircle
 10
242.727372124531
 20
422.2555691123014
 30
0.0
 40
0.3
100
AcDbArc
 50
180.0
 51
0.0
  0
ARC
  5
348
330
6F
100
AcDbEntity
  8
UKEZAI
  6
Continuous
100
AcDbCircle
 10
258.6773721245311
 20
435.0055691123014
 30
0.0
 40
0.75
100
AcDbArc
 50
19.8879642958426
 51
180.0
  0
LINE
  5
349
330
6F
100
AcDbEntity
  8
UKEZAI
  6
Continuous
100
AcDbLine
 10
260.9273721245849
 20
422.7555691120143
 30
0.0
 11
260.7273721245861
 21
423.7555691123013
 31
0.0
  0
LINE
  5
34A
330
6F
100
AcDbEntity
  8
UKEZAI
  6
Continuous
100
AcDbLine
 10
224.5273721244772
 20
422.7555691120143
 30
0.0
 11
224.7273721244761
 21
423.7555691123013
 31
0.0
  0
ARC
  5
34B
330
6F
100
AcDbEntity
  8
UKEZAI
  6
Continuous
100
AcDbCircle
 10
224.7273721252623
 20
430.955569112257
 30
0.0
 40
0.2
100
AcDbArc
 50
160.1120357041559
 51
270.0
  0
LINE
  5
34C
330
6F
100
AcDbEntity
  8
UKEZAI
  6
Continuous
100
AcDbLine
 10
224.5393002038023
 20
431.0236055169118
 30
0.0
 11
226.0721024190563
 21
435.2607056297571
 31
0.0
  0
ARC
  5
34D
330
6F
100
AcDbEntity
  8
UKEZAI
  6
Continuous
100
AcDbCircle
 10
260.7273721238
 20
430.955569112257
 30
0.0
 40
0.2
100
AcDbArc
 50
270.0
 51
19.88796429584412
  0
LINE
  5
34E
330
6F
100
AcDbEntity
  8
UKEZAI
  6
Continuous
100
AcDbLine
 10
260.91544404526
 20
431.0236055169118
 30
0.0
 11
259.382641830006
 21
435.2607056297571
 31
0.0
  0
ARC
  5
34F
330
6F
100
AcDbEntity
  8
UKEZAI
  6
Continuous
100
AcDbCircle
 10
244.727372124531
 20
422.2555691123014
 30
0.0
 40
0.3
100
AcDbArc
 50
0.0
 51
180.0
  0
LINE
  5
350
330
6F
100
AcDbEntity
  8
UKEZAI
  6
Continuous
100
AcDbLine
 10
243.0273721245312
 20
422.2555691123014
 30
0.0
 11
244.4273721245313
 21
422.2555691123014
 31
0.0
  0
LINE
  5
351
330
6F
100
AcDbEntity
  8
UKEZAI
  6
Continuous
100
AcDbLine
 10
245.0273721245312
 20
422.2555691123014
 30
0.0
 11
257.9273721245311
 21
422.2555691123014
 31
0.0
  0
ARC
  5
352
330
6F
100
AcDbEntity
  8
UKEZAI
  6
Continuous
100
AcDbCircle
 10
240.727372124531
 20
422.2555691123014
 30
0.0
 40
0.3
100
AcDbArc
 50
0.0
 51
180.0
  0
LINE
  5
353
330
6F
100
AcDbEntity
  8
UKEZAI
  6
Continuous
100
AcDbLine
 10
227.5273721245312
 20
422.2555691123014
 30
0.0
 11
240.4273721245314
 21
422.2555691123014
 31
0.0
  0
LINE
  5
354
330
6F
100
AcDbEntity
  8
UKEZAI
  6
Continuous
100
AcDbLine
 10
241.0273721245312
 20
422.2555691123014
 30
0.0
 11
242.4273721245313
 21
422.2555691123014
 31
0.0
  0
LINE
  5
355
330
6F
100
AcDbEntity
  8
COMMENT
  6
Continuous
100
AcDbLine
 10
587.7412277201053
 20
511.5555691242358
 30
0.0
 11
587.7412277201053
 21
528.1643696043905
 31
0.0
  0
LINE
  5
356
330
6F
100
AcDbEntity
  8
COMMENT
  6
Continuous
100
AcDbLine
 10
587.7412277201053
 20
527.1643696043904
 30
0.0
 11
627.7412277201054
 21
527.1643696043904
 31
0.0
  0
LWPOLYLINE
  5
357
330
6F
100
AcDbEntity
  8
COMMENT
  6
Continuous
100
AcDbPolyline
 90
        2
 70
     1
 43
0.5
 10
587.9912277201055
 20
527.1643696043904
 42
1.0
 10
587.4912277201055
 20
527.1643696043904
 42
1.0
  0
LWPOLYLINE
  5
35B
330
6F
100
AcDbEntity
  8
COMMENT
  6
Continuous
100
AcDbPolyline
 90
        2
 70
     1
 43
0.5
 10
627.9912277201055
 20
527.1643696043904
 42
1.0
 10
627.4912277201053
 20
527.1643696043904
 42
1.0
  0
TEXT
  5
35F
330
6F
100
AcDbEntity
  8
COMMENT
  6
Continuous
100
AcDbText
 10
605.141227636659
 20
527.6643696043904
 30
0.0
 40
3.099999904632568
  1
40
100
AcDbText
  0
LINE
  5
360
330
6F
100
AcDbEntity
  8
COMMENT
  6
Continuous
100
AcDbLine
 10
627.7412277201054
 20
511.5555691242358
 30
0.0
 11
627.7412277201054
 21
528.1643696043905
 31
0.0
  0
LINE
  5
361
330
6F
100
AcDbEntity
  8
COMMENT
  6
Continuous
100
AcDbLine
 10
627.7412277201054
 20
232.636449621561
 30
0.0
 11
627.7412277201054
 21
251.6607166343512
 31
0.0
  0
LINE
  5
362
330
6F
100
AcDbEntity
  8
COMMENT
  6
Continuous
100
AcDbLine
 10
627.7412277201054
 20
250.6607166343512
 30
0.0
 11
587.7412277201053
 21
250.6607166343512
 31
0.0
  0
LWPOLYLINE
  5
363
330
6F
100
AcDbEntity
  8
COMMENT
  6
Continuous
100
AcDbPolyline
 90
        2
 70
     1
 43
0.5
 10
627.9912277201055
 20
250.6607166343512
 42
1.0
 10
627.4912277201053
 20
250.6607166343512
 42
1.0
  0
LWPOLYLINE
  5
367
330
6F
100
AcDbEntity
  8
COMMENT
  6
Continuous
100
AcDbPolyline
 90
        2
 70
     1
 43
0.5
 10
587.9912277201055
 20
250.6607166343512
 42
1.0
 10
587.4912277201055
 20
250.6607166343512
 42
1.0
  0
TEXT
  5
36B
330
6F
100
AcDbEntity
  8
COMMENT
  6
Continuous
100
AcDbText
 10
605.141227636659
 20
251.1607166343512
 30
0.0
 40
3.099999904632568
  1
40
100
AcDbText
  0
LINE
  5
36C
330
6F
100
AcDbEntity
  8
COMMENT
  6
Continuous
100
AcDbLine
 10
587.7412277201053
 20
232.636449621561
 30
0.0
 11
587.7412277201053
 21
251.6607166343512
 31
0.0
  0
LINE
  5
36D
330
6F
100
AcDbEntity
  8
COMMENT
  6
Continuous
100
AcDbLine
 10
262.7273721245351
 20
234.1364496215606
 30
0.0
 11
262.7273721245351
 21
251.6607166343512
 31
0.0
  0
LINE
  5
36E
330
6F
100
AcDbEntity
  8
COMMENT
  6
Continuous
100
AcDbLine
 10
262.7273721245351
 20
250.6607166343512
 30
0.0
 11
222.7273721245351
 21
250.6607166343512
 31
0.0
  0
LWPOLYLINE
  5
36F
330
6F
100
AcDbEntity
  8
COMMENT
  6
Continuous
100
AcDbPolyline
 90
        2
 70
     1
 43
0.5
 10
262.9773721245351
 20
250.6607166343512
 42
1.0
 10
262.4773721245351
 20
250.6607166343512
 42
1.0
  0
LWPOLYLINE
  5
373
330
6F
100
AcDbEntity
  8
COMMENT
  6
Continuous
100
AcDbPolyline
 90
        2
 70
     1
 43
0.5
 10
222.9773721245351
 20
250.6607166343512
 42
1.0
 10
222.4773721245351
 20
250.6607166343512
 42
1.0
  0
TEXT
  5
377
330
6F
100
AcDbEntity
  8
COMMENT
  6
Continuous
100
AcDbText
 10
240.1273720410886
 20
251.1607166343512
 30
0.0
 40
3.099999904632568
  1
40
100
AcDbText
  0
LINE
  5
378
330
6F
100
AcDbEntity
  8
COMMENT
  6
Continuous
100
AcDbLine
 10
222.7273721245351
 20
234.1364496215606
 30
0.0
 11
222.7273721245351
 21
251.6607166343512
 31
0.0
  0
LINE
  5
379
330
6F
100
AcDbEntity
  8
COMMENT
  6
Continuous
100
AcDbLine
 10
262.7273721245351
 20
496.5555691242358
 30
0.0
 11
262.7273721245351
 21
515.9093725187529
 31
0.0
  0
LINE
  5
37A
330
6F
100
AcDbEntity
  8
COMMENT
  6
Continuous
100
AcDbLine
 10
262.7273721245351
 20
514.9093725187531
 30
0.0
 11
222.7273721245351
 21
514.9093725187531
 31
0.0
  0
LWPOLYLINE
  5
37B
330
6F
100
AcDbEntity
  8
COMMENT
  6
Continuous
100
AcDbPolyline
 90
        2
 70
     1
 43
0.5
 10
262.9773721245351
 20
514.9093725187531
 42
1.0
 10
262.4773721245351
 20
514.9093725187531
 42
1.0
  0
LWPOLYLINE
  5
37F
330
6F
100
AcDbEntity
  8
COMMENT
  6
Continuous
100
AcDbPolyline
 90
        2
 70
     1
 43
0.5
 10
222.9773721245351
 20
514.9093725187531
 42
1.0
 10
222.4773721245351
 20
514.9093725187531
 42
1.0
  0
TEXT
  5
383
330
6F
100
AcDbEntity
  8
COMMENT
  6
Continuous
100
AcDbText
 10
240.1273720410886
 20
515.409372518753
 30
0.0
 40
3.099999904632568
  1
40
100
AcDbText
  0
LINE
  5
384
330
6F
100
AcDbEntity
  8
COMMENT
  6
Continuous
100
AcDbLine
 10
222.7273721245351
 20
496.5555691242358
 30
0.0
 11
222.7273721245351
 21
515.9093725187529
 31
0.0
  0
LINE
  5
385
330
6F
100
AcDbEntity
  8
COMMENT
  6
Continuous
100
AcDbLine
 10
586.9412277081846
 20
510.7555691123151
 30
0.0
 11
560.9032915279706
 21
510.7555691123151
 31
0.0
  0
LINE
  5
386
330
6F
100
AcDbEntity
  8
COMMENT
  6
Continuous
100
AcDbLine
 10
561.9032915279706
 20
510.7555691123151
 30
0.0
 11
561.9032915279706
 21
435.7555691123014
 31
0.0
  0
LWPOLYLINE
  5
387
330
6F
100
AcDbEntity
  8
COMMENT
  6
Continuous
100
AcDbPolyline
 90
        2
 70
     1
 43
0.5
 10
562.1532915279706
 20
510.7555691123151
 42
1.0
 10
561.6532915279706
 20
510.7555691123151
 42
1.0
  0
LWPOLYLINE
  5
38B
330
6F
100
AcDbEntity
  8
COMMENT
  6
Continuous
100
AcDbPolyline
 90
        2
 70
     1
 43
0.5
 10
562.1532915279706
 20
435.7555691123014
 42
1.0
 10
561.6532915279706
 20
435.7555691123014
 42
1.0
  0
TEXT
  5
38F
330
6F
100
AcDbEntity
  8
COMMENT
  6
Continuous
100
AcDbText
 10
561.4032915279706
 20
470.6555690288617
 30
0.0
 40
3.099999904632568
  1
75
 50
90.0
100
AcDbText
  0
LINE
  5
390
330
6F
100
AcDbEntity
  8
COMMENT
  6
Continuous
100
AcDbLine
 10
221.9273721126142
 20
495.7555691123149
 30
0.0
 11
194.3142080451761
 21
495.7555691123149
 31
0.0
  0
LINE
  5
391
330
6F
100
AcDbEntity
  8
COMMENT
  6
Continuous
100
AcDbLine
 10
195.3142080451761
 20
495.7555691123149
 30
0.0
 11
195.3142080451761
 21
420.7555691123014
 31
0.0
  0
LWPOLYLINE
  5
392
330
6F
100
AcDbEntity
  8
COMMENT
  6
Continuous
100
AcDbPolyline
 90
        2
 70
     1
 43
0.5
 10
195.5642080451761
 20
495.7555691123149
 42
1.0
 10
195.0642080451761
 20
495.7555691123149
 42
1.0
  0
LWPOLYLINE
  5
396
330
6F
100
AcDbEntity
  8
COMMENT
  6
Continuous
100
AcDbPolyline
 90
        2
 70
     1
 43
0.5
 10
195.5642080451761
 20
420.7555691123014
 42
1.0
 10
195.0642080451761
 20
420.7555691123014
 42
1.0
  0
TEXT
  5
39A
330
6F
100
AcDbEntity
  8
COMMENT
  6
Continuous
100
AcDbText
 10
194.8142080451761
 20
455.6555690288616
 30
0.0
 40
3.099999904632568
  1
75
 50
90.0
100
AcDbText
  0
LINE
  5
39B
330
6F
100
AcDbEntity
  8
COMMENT
  6
Continuous
100
AcDbLine
 10
586.9412277081846
 20
231.83644960964
 30
0.0
 11
558.9007365706098
 21
231.83644960964
 31
0.0
  0
LINE
  5
39C
330
6F
100
AcDbEntity
  8
COMMENT
  6
Continuous
100
AcDbLine
 10
559.9007365706098
 20
231.83644960964
 30
0.0
 11
559.9007365706098
 21
156.8364496096263
 31
0.0
  0
LWPOLYLINE
  5
39D
330
6F
100
AcDbEntity
  8
COMMENT
  6
Continuous
100
AcDbPolyline
 90
        2
 70
     1
 43
0.5
 10
560.1507365706098
 20
231.83644960964
 42
1.0
 10
559.6507365706099
 20
231.83644960964
 42
1.0
  0
LWPOLYLINE
  5
3A1
330
6F
100
AcDbEntity
  8
COMMENT
  6
Continuous
100
AcDbPolyline
 90
        2
 70
     1
 43
0.5
 10
560.1507365706098
 20
156.8364496096263
 42
1.0
 10
559.6507365706099
 20
156.8364496096263
 42
1.0
  0
TEXT
  5
3A5
330
6F
100
AcDbEntity
  8
COMMENT
  6
Continuous
100
AcDbText
 10
559.4007365706098
 20
191.7364495261866
 30
0.0
 40
3.099999904632568
  1
75
 50
90.0
100
AcDbText
  0
LINE
  5
3A6
330
6F
100
AcDbEntity
  8
COMMENT
  6
Continuous
100
AcDbLine
 10
221.9273721126142
 20
233.3364496096397
 30
0.0
 11
193.5482670750466
 21
233.3364496096397
 31
0.0
  0
LINE
  5
3A7
330
6F
100
AcDbEntity
  8
COMMENT
  6
Continuous
100
AcDbLine
 10
194.5482670750465
 20
233.3364496096397
 30
0.0
 11
194.5482670750465
 21
158.336449609626
 31
0.0
  0
LWPOLYLINE
  5
3A8
330
6F
100
AcDbEntity
  8
COMMENT
  6
Continuous
100
AcDbPolyline
 90
        2
 70
     1
 43
0.5
 10
194.7982670750466
 20
233.3364496096397
 42
1.0
 10
194.2982670750465
 20
233.3364496096397
 42
1.0
  0
LWPOLYLINE
  5
3AC
330
6F
100
AcDbEntity
  8
COMMENT
  6
Continuous
100
AcDbPolyline
 90
        2
 70
     1
 43
0.5
 10
194.7982670750466
 20
158.336449609626
 42
1.0
 10
194.2982670750465
 20
158.336449609626
 42
1.0
  0
TEXT
  5
3B0
330
6F
100
AcDbEntity
  8
COMMENT
  6
Continuous
100
AcDbText
 10
194.0482670750465
 20
193.2364495261863
 30
0.0
 40
3.099999904632568
  1
75
 50
90.0
100
AcDbText
  0
LINE
  5
3B1
330
6F
100
AcDbEntity
  8
COMMENT
  6
Continuous
100
AcDbLine
 10
582.5526257826271
 20
445.7555691123046
 30
0.0
 11
573.0691716296142
 21
445.7555691122824
 31
0.0
  0
LINE
  5
3B2
330
6F
100
AcDbEntity
  8
COMMENT
  6
Continuous
100
AcDbLine
 10
574.0691716296143
 20
445.7555691122847
 30
0.0
 11
574.0691716296143
 21
435.7555691123014
 31
0.0
  0
LWPOLYLINE
  5
3B3
330
6F
100
AcDbEntity
  8
COMMENT
  6
Continuous
100
AcDbPolyline
 90
        2
 70
     1
 43
0.5
 10
574.3191716296142
 20
445.7555691122847
 42
1.0
 10
573.8191716296142
 20
445.7555691122847
 42
1.0
  0
LWPOLYLINE
  5
3B7
330
6F
100
AcDbEntity
  8
COMMENT
  6
Continuous
100
AcDbPolyline
 90
        2
 70
     1
 43
0.5
 10
574.3191716296142
 20
435.7555691123014
 42
1.0
 10
573.8191716296142
 20
435.7555691123014
 42
1.0
  0
TEXT
  5
3BB
330
6F
100
AcDbEntity
  8
COMMENT
  6
Continuous
100
AcDbText
 10
573.5691716296143
 20
438.1555690288466
 30
0.0
 40
3.099999904632568
  1
10
 50
90.0
100
AcDbText
  0
LINE
  5
3BC
330
6F
100
AcDbEntity
  8
COMMENT
  6
Continuous
100
AcDbLine
 10
588.7412277081292
 20
435.7555691123014
 30
0.0
 11
573.0691716296142
 21
435.7555691123014
 31
0.0
  0
LINE
  5
3BD
330
6F
100
AcDbEntity
  8
COMMENT
  6
Continuous
100
AcDbLine
 10
586.9412277081813
 20
436.7555691123138
 30
0.0
 11
580.6895603646681
 21
436.7555691123138
 31
0.0
  0
LINE
  5
3BE
330
6F
100
AcDbEntity
  8
COMMENT
  6
Continuous
100
AcDbLine
 10
581.6895603646679
 20
441.3399301886688
 30
0.0
 11
581.6895603646679
 21
435.7555691123014
 31
0.0
  0
LWPOLYLINE
  5
3BF
330
6F
100
AcDbEntity
  8
COMMENT
  6
Continuous
100
AcDbPolyline
 90
        2
 70
     1
 43
0.5
 10
581.9395603646681
 20
436.7555691123138
 42
1.0
 10
581.4395603646679
 20
436.7555691123138
 42
1.0
  0
LWPOLYLINE
  5
3C3
330
6F
100
AcDbEntity
  8
COMMENT
  6
Continuous
100
AcDbPolyline
 90
        2
 70
     1
 43
0.5
 10
581.9395603646681
 20
435.7555691123014
 42
1.0
 10
581.4395603646679
 20
435.7555691123014
 42
1.0
  0
TEXT
  5
3C7
330
6F
100
AcDbEntity
  8
COMMENT
  6
Continuous
100
AcDbText
 10
581.189560364668
 20
438.7399300970203
 30
0.0
 40
3.099999904632568
  1
1
 50
90.0
100
AcDbText
  0
LINE
  5
3C8
330
6F
100
AcDbEntity
  8
COMMENT
  6
Continuous
100
AcDbLine
 10
588.7412277081292
 20
435.7555691123014
 30
0.0
 11
580.6895603646681
 21
435.7555691123014
 31
0.0
  0
LINE
  5
3C9
330
6F
100
AcDbEntity
  8
COMMENT
  6
Continuous
100
AcDbLine
 10
217.5387701870565
 20
430.7555691123051
 30
0.0
 11
205.3158592603857
 21
430.7555691122828
 31
0.0
  0
LINE
  5
3CA
330
6F
100
AcDbEntity
  8
COMMENT
  6
Continuous
100
AcDbLine
 10
206.3158592603857
 20
430.7555691122847
 30
0.0
 11
206.3158592603857
 21
420.7555691123014
 31
0.0
  0
LWPOLYLINE
  5
3CB
330
6F
100
AcDbEntity
  8
COMMENT
  6
Continuous
100
AcDbPolyline
 90
        2
 70
     1
 43
0.5
 10
206.5658592603857
 20
430.7555691122847
 42
1.0
 10
206.0658592603857
 20
430.7555691122847
 42
1.0
  0
LWPOLYLINE
  5
3CF
330
6F
100
AcDbEntity
  8
COMMENT
  6
Continuous
100
AcDbPolyline
 90
        2
 70
     1
 43
0.5
 10
206.5658592603857
 20
420.7555691123014
 42
1.0
 10
206.0658592603857
 20
420.7555691123014
 42
1.0
  0
TEXT
  5
3D3
330
6F
100
AcDbEntity
  8
COMMENT
  6
Continuous
100
AcDbText
 10
205.8158592603857
 20
423.1555690288464
 30
0.0
 40
3.099999904632568
  1
10
 50
90.0
100
AcDbText
  0
LINE
  5
3D4
330
6F
100
AcDbEntity
  8
COMMENT
  6
Continuous
100
AcDbLine
 10
221.9273721126106
 20
421.7555691123159
 30
0.0
 11
214.6600535063528
 21
421.7555691123159
 31
0.0
  0
LINE
  5
3D5
330
6F
100
AcDbEntity
  8
COMMENT
  6
Continuous
100
AcDbLine
 10
215.6600535063528
 20
425.9026628852041
 30
0.0
 11
215.6600535063528
 21
420.7555691123014
 31
0.0
  0
LWPOLYLINE
  5
3D6
330
6F
100
AcDbEntity
  8
COMMENT
  6
Continuous
100
AcDbPolyline
 90
        2
 70
     1
 43
0.5
 10
215.9100535063528
 20
421.7555691123159
 42
1.0
 10
215.4100535063528
 20
421.7555691123159
 42
1.0
  0
LWPOLYLINE
  5
3DA
330
6F
100
AcDbEntity
  8
COMMENT
  6
Continuous
100
AcDbPolyline
 90
        2
 70
     1
 43
0.5
 10
215.9100535063528
 20
420.7555691123014
 42
1.0
 10
215.4100535063528
 20
420.7555691123014
 42
1.0
  0
TEXT
  5
3DE
330
6F
100
AcDbEntity
  8
COMMENT
  6
Continuous
100
AcDbText
 10
215.1600535063528
 20
423.3026628949307
 30
0.0
 40
3.099999904632568
  1
1
 50
90.0
100
AcDbText
  0
LINE
  5
3DF
330
6F
100
AcDbEntity
  8
COMMENT
  6
Continuous
100
AcDbLine
 10
217.5387701870568
 20
168.3364496096294
 30
0.0
 11
205.5159255313686
 21
168.3364496096074
 31
0.0
  0
LINE
  5
3E0
330
6F
100
AcDbEntity
  8
COMMENT
  6
Continuous
100
AcDbLine
 10
206.5159255313686
 20
168.3364496096092
 30
0.0
 11
206.5159255313686
 21
158.336449609626
 31
0.0
  0
LWPOLYLINE
  5
3E1
330
6F
100
AcDbEntity
  8
COMMENT
  6
Continuous
100
AcDbPolyline
 90
        2
 70
     1
 43
0.5
 10
206.7659255313686
 20
168.3364496096092
 42
1.0
 10
206.2659255313686
 20
168.3364496096092
 42
1.0
  0
LWPOLYLINE
  5
3E5
330
6F
100
AcDbEntity
  8
COMMENT
  6
Continuous
100
AcDbPolyline
 90
        2
 70
     1
 43
0.5
 10
206.7659255313686
 20
158.336449609626
 42
1.0
 10
206.2659255313686
 20
158.336449609626
 42
1.0
  0
TEXT
  5
3E9
330
6F
100
AcDbEntity
  8
COMMENT
  6
Continuous
100
AcDbText
 10
206.0159255313686
 20
160.7364495261711
 30
0.0
 40
3.099999904632568
  1
10
 50
90.0
100
AcDbText
  0
LINE
  5
3EA
330
6F
100
AcDbEntity
  8
COMMENT
  6
Continuous
100
AcDbLine
 10
223.7273721125589
 20
158.336449609626
 30
0.0
 11
205.5159255313686
 21
158.336449609626
 31
0.0
  0
LINE
  5
3EB
330
6F
100
AcDbEntity
  8
COMMENT
  6
Continuous
100
AcDbLine
 10
221.9273721126108
 20
159.3364496096385
 30
0.0
 11
214.8538725858647
 21
159.3364496096385
 31
0.0
  0
LINE
  5
3EC
330
6F
100
AcDbEntity
  8
COMMENT
  6
Continuous
100
AcDbLine
 10
215.8538725858647
 20
163.5875506266368
 30
0.0
 11
215.8538725858647
 21
158.336449609626
 31
0.0
  0
LWPOLYLINE
  5
3ED
330
6F
100
AcDbEntity
  8
COMMENT
  6
Continuous
100
AcDbPolyline
 90
        2
 70
     1
 43
0.5
 10
216.1038725858647
 20
159.3364496096385
 42
1.0
 10
215.6038725858647
 20
159.3364496096385
 42
1.0
  0
LWPOLYLINE
  5
3F1
330
6F
100
AcDbEntity
  8
COMMENT
  6
Continuous
100
AcDbPolyline
 90
        2
 70
     1
 43
0.5
 10
216.1038725858647
 20
158.336449609626
 42
1.0
 10
215.6038725858647
 20
158.336449609626
 42
1.0
  0
TEXT
  5
3F5
330
6F
100
AcDbEntity
  8
COMMENT
  6
Continuous
100
AcDbText
 10
215.3538725858647
 20
160.9875506121348
 30
0.0
 40
3.099999904632568
  1
1
 50
90.0
100
AcDbText
  0
LINE
  5
3F6
330
6F
100
AcDbEntity
  8
COMMENT
  6
Continuous
100
AcDbLine
 10
223.7273721125589
 20
158.336449609626
 30
0.0
 11
214.8538725858647
 21
158.336449609626
 31
0.0
  0
LINE
  5
3F7
330
6F
100
AcDbEntity
  8
COMMENT
  6
Continuous
100
AcDbLine
 10
582.5526257826273
 20
166.8364496096312
 30
0.0
 11
570.9621447636712
 21
166.8364496096312
 31
0.0
  0
LINE
  5
3F8
330
6F
100
AcDbEntity
  8
COMMENT
  6
Continuous
100
AcDbLine
 10
571.9621447636712
 20
166.8364496096312
 30
0.0
 11
571.9621447636712
 21
156.8364496096263
 31
0.0
  0
LWPOLYLINE
  5
3F9
330
6F
100
AcDbEntity
  8
COMMENT
  6
Continuous
100
AcDbPolyline
 90
        2
 70
     1
 43
0.5
 10
572.2121447636713
 20
166.8364496096312
 42
1.0
 10
571.7121447636713
 20
166.8364496096312
 42
1.0
  0
LWPOLYLINE
  5
3FD
330
6F
100
AcDbEntity
  8
COMMENT
  6
Continuous
100
AcDbPolyline
 90
        2
 70
     1
 43
0.5
 10
572.2121447636713
 20
156.8364496096263
 42
1.0
 10
571.7121447636713
 20
156.8364496096263
 42
1.0
  0
TEXT
  5
401
330
6F
100
AcDbEntity
  8
COMMENT
  6
Continuous
100
AcDbText
 10
571.4621447636712
 20
159.2364495261823
 30
0.0
 40
3.099999904632568
  1
10
 50
90.0
100
AcDbText
  0
LINE
  5
402
330
6F
100
AcDbEntity
  8
COMMENT
  6
Continuous
100
AcDbLine
 10
586.9412277081807
 20
157.8364496096409
 30
0.0
 11
579.4951540857566
 21
157.8364496096409
 31
0.0
  0
LINE
  5
403
330
6F
100
AcDbEntity
  8
COMMENT
  6
Continuous
100
AcDbLine
 10
580.4951540857565
 20
161.9637722834385
 30
0.0
 11
580.4951540857565
 21
156.8364496096263
 31
0.0
  0
LWPOLYLINE
  5
404
330
6F
100
AcDbEntity
  8
COMMENT
  6
Continuous
100
AcDbPolyline
 90
        2
 70
     1
 43
0.5
 10
580.7451540857565
 20
157.8364496096409
 42
1.0
 10
580.2451540857565
 20
157.8364496096409
 42
1.0
  0
LWPOLYLINE
  5
408
330
6F
100
AcDbEntity
  8
COMMENT
  6
Continuous
100
AcDbPolyline
 90
        2
 70
     1
 43
0.5
 10
580.7451540857565
 20
156.8364496096263
 42
1.0
 10
580.2451540857565
 20
156.8364496096263
 42
1.0
  0
TEXT
  5
40C
330
6F
100
AcDbEntity
  8
COMMENT
  6
Continuous
100
AcDbText
 10
579.9951540857565
 20
159.3637721998884
 30
0.0
 40
3.099999904632568
  1
1
 50
90.0
100
AcDbText
  0
LINE
  5
40D
330
6F
100
AcDbEntity
  8
COMMENT
  6
Continuous
100
AcDbLine
 10
222.7273721245317
 20
420.955569100393
 30
0.0
 11
222.7273721245317
 21
360.2634290956092
 31
0.0
  0
LINE
  5
40E
330
6F
100
AcDbEntity
  8
COMMENT
  6
Continuous
100
AcDbLine
 10
222.7273721245317
 20
361.2634290956092
 30
0.0
 11
242.7273721234328
 21
361.2634290956092
 31
0.0
  0
LWPOLYLINE
  5
40F
330
6F
100
AcDbEntity
  8
COMMENT
  6
Continuous
100
AcDbPolyline
 90
        2
 70
     1
 43
0.5
 10
222.9773721245317
 20
361.2634290956092
 42
1.0
 10
222.4773721245317
 20
361.2634290956092
 42
1.0
  0
LWPOLYLINE
  5
413
330
6F
100
AcDbEntity
  8
COMMENT
  6
Continuous
100
AcDbPolyline
 90
        2
 70
     1
 43
0.5
 10
242.9773721234328
 20
361.2634290956092
 42
1.0
 10
242.4773721234328
 20
361.2634290956092
 42
1.0
  0
TEXT
  5
417
330
6F
100
AcDbEntity
  8
COMMENT
  6
Continuous
100
AcDbText
 10
230.1273720405358
 20
361.7634290956092
 30
0.0
 40
3.099999904632568
  1
20
100
AcDbText
  0
LINE
  5
418
330
6F
100
AcDbEntity
  8
COMMENT
  6
Continuous
100
AcDbLine
 10
242.7273721234328
 20
361.2634290956092
 30
0.0
 11
262.7273721245309
 21
361.2634290956092
 31
0.0
  0
LWPOLYLINE
  5
419
330
6F
100
AcDbEntity
  8
COMMENT
  6
Continuous
100
AcDbPolyline
 90
        2
 70
     1
 43
0.5
 10
242.9773721234328
 20
361.2634290956092
 42
1.0
 10
242.4773721234328
 20
361.2634290956092
 42
1.0
  0
LWPOLYLINE
  5
41D
330
6F
100
AcDbEntity
  8
COMMENT
  6
Continuous
100
AcDbPolyline
 90
        2
 70
     1
 43
0.5
 10
262.9773721245309
 20
361.2634290956092
 42
1.0
 10
262.4773721245309
 20
361.2634290956092
 42
1.0
  0
TEXT
  5
421
330
6F
100
AcDbEntity
  8
COMMENT
  6
Continuous
100
AcDbText
 10
250.1273720405354
 20
361.7634290956092
 30
0.0
 40
3.099999904632568
  1
20
100
AcDbText
  0
LINE
  5
422
330
6F
100
AcDbEntity
  8
COMMENT
  6
Continuous
100
AcDbLine
 10
262.7273721245309
 20
420.9555691003776
 30
0.0
 11
262.7273721245309
 21
360.2634290956092
 31
0.0
  0
LINE
  5
423
330
6F
100
AcDbEntity
  8
COMMENT
  6
Continuous
100
AcDbLine
 10
222.7273721245317
 20
158.5364495977175
 30
0.0
 11
222.7273721245317
 21
112.9690970986311
 31
0.0
  0
LINE
  5
424
330
6F
100
AcDbEntity
  8
COMMENT
  6
Continuous
100
AcDbLine
 10
222.7273721245317
 20
113.9690970986311
 30
0.0
 11
242.7273721234328
 21
113.9690970986311
 31
0.0
  0
LWPOLYLINE
  5
425
330
6F
100
AcDbEntity
  8
COMMENT
  6
Continuous
100
AcDbPolyline
 90
        2
 70
     1
 43
0.5
 10
222.9773721245317
 20
113.9690970986311
 42
1.0
 10
222.4773721245317
 20
113.9690970986311
 42
1.0
  0
LWPOLYLINE
  5
429
330
6F
100
AcDbEntity
  8
COMMENT
  6
Continuous
100
AcDbPolyline
 90
        2
 70
     1
 43
0.5
 10
242.9773721234328
 20
113.9690970986311
 42
1.0
 10
242.4773721234328
 20
113.9690970986311
 42
1.0
  0
TEXT
  5
42D
330
6F
100
AcDbEntity
  8
COMMENT
  6
Continuous
100
AcDbText
 10
230.1273720405358
 20
114.4690970986311
 30
0.0
 40
3.099999904632568
  1
20
100
AcDbText
  0
LINE
  5
42E
330
6F
100
AcDbEntity
  8
COMMENT
  6
Continuous
100
AcDbLine
 10
242.7273721234328
 20
113.9690970986311
 30
0.0
 11
262.7273721245309
 21
113.9690970986311
 31
0.0
  0
LWPOLYLINE
  5
42F
330
6F
100
AcDbEntity
  8
COMMENT
  6
Continuous
100
AcDbPolyline
 90
        2
 70
     1
 43
0.5
 10
242.9773721234328
 20
113.9690970986311
 42
1.0
 10
242.4773721234328
 20
113.9690970986311
 42
1.0
  0
LWPOLYLINE
  5
433
330
6F
100
AcDbEntity
  8
COMMENT
  6
Continuous
100
AcDbPolyline
 90
        2
 70
     1
 43
0.5
 10
262.9773721245309
 20
113.9690970986311
 42
1.0
 10
262.4773721245309
 20
113.9690970986311
 42
1.0
  0
TEXT
  5
437
330
6F
100
AcDbEntity
  8
COMMENT
  6
Continuous
100
AcDbText
 10
250.1273720405353
 20
114.4690970986311
 30
0.0
 40
3.099999904632568
  1
20
100
AcDbText
  0
LINE
  5
438
330
6F
100
AcDbEntity
  8
COMMENT
  6
Continuous
100
AcDbLine
 10
262.7273721245309
 20
158.5364495977022
 30
0.0
 11
262.7273721245309
 21
112.9690970986311
 31
0.0
  0
LINE
  5
439
330
6F
100
AcDbEntity
  8
COMMENT
  6
Continuous
100
AcDbLine
 10
587.7412277201021
 20
435.9555691003928
 30
0.0
 11
587.7412277201021
 21
369.0960253646421
 31
0.0
  0
LINE
  5
43A
330
6F
100
AcDbEntity
  8
COMMENT
  6
Continuous
100
AcDbLine
 10
587.7412277201021
 20
370.0960253646421
 30
0.0
 11
607.7412277190031
 21
370.0960253646421
 31
0.0
  0
LWPOLYLINE
  5
43B
330
6F
100
AcDbEntity
  8
COMMENT
  6
Continuous
100
AcDbPolyline
 90
        2
 70
     1
 43
0.5
 10
587.9912277201022
 20
370.0960253646421
 42
1.0
 10
587.4912277201022
 20
370.0960253646421
 42
1.0
  0
LWPOLYLINE
  5
43F
330
6F
100
AcDbEntity
  8
COMMENT
  6
Continuous
100
AcDbPolyline
 90
        2
 70
     1
 43
0.5
 10
607.9912277190032
 20
370.0960253646421
 42
1.0
 10
607.4912277190032
 20
370.0960253646421
 42
1.0
  0
TEXT
  5
443
330
6F
100
AcDbEntity
  8
COMMENT
  6
Continuous
100
AcDbText
 10
595.1412276361061
 20
370.5960253646421
 30
0.0
 40
3.099999904632568
  1
20
100
AcDbText
  0
LINE
  5
444
330
6F
100
AcDbEntity
  8
COMMENT
  6
Continuous
100
AcDbLine
 10
607.7412277190031
 20
373.7441334421001
 30
0.0
 11
607.7412277190031
 21
369.0960253646421
 31
0.0
  0
LINE
  5
445
330
6F
100
AcDbEntity
  8
COMMENT
  6
Continuous
100
AcDbLine
 10
607.7412277190031
 20
370.0960253646421
 30
0.0
 11
627.7412277201013
 21
370.0960253646421
 31
0.0
  0
LWPOLYLINE
  5
446
330
6F
100
AcDbEntity
  8
COMMENT
  6
Continuous
100
AcDbPolyline
 90
        2
 70
     1
 43
0.5
 10
607.9912277190032
 20
370.0960253646421
 42
1.0
 10
607.4912277190032
 20
370.0960253646421
 42
1.0
  0
LWPOLYLINE
  5
44A
330
6F
100
AcDbEntity
  8
COMMENT
  6
Continuous
100
AcDbPolyline
 90
        2
 70
     1
 43
0.5
 10
627.9912277201012
 20
370.0960253646421
 42
1.0
 10
627.4912277201012
 20
370.0960253646421
 42
1.0
  0
TEXT
  5
44E
330
6F
100
AcDbEntity
  8
COMMENT
  6
Continuous
100
AcDbText
 10
615.1412276361058
 20
370.5960253646421
 30
0.0
 40
3.099999904632568
  1
20
100
AcDbText
  0
LINE
  5
44F
330
6F
100
AcDbEntity
  8
COMMENT
  6
Continuous
100
AcDbLine
 10
627.7412277201013
 20
435.9555691003776
 30
0.0
 11
627.7412277201013
 21
369.0960253646421
 31
0.0
  0
LINE
  5
450
330
6F
100
AcDbEntity
  8
COMMENT
  6
Continuous
100
AcDbLine
 10
587.7412277201021
 20
157.0364495977179
 30
0.0
 11
587.7412277201021
 21
115.5937287199209
 31
0.0
  0
LINE
  5
451
330
6F
100
AcDbEntity
  8
COMMENT
  6
Continuous
100
AcDbLine
 10
587.7412277201021
 20
116.5937287199209
 30
0.0
 11
607.7412277190031
 21
116.5937287199209
 31
0.0
  0
LWPOLYLINE
  5
452
330
6F
100
AcDbEntity
  8
COMMENT
  6
Continuous
100
AcDbPolyline
 90
        2
 70
     1
 43
0.5
 10
587.9912277201022
 20
116.5937287199209
 42
1.0
 10
587.4912277201022
 20
116.5937287199209
 42
1.0
  0
LWPOLYLINE
  5
456
330
6F
100
AcDbEntity
  8
COMMENT
  6
Continuous
100
AcDbPolyline
 90
        2
 70
     1
 43
0.5
 10
607.9912277190032
 20
116.5937287199209
 42
1.0
 10
607.4912277190032
 20
116.5937287199209
 42
1.0
  0
TEXT
  5
45A
330
6F
100
AcDbEntity
  8
COMMENT
  6
Continuous
100
AcDbText
 10
595.1412276361061
 20
117.0937287199209
 30
0.0
 40
3.099999904632568
  1
20
100
AcDbText
  0
LINE
  5
45B
330
6F
100
AcDbEntity
  8
COMMENT
  6
Continuous
100
AcDbLine
 10
607.7412277190031
 20
116.5937287199209
 30
0.0
 11
627.7412277201013
 21
116.5937287199209
 31
0.0
  0
LWPOLYLINE
  5
45C
330
6F
100
AcDbEntity
  8
COMMENT
  6
Continuous
100
AcDbPolyline
 90
        2
 70
     1
 43
0.5
 10
607.9912277190032
 20
116.5937287199209
 42
1.0
 10
607.4912277190032
 20
116.5937287199209
 42
1.0
  0
LWPOLYLINE
  5
460
330
6F
100
AcDbEntity
  8
COMMENT
  6
Continuous
100
AcDbPolyline
 90
        2
 70
     1
 43
0.5
 10
627.9912277201012
 20
116.5937287199209
 42
1.0
 10
627.4912277201012
 20
116.5937287199209
 42
1.0
  0
TEXT
  5
464
330
6F
100
AcDbEntity
  8
COMMENT
  6
Continuous
100
AcDbText
 10
615.1412276361058
 20
117.0937287199209
 30
0.0
 40
3.099999904632568
  1
20
100
AcDbText
  0
LINE
  5
465
330
6F
100
AcDbEntity
  8
COMMENT
  6
Continuous
100
AcDbLine
 10
627.7412277201013
 20
157.0364495977026
 30
0.0
 11
627.7412277201013
 21
115.5937287199209
 31
0.0
  0
INSERT
  5
466
330
6F
100
AcDbEntity
  8
COMMENT
  6
Continuous
100
AcDbBlockReference
  2
M15
 10
627.7412277200706
 20
483.7919035280345
 30
0.0
  0
INSERT
  5
467
330
6F
100
AcDbEntity
  8
COMMENT
  6
Continuous
100
AcDbBlockReference
  2
M16
 10
627.7412277200706
 20
204.8727840253595
 30
0.0
  0
INSERT
  5
468
330
6F
100
AcDbEntity
  8
COMMENT
  6
Continuous
100
AcDbBlockReference
  2
M17
 10
262.7273721245002
 20
206.3727840253592
 30
0.0
  0
LINE
  5
469
330
6F
100
AcDbEntity
  8
LOUVER
  6
CENTER
100
AcDbLine
 10
607.7412277190031
 20
374.5441334540211
 30
0.0
 11
607.7412277190031
 21
453.3511387659603
 31
0.0
  0
LINE
  5
46A
330
6F
100
AcDbEntity
  8
WASHER
  6
Continuous
100
AcDbLine
 10
592.7412277190032
 20
439.2555691123014
 30
0.0
 11
622.7412277190031
 21
439.2555691123014
 31
0.0
  0
LINE
  5
46B
330
6F
100
AcDbEntity
  8
WASHER
  6
Continuous
100
AcDbLine
 10
622.7412277190031
 20
437.2555691123014
 30
0.0
 11
622.7412277190031
 21
439.2555691123014
 31
0.0
  0
LINE
  5
46C
330
6F
100
AcDbEntity
  8
WASHER
  6
Continuous
100
AcDbLine
 10
592.7412277190032
 20
437.2555691123014
 30
0.0
 11
592.7412277190032
 21
439.2555691123014
 31
0.0
  0
LINE
  5
46D
330
6F
100
AcDbEntity
  8
ANCHOR
  6
Continuous
100
AcDbLine
 10
602.7412277189593
 20
443.2555691123011
 30
0.0
 11
612.7412277189592
 21
443.2555691123011
 31
0.0
  0
LINE
  5
46E
330
6F
100
AcDbEntity
  8
ANCHOR
  6
Continuous
100
AcDbLine
 10
613.5147304108556
 20
442.8089871249161
 30
0.0
 11
613.5147304108556
 21
439.2555691123014
 31
0.0
  0
LINE
  5
46F
330
6F
100
AcDbEntity
  8
ANCHOR
  6
Continuous
100
AcDbLine
 10
601.9677250270631
 20
442.8089871249161
 30
0.0
 11
601.9677250270631
 21
439.2555691123014
 31
0.0
  0
LINE
  5
470
330
6F
100
AcDbEntity
  8
ANCHOR
  6
Continuous
100
AcDbLine
 10
604.8544763730108
 20
442.7040143486999
 30
0.0
 11
604.8544763730108
 21
439.2555691123014
 31
0.0
  0
LINE
  5
471
330
6F
100
AcDbEntity
  8
ANCHOR
  6
Continuous
100
AcDbLine
 10
610.6279790649071
 20
442.7040143486999
 30
0.0
 11
610.6279790649071
 21
439.2555691123014
 31
0.0
  0
LINE
  5
472
330
6F
100
AcDbEntity
  8
ANCHOR
  6
Continuous
100
AcDbLine
 10
613.5147304108555
 20
442.8089871249166
 30
0.0
 11
612.741227718959
 21
443.2555691123019
 31
0.0
  0
LINE
  5
473
330
6F
100
AcDbEntity
  8
ANCHOR
  6
Continuous
100
AcDbLine
 10
601.967725027063
 20
442.8089871249161
 30
0.0
 11
602.7412277189593
 21
443.2555691123011
 31
0.0
  0
ARC
  5
474
330
6F
100
AcDbEntity
  8
ANCHOR
  6
Continuous
100
AcDbCircle
 10
607.7412277189588
 20
435.4253892638076
 30
0.0
 40
7.830179848493714
100
AcDbArc
 50
68.36639223264487
 51
111.6336077673514
  0
ARC
  5
475
330
6F
100
AcDbEntity
  8
ANCHOR
  6
Continuous
100
AcDbCircle
 10
603.4111007000368
 20
441.0911911138279
 30
0.0
 40
2.164377998473439
100
AcDbArc
 50
48.17345191046694
 51
89.9999999994255
  0
ARC
  5
476
330
6F
100
AcDbEntity
  8
ANCHOR
  6
Continuous
100
AcDbCircle
 10
612.0713547378812
 20
441.0911911138265
 30
0.0
 40
2.16437799847471
100
AcDbArc
 50
89.9999999994255
 51
131.8265480895158
  0
LINE
  5
477
330
6F
100
AcDbEntity
  8
ANCHOR
  6
Continuous
100
AcDbLine
 10
601.9677250270631
 20
439.2555691123014
 30
0.0
 11
613.5147304108556
 21
439.2555691123014
 31
0.0
  0
LINE
  5
478
330
6F
100
AcDbEntity
  8
KUTAI
  6
Continuous
100
AcDbLine
 10
517.4856009406731
 20
435.7555691123014
 30
0.0
 11
692.665189448772
 21
435.7555691123014
 31
0.0
  0
ARC
  5
479
330
6F
100
AcDbEntity
  8
ANCHOR
  6
HIDDEN
100
AcDbCircle
 10
615.1912277190031
 20
435.3555691123011
 30
0.0
 40
0.3
100
AcDbArc
 50
270.0
 51
0.0
  0
LINE
  5
47A
330
6F
100
AcDbEntity
  8
ANCHOR
  6
HIDDEN
100
AcDbLine
 10
615.4912277190027
 20
435.3555691123013
 30
0.0
 11
615.4912277190027
 21
435.7555691123014
 31
0.0
  0
LINE
  5
47B
330
6F
100
AcDbEntity
  8
ANCHOR
  6
HIDDEN
100
AcDbLine
 10
618.2412277190027
 20
435.7555691123014
 30
0.0
 11
618.2412277190027
 21
427.7555691123014
 31
0.0
  0
LINE
  5
47C
330
6F
100
AcDbEntity
  8
ANCHOR
  6
HIDDEN
100
AcDbLine
 10
606.835506704211
 20
434.0555691123021
 30
0.0
 11
607.7412277190031
 21
427.7555691123023
 31
0.0
  0
LINE
  5
47D
330
6F
100
AcDbEntity
  8
ANCHOR
  6
HIDDEN
100
AcDbLine
 10
607.7412277190031
 20
435.0555691123011
 30
0.0
 11
607.7412277190027
 21
427.7555691123046
 31
0.0
  0
ARC
  5
47E
330
6F
100
AcDbEntity
  8
ANCHOR
  6
HIDDEN
100
AcDbCircle
 10
607.4652741066792
 20
433.8954668481942
 30
0.0
 40
1.192471240466957
100
AcDbArc
 50
7.715883603285383
 51
76.61971166401229
  0
LINE
  5
47F
330
6F
100
AcDbEntity
  8
ANCHOR
  6
HIDDEN
100
AcDbLine
 10
608.6469487337948
 20
434.0555691123007
 30
0.0
 11
607.7412277190022
 21
427.755569112301
 31
0.0
  0
ARC
  5
480
330
6F
100
AcDbEntity
  8
ANCHOR
  6
HIDDEN
100
AcDbCircle
 10
608.0171813313262
 20
433.8954668481942
 30
0.0
 40
1.192471240466957
100
AcDbArc
 50
103.3802883359746
 51
172.2841163967017
  0
LINE
  5
481
330
6F
100
AcDbEntity
  8
ANCHOR
  6
HIDDEN
100
AcDbLine
 10
608.6469487337948
 20
434.0555691123013
 30
0.0
 11
613.7412277190027
 21
434.0555691123003
 31
0.0
  0
LINE
  5
482
330
6F
100
AcDbEntity
  8
ANCHOR
  6
HIDDEN
100
AcDbLine
 10
599.9912277190027
 20
435.3555691123013
 30
0.0
 11
599.9912277190027
 21
435.7555691123014
 31
0.0
  0
ARC
  5
483
330
6F
100
AcDbEntity
  8
ANCHOR
  6
HIDDEN
100
AcDbCircle
 10
600.7412277190027
 20
434.0555691123013
 30
0.0
 40
1.0
100
AcDbArc
 50
0.0
 51
90.0
  0
LINE
  5
484
330
6F
100
AcDbEntity
  8
ANCHOR
  6
HIDDEN
100
AcDbLine
 10
597.2412277190036
 20
435.7555691123013
 30
0.0
 11
597.2412277190027
 21
427.7555691123013
 31
0.0
  0
ARC
  5
485
330
6F
100
AcDbEntity
  8
ANCHOR
  6
HIDDEN
100
AcDbCircle
 10
600.291227719003
 20
435.3555691123011
 30
0.0
 40
0.3
100
AcDbArc
 50
180.0
 51
270.0
  0
LINE
  5
486
330
6F
100
AcDbEntity
  8
ANCHOR
  6
HIDDEN
100
AcDbLine
 10
606.8355067042106
 20
434.0555691123011
 30
0.0
 11
601.7412277190027
 21
434.0555691123011
 31
0.0
  0
LINE
  5
487
330
6F
100
AcDbEntity
  8
ANCHOR
  6
HIDDEN
100
AcDbLine
 10
597.2412277190036
 20
435.7555691123014
 30
0.0
 11
618.2412277190027
 21
435.7555691123014
 31
0.0
  0
ARC
  5
488
330
6F
100
AcDbEntity
  8
ANCHOR
  6
HIDDEN
100
AcDbCircle
 10
614.7412277190027
 20
434.0555691123013
 30
0.0
 40
1.0
100
AcDbArc
 50
90.0
 51
180.0
  0
LINE
  5
489
330
6F
100
AcDbEntity
  8
ANCHOR
  6
HIDDEN
100
AcDbLine
 10
600.291227719003
 20
435.055569112302
 30
0.0
 11
615.1912277190031
 21
435.0555691123001
 31
0.0
  0
LINE
  5
48A
330
6F
100
AcDbEntity
  8
ANCHOR
  6
HIDDEN
100
AcDbLine
 10
613.9805777024332
 20
395.8623028133493
 30
0.0
 11
617.0805777024335
 21
390.4929453098861
 31
0.0
  0
LINE
  5
48B
330
6F
100
AcDbEntity
  8
ANCHOR
  6
HIDDEN
100
AcDbLine
 10
616.0421196708518
 20
389.8933912858097
 30
0.0
 11
617.080577702433
 21
390.4929453098855
 31
0.0
  0
LINE
  5
48C
330
6F
100
AcDbEntity
  8
ANCHOR
  6
HIDDEN
100
AcDbLine
 10
617.1027041099626
 20
411.0340409989897
 30
0.0
 11
614.2851055676681
 21
405.3201175062492
 31
0.0
  0
ARC
  5
48D
330
6F
100
AcDbEntity
  8
ANCHOR
  6
HIDDEN
100
AcDbCircle
 10
600.3627507548399
 20
424.991693621243
 30
0.0
 40
14.09781378264538
100
AcDbArc
 50
261.9139567489959
 51
286.0860432509978
  0
LINE
  5
48E
330
6F
100
AcDbEntity
  8
ANCHOR
  6
HIDDEN
100
AcDbLine
 10
611.340038142834
 20
389.8933912858098
 30
0.0
 11
611.340038142834
 21
395.9555691123011
 31
0.0
  0
LINE
  5
48F
330
6F
100
AcDbEntity
  8
ANCHOR
  6
HIDDEN
100
AcDbLine
 10
604.1424172951714
 20
389.8933912858098
 30
0.0
 11
604.1424172951714
 21
395.9555691123011
 31
0.0
  0
LINE
  5
490
330
6F
100
AcDbEntity
  8
ANCHOR
  6
HIDDEN
100
AcDbLine
 10
602.2412277190027
 20
391.7555691123013
 30
0.0
 11
604.1424172951714
 21
391.7555691123013
 31
0.0
  0
LINE
  5
491
330
6F
100
AcDbEntity
  8
ANCHOR
  6
HIDDEN
100
AcDbLine
 10
613.2412277190027
 20
391.7555691123013
 30
0.0
 11
611.340038142834
 21
391.7555691123013
 31
0.0
  0
LINE
  5
492
330
6F
100
AcDbEntity
  8
ANCHOR
  6
HIDDEN
100
AcDbLine
 10
604.1424172951714
 20
395.9555691123011
 30
0.0
 11
602.9403357671542
 21
395.9555691123011
 31
0.0
  0
LINE
  5
493
330
6F
100
AcDbEntity
  8
ANCHOR
  6
HIDDEN
100
AcDbLine
 10
602.2412277190037
 20
405.0634744676818
 30
0.0
 11
602.2412277190031
 21
404.2555691123017
 31
0.0
  0
LINE
  5
494
330
6F
100
AcDbEntity
  8
ANCHOR
  6
HIDDEN
100
AcDbLine
 10
612.9452349220048
 20
396.6555691123007
 30
0.0
 11
613.5475650005416
 21
395.6123028133488
 31
0.0
  0
LINE
  5
495
330
6F
100
AcDbEntity
  8
ANCHOR
  6
HIDDEN
100
AcDbLine
 10
613.2412277190027
 20
405.0634744676816
 30
0.0
 11
613.2412277190027
 21
404.2555691123014
 31
0.0
  0
LINE
  5
496
330
6F
100
AcDbEntity
  8
ANCHOR
  6
HIDDEN
100
AcDbLine
 10
613.7412277190027
 20
404.2555691123014
 30
0.0
 11
613.7412277190027
 21
396.655569112301
 31
0.0
  0
LINE
  5
497
330
6F
100
AcDbEntity
  8
ANCHOR
  6
HIDDEN
100
AcDbLine
 10
606.8912277190035
 20
404.9555691123014
 30
0.0
 11
608.5912277190032
 21
404.9555691123014
 31
0.0
  0
LINE
  5
498
330
6F
100
AcDbEntity
  8
ANCHOR
  6
HIDDEN
100
AcDbLine
 10
611.340038142834
 20
395.9555691123011
 30
0.0
 11
612.5421196708511
 21
395.9555691123011
 31
0.0
  0
LINE
  5
499
330
6F
100
AcDbEntity
  8
ANCHOR
  6
HIDDEN
100
AcDbLine
 10
604.1424172951717
 20
395.862302813349
 30
0.0
 11
611.340038142834
 21
395.862302813349
 31
0.0
  0
LINE
  5
49A
330
6F
100
AcDbEntity
  8
ANCHOR
  6
HIDDEN
100
AcDbLine
 10
604.1424172951714
 20
389.8933912858098
 30
0.0
 11
611.340038142834
 21
389.8933912858098
 31
0.0
  0
LINE
  5
49B
330
6F
100
AcDbEntity
  8
ANCHOR
  6
HIDDEN
100
AcDbLine
 10
601.5018777355726
 20
395.8623028133494
 30
0.0
 11
598.4018777355727
 21
390.4929453098861
 31
0.0
  0
LINE
  5
49C
330
6F
100
AcDbEntity
  8
ANCHOR
  6
HIDDEN
100
AcDbLine
 10
599.4403357671552
 20
389.8933912858103
 30
0.0
 11
598.4018777355735
 21
390.4929453098861
 31
0.0
  0
LINE
  5
49D
330
6F
100
AcDbEntity
  8
ANCHOR
  6
HIDDEN
100
AcDbLine
 10
600.8324523097505
 20
390.7864447411872
 30
0.0
 11
599.4403357671544
 21
389.8933912858094
 31
0.0
  0
LINE
  5
49E
330
6F
100
AcDbEntity
  8
ANCHOR
  6
HIDDEN
100
AcDbLine
 10
601.7412277190027
 20
404.2555691123014
 30
0.0
 11
601.7412277190027
 21
396.655569112301
 31
0.0
  0
LINE
  5
49F
330
6F
100
AcDbEntity
  8
ANCHOR
  6
HIDDEN
100
AcDbLine
 10
600.8324523097512
 20
390.7864447411877
 30
0.0
 11
603.8168476568877
 21
395.9555691123008
 31
0.0
  0
LINE
  5
4A0
330
6F
100
AcDbEntity
  8
ANCHOR
  6
HIDDEN
100
AcDbLine
 10
599.4403357671544
 20
389.8933912858101
 30
0.0
 11
602.9403357671545
 21
395.9555691123011
 31
0.0
  0
ARC
  5
4A1
330
6F
100
AcDbEntity
  8
ANCHOR
  6
HIDDEN
100
AcDbCircle
 10
603.4300332413833
 20
412.1501309669956
 30
0.0
 40
7.185677345199168
100
AcDbArc
 50
251.8977955235752
 51
296.102204476418
  0
LINE
  5
4A2
330
6F
100
AcDbEntity
  8
ANCHOR
  6
HIDDEN
100
AcDbLine
 10
602.5403357671542
 20
395.2627487892734
 30
0.0
 11
601.5018777355723
 21
395.862302813349
 31
0.0
  0
LINE
  5
4A3
330
6F
100
AcDbEntity
  8
ANCHOR
  6
HIDDEN
100
AcDbLine
 10
602.5372205160013
 20
396.6555691123018
 30
0.0
 11
601.9348904374652
 21
395.6123028133495
 31
0.0
  0
LINE
  5
4A4
330
6F
100
AcDbEntity
  8
ANCHOR
  6
HIDDEN
100
AcDbLine
 10
601.7412277190027
 20
396.655569112301
 30
0.0
 11
613.7412277190027
 21
396.655569112301
 31
0.0
  0
LINE
  5
4A5
330
6F
100
AcDbEntity
  8
ANCHOR
  6
HIDDEN
100
AcDbLine
 10
601.7412277190032
 20
404.2555691123017
 30
0.0
 11
613.7412277190032
 21
404.2555691123017
 31
0.0
  0
LINE
  5
4A6
330
6F
100
AcDbEntity
  8
ANCHOR
  6
HIDDEN
100
AcDbLine
 10
604.2689815650918
 20
411.4458560942687
 30
0.0
 11
606.8912277190032
 21
404.9555691123014
 31
0.0
  0
LINE
  5
4A7
330
6F
100
AcDbEntity
  8
ANCHOR
  6
HIDDEN
100
AcDbLine
 10
611.213473872915
 20
411.4458560942696
 30
0.0
 11
608.5912277190034
 21
404.9555691123023
 31
0.0
  0
LINE
  5
4A8
330
6F
100
AcDbEntity
  8
ANCHOR
  6
HIDDEN
100
AcDbLine
 10
598.3797513280424
 20
411.0340409989906
 30
0.0
 11
601.1973498703375
 21
405.3201175062498
 31
0.0
  0
ARC
  5
4A9
330
6F
100
AcDbEntity
  8
ANCHOR
  6
HIDDEN
100
AcDbCircle
 10
615.1197046831661
 20
424.991693621243
 30
0.0
 40
14.09781378264538
100
AcDbArc
 50
253.9139567490022
 51
278.086043251004
  0
LINE
  5
4AA
330
6F
100
AcDbEntity
  8
ANCHOR
  6
HIDDEN
100
AcDbLine
 10
616.0421196708515
 20
389.8933912858104
 30
0.0
 11
612.5421196708513
 21
395.9555691123017
 31
0.0
  0
LINE
  5
4AB
330
6F
100
AcDbEntity
  8
ANCHOR
  6
HIDDEN
100
AcDbLine
 10
612.9421196708505
 20
395.262748789274
 30
0.0
 11
613.9805777024322
 21
395.8623028133496
 31
0.0
  0
ARC
  5
4AC
330
6F
100
AcDbEntity
  8
ANCHOR
  6
HIDDEN
100
AcDbCircle
 10
612.0524221966234
 20
412.1501309669956
 30
0.0
 40
7.185677345199168
100
AcDbArc
 50
243.897795523582
 51
288.1022044764124
  0
LINE
  5
4AD
330
6F
100
AcDbEntity
  8
ANCHOR
  6
HIDDEN
100
AcDbLine
 10
614.7465357453567
 20
410.8988195923592
 30
0.0
 11
618.2412277190027
 21
427.7555691123017
 31
0.0
  0
LINE
  5
4AE
330
6F
100
AcDbEntity
  8
ANCHOR
  6
HIDDEN
100
AcDbLine
 10
613.7412277190027
 20
434.0555691123011
 30
0.0
 11
613.7412277190027
 21
410.9614350808802
 31
0.0
  0
LINE
  5
4AF
330
6F
100
AcDbEntity
  8
ANCHOR
  6
HIDDEN
100
AcDbLine
 10
600.7359196926497
 20
410.8988195923585
 30
0.0
 11
597.2412277190027
 21
427.7555691123014
 31
0.0
  0
LINE
  5
4B0
330
6F
100
AcDbEntity
  8
ANCHOR
  6
HIDDEN
100
AcDbLine
 10
601.7412277190027
 20
434.0555691123011
 30
0.0
 11
601.7412277190027
 21
410.9614350808802
 31
0.0
  0
ARC
  5
4B1
330
6F
100
AcDbEntity
  8
ANCHOR
  6
HIDDEN
100
AcDbCircle
 10
602.2412277190027
 20
392.2555691123017
 30
0.0
 40
0.5
100
AcDbArc
 50
180.0
 51
270.0
  0
ARC
  5
4B2
330
6F
100
AcDbEntity
  8
ANCHOR
  6
HIDDEN
100
AcDbCircle
 10
613.2412277190027
 20
392.2555691123017
 30
0.0
 40
0.5
100
AcDbArc
 50
270.0
 51
0.0
  0
LINE
  5
4B3
330
6F
100
AcDbEntity
  8
ANCHOR
  6
HIDDEN
100
AcDbLine
 10
614.6500031282547
 20
390.7864447411879
 30
0.0
 11
611.6656077811178
 21
395.9555691123015
 31
0.0
  0
LINE
  5
4B4
330
6F
100
AcDbEntity
  8
ANCHOR
  6
HIDDEN
100
AcDbLine
 10
614.6500031282546
 20
390.7864447411877
 30
0.0
 11
616.0421196708512
 21
389.8933912858098
 31
0.0
  0
LINE
  5
4B5
330
6F
100
AcDbEntity
  8
WASHER
  6
Continuous
100
AcDbLine
 10
592.7412277190032
 20
437.2555691123014
 30
0.0
 11
622.7412277190031
 21
437.2555691123014
 31
0.0
  0
TEXT
  5
4B6
330
6F
100
AcDbEntity
  8
WAKU
  6
Continuous
100
AcDbText
 10
38.64675006063919
 20
555.4024753726626
 30
0.0
 40
12.0
  1
直付タイプ
  7
KNJYOKO
100
AcDbText
  0
LINE
  5
4B7
330
6F
100
AcDbEntity
  8
LOUVER
  6
CENTER
100
AcDbLine
 10
242.7273721234328
 20
359.5441334540212
 30
0.0
 11
242.7273721234328
 21
434.1898308268228
 31
0.0
  0
LINE
  5
4B8
330
6F
100
AcDbEntity
  8
WASHER
  6
Continuous
100
AcDbLine
 10
227.7273721234328
 20
424.2555691123016
 30
0.0
 11
257.7273721234328
 21
424.2555691123016
 31
0.0
  0
LINE
  5
4B9
330
6F
100
AcDbEntity
  8
WASHER
  6
Continuous
100
AcDbLine
 10
257.7273721234328
 20
422.2555691123016
 30
0.0
 11
257.7273721234328
 21
424.2555691123016
 31
0.0
  0
LINE
  5
4BA
330
6F
100
AcDbEntity
  8
WASHER
  6
Continuous
100
AcDbLine
 10
227.7273721234328
 20
422.2555691123016
 30
0.0
 11
227.7273721234328
 21
424.2555691123016
 31
0.0
  0
LINE
  5
4BB
330
6F
100
AcDbEntity
  8
KUTAI
  6
Continuous
100
AcDbLine
 10
335.1307796053935
 20
420.7555691123014
 30
0.0
 11
132.957215493353
 21
420.7555691123014
 31
0.0
  0
LINE
  5
4BC
330
6F
100
AcDbEntity
  8
LOUVER
  6
CENTER
100
AcDbLine
 10
236.7877330595503
 20
430.7555691122847
 30
0.0
 11
218.3387701989774
 21
430.7555691123065
 31
0.0
  0
LINE
  5
4BD
330
6F
100
AcDbEntity
  8
ANCHOR
  6
HIDDEN
100
AcDbLine
 10
232.2273721249207
 20
432.7555691124106
 30
0.0
 11
222.7273721235919
 21
432.755569112451
 31
0.0
  0
LINE
  5
4BE
330
6F
100
AcDbEntity
  8
ANCHOR
  6
HIDDEN
100
AcDbLine
 10
232.2273721254757
 20
428.7555691124106
 30
0.0
 11
222.7273721235763
 21
428.755569112451
 31
0.0
  0
LINE
  5
4BF
330
6F
100
AcDbEntity
  8
ANCHOR
  6
HIDDEN
100
AcDbLine
 10
235.1500218556861
 20
431.7555691124193
 30
0.0
 11
233.2273721249313
 21
431.7555691124153
 31
0.0
  0
LINE
  5
4C0
330
6F
100
AcDbEntity
  8
ANCHOR
  6
HIDDEN
100
AcDbLine
 10
235.150021855882
 20
429.7555691124194
 30
0.0
 11
233.2273721254693
 21
429.7555691124154
 31
0.0
  0
LINE
  5
4C1
330
6F
100
AcDbEntity
  8
ANCHOR
  6
HIDDEN
100
AcDbLine
 10
235.7273721249735
 20
430.7555691122591
 30
0.0
 11
235.150021855686
 21
431.7555691124199
 31
0.0
  0
LINE
  5
4C2
330
6F
100
AcDbEntity
  8
ANCHOR
  6
HIDDEN
100
AcDbLine
 10
235.1500218558827
 20
429.7555691124208
 30
0.0
 11
235.7273721249744
 21
430.7555691122598
 31
0.0
  0
ARC
  5
4C3
330
6F
100
AcDbEntity
  8
ANCHOR
  6
HIDDEN
100
AcDbCircle
 10
233.7273721254787
 20
430.7555691124179
 30
0.0
 40
0.5
100
AcDbArc
 50
97.20679386168658
 51
262.7932061387912
  0
LINE
  5
4C4
330
6F
100
AcDbEntity
  8
ANCHOR
  6
HIDDEN
100
AcDbLine
 10
233.6646466890137
 20
430.2595191959569
 30
0.0
 11
235.150021855882
 21
429.7555691124192
 31
0.0
  0
LINE
  5
4C5
330
6F
100
AcDbEntity
  8
ANCHOR
  6
HIDDEN
100
AcDbLine
 10
233.6646466890102
 20
431.2516190288781
 30
0.0
 11
235.1500218556859
 21
431.7555691124201
 31
0.0
  0
LINE
  5
4C6
330
6F
100
AcDbEntity
  8
ANCHOR
  6
HIDDEN
100
AcDbLine
 10
233.2273721249297
 20
431.7555691124147
 30
0.0
 11
232.2273721249203
 21
432.755569112412
 31
0.0
  0
LINE
  5
4C7
330
6F
100
AcDbEntity
  8
ANCHOR
  6
HIDDEN
100
AcDbLine
 10
232.2273721254762
 20
428.7555691124146
 30
0.0
 11
233.2273721254686
 21
429.7555691124147
 31
0.0
  0
LINE
  5
4C8
330
6F
100
AcDbEntity
  8
ANCHOR
  6
HIDDEN
100
AcDbLine
 10
232.2273721252072
 20
428.7555691124132
 30
0.0
 11
232.2273721251924
 21
432.7555691124131
 31
0.0
  0
LINE
  5
4C9
330
6F
100
AcDbEntity
  8
ANCHOR
  6
HIDDEN
100
AcDbLine
 10
233.2273721249732
 20
429.7555691124133
 30
0.0
 11
233.2273721249639
 21
431.7555691124134
 31
0.0
  0
LINE
  5
4CA
330
6F
100
AcDbEntity
  8
ANCHOR
  6
HIDDEN
100
AcDbLine
 10
233.0273721254709
 20
429.5555691124135
 30
0.0
 11
222.7273721235803
 21
429.5555691124546
 31
0.0
  0
LINE
  5
4CB
330
6F
100
AcDbEntity
  8
ANCHOR
  6
HIDDEN
100
AcDbLine
 10
233.0273721249297
 20
431.9555691124131
 30
0.0
 11
222.7273721235894
 21
431.9555691124543
 31
0.0
  0
LINE
  5
4CC
330
6F
100
AcDbEntity
  8
ANCHOR
  6
Continuous
100
AcDbLine
 10
220.7050615424423
 20
431.2537673600436
 30
0.0
 11
220.7050615424428
 21
430.2573708645613
 31
0.0
  0
LINE
  5
4CD
330
6F
100
AcDbEntity
  8
ANCHOR
  6
Continuous
100
AcDbLine
 10
220.7050615424421
 20
431.2537673600438
 30
0.0
 11
220.2273721237677
 21
431.2537673600438
 31
0.0
  0
LINE
  5
4CE
330
6F
100
AcDbEntity
  8
ANCHOR
  6
Continuous
100
AcDbLine
 10
220.7050615424425
 20
430.2573708645616
 30
0.0
 11
220.2273721237682
 21
430.2573708645616
 31
0.0
  0
LINE
  5
4CF
330
6F
100
AcDbEntity
  8
ANCHOR
  6
Continuous
100
AcDbLine
 10
222.2273721237847
 20
426.0555691123006
 30
0.0
 11
222.7273721237847
 21
426.055569112301
 31
0.0
  0
ARC
  5
4D0
330
6F
100
AcDbEntity
  8
ANCHOR
  6
Continuous
100
AcDbCircle
 10
226.3188375180907
 20
430.5799376789855
 30
0.0
 40
6.099999999999998
100
AcDbArc
 50
183.0312034848472
 51
227.876411461438
  0
LINE
  5
4D1
330
6F
100
AcDbEntity
  8
ANCHOR
  6
Continuous
100
AcDbLine
 10
222.2273721237507
 20
435.4555691123024
 30
0.0
 11
222.2273721237855
 21
426.0555691123011
 31
0.0
  0
ARC
  5
4D2
330
6F
100
AcDbEntity
  8
ANCHOR
  6
Continuous
100
AcDbCircle
 10
226.3188375180907
 20
430.9312005456231
 30
0.0
 40
6.099999999999998
100
AcDbArc
 50
132.1235885386251
 51
176.9687965152159
  0
LINE
  5
4D3
330
6F
100
AcDbEntity
  8
ANCHOR
  6
Continuous
100
AcDbLine
 10
222.7273721237513
 20
435.455569112304
 30
0.0
 11
222.727372123786
 21
426.0555691123023
 31
0.0
  0
LINE
  5
4D4
330
6F
100
AcDbEntity
  8
ANCHOR
  6
Continuous
100
AcDbLine
 10
222.2273721237802
 20
435.4555691123023
 30
0.0
 11
222.7273721237802
 21
435.4555691123027
 31
0.0
  0
LINE
  5
4D5
330
6F
100
AcDbEntity
  8
WASHER
  6
Continuous
100
AcDbLine
 10
227.7273721234328
 20
422.2555691123016
 30
0.0
 11
257.7273721234328
 21
422.2555691123016
 31
0.0
  0
INSERT
  5
4D6
330
6F
100
AcDbEntity
  8
COMMENT
  6
Continuous
100
AcDbBlockReference
  2
M18
 10
262.7273721245917
 20
468.7919035280216
 30
0.0
  0
INSERT
  5
4D7
330
6F
100
AcDbEntity
  8
COMMENT
  6
Continuous
100
AcDbBlockReference
  2
M19
 10
233.1611924527678
 20
420.7555691123013
 30
0.0
  0
INSERT
  5
4D8
330
6F
100
AcDbEntity
  8
COMMENT
  6
Continuous
100
AcDbBlockReference
  2
M20
 10
252.0473447868658
 20
424.2555691123016
 30
0.0
  0
LINE
  5
4D9
330
6F
100
AcDbEntity
  8
ANCHOR
  6
HIDDEN
100
AcDbLine
 10
242.7273721234749
 20
413.7555691123123
 30
0.0
 11
243.0273721234833
 21
413.7555691123123
 31
0.0
  0
LINE
  5
4DA
330
6F
100
AcDbEntity
  8
ANCHOR
  6
HIDDEN
100
AcDbLine
 10
243.0273721235101
 20
388.2555691123124
 30
0.0
 11
243.0273721234819
 21
413.7555691123126
 31
0.0
  0
LINE
  5
4DB
330
6F
100
AcDbEntity
  8
ANCHOR
  6
HIDDEN
100
AcDbLine
 10
241.0689159441695
 20
380.4272652920452
 30
0.0
 11
238.6982166493242
 21
380.6863360534821
 31
0.0
  0
LINE
  5
4DC
330
6F
100
AcDbEntity
  8
ANCHOR
  6
HIDDEN
100
AcDbLine
 10
238.7273721234807
 20
415.7555691123032
 30
0.0
 11
238.0273721234753
 21
420.7555691123014
 31
0.0
  0
LINE
  5
4DD
330
6F
100
AcDbEntity
  8
ANCHOR
  6
HIDDEN
100
AcDbLine
 10
242.7273721234893
 20
413.7555691123115
 30
0.0
 11
242.4273721234827
 21
413.7555691123107
 31
0.0
  0
LINE
  5
4DE
330
6F
100
AcDbEntity
  8
ANCHOR
  6
HIDDEN
100
AcDbLine
 10
242.4273721235109
 20
388.2555691123109
 30
0.0
 11
242.4273721234825
 21
413.7555691123114
 31
0.0
  0
LINE
  5
4DF
330
6F
100
AcDbEntity
  8
ANCHOR
  6
HIDDEN
100
AcDbLine
 10
238.7273721234866
 20
410.2555691123031
 30
0.0
 11
239.7273721234865
 21
409.7555691123055
 31
0.0
  0
LINE
  5
4E0
330
6F
100
AcDbEntity
  8
ANCHOR
  6
HIDDEN
100
AcDbLine
 10
239.7273721234872
 20
409.7555691123061
 30
0.0
 11
239.9773721234958
 21
401.7555691123066
 31
0.0
  0
LINE
  5
4E1
330
6F
100
AcDbEntity
  8
ANCHOR
  6
HIDDEN
100
AcDbLine
 10
238.7273721234875
 20
410.2555691123034
 30
0.0
 11
238.7273721234759
 21
420.7555691123033
 31
0.0
  0
LINE
  5
4E2
330
6F
100
AcDbEntity
  8
ANCHOR
  6
HIDDEN
100
AcDbLine
 10
241.8918576058291
 20
383.3551940858354
 30
0.0
 11
237.6324027755069
 21
383.8206686437424
 31
0.0
  0
LINE
  5
4E3
330
6F
100
AcDbEntity
  8
ANCHOR
  6
HIDDEN
100
AcDbLine
 10
242.0004911829198
 20
384.3492759466138
 30
0.0
 11
238.3871895621033
 21
384.7441386794126
 31
0.0
  0
LINE
  5
4E4
330
6F
100
AcDbEntity
  8
ANCHOR
  6
HIDDEN
100
AcDbLine
 10
238.6982166493257
 20
380.6863360534813
 30
0.0
 11
237.6324027755076
 21
383.8206686437419
 31
0.0
  0
LINE
  5
4E5
330
6F
100
AcDbEntity
  8
ANCHOR
  6
HIDDEN
100
AcDbLine
 10
237.6324027755062
 20
383.8206686437413
 30
0.0
 11
238.3871895621032
 21
384.7441386794122
 31
0.0
  0
LINE
  5
4E6
330
6F
100
AcDbEntity
  8
ANCHOR
  6
HIDDEN
100
AcDbLine
 10
242.1091247600114
 20
385.3433578073914
 30
0.0
 11
237.8496699296875
 21
385.8088323652984
 31
0.0
  0
LINE
  5
4E7
330
6F
100
AcDbEntity
  8
ANCHOR
  6
HIDDEN
100
AcDbLine
 10
238.3871895621041
 20
384.7441386794114
 30
0.0
 11
237.8496699296887
 21
385.8088323652978
 31
0.0
  0
LINE
  5
4E8
330
6F
100
AcDbEntity
  8
ANCHOR
  6
HIDDEN
100
AcDbLine
 10
242.2720751256486
 20
386.8344805985589
 30
0.0
 11
238.0126202953246
 21
387.299955156466
 31
0.0
  0
LINE
  5
4E9
330
6F
100
AcDbEntity
  8
ANCHOR
  6
HIDDEN
100
AcDbLine
 10
237.8496699296879
 20
385.8088323652983
 30
0.0
 11
238.0126202953238
 21
387.2999551564657
 31
0.0
  0
LINE
  5
4EA
330
6F
100
AcDbEntity
  8
ANCHOR
  6
HIDDEN
100
AcDbLine
 10
238.1918656975243
 20
388.9401902267449
 30
0.0
 11
238.4471546036877
 21
391.2762825995788
 31
0.0
  0
LINE
  5
4EB
330
6F
100
AcDbEntity
  8
ANCHOR
  6
HIDDEN
100
AcDbLine
 10
242.3263919141914
 20
387.3315215289492
 30
0.0
 11
238.7130902933712
 21
387.7263842617482
 31
0.0
  0
LINE
  5
4EC
330
6F
100
AcDbEntity
  8
ANCHOR
  6
HIDDEN
100
AcDbLine
 10
242.3807087027381
 20
387.8285624593377
 30
0.0
 11
238.7674070819162
 21
388.223425192137
 31
0.0
  0
LINE
  5
4ED
330
6F
100
AcDbEntity
  8
ANCHOR
  6
HIDDEN
100
AcDbLine
 10
238.713090293372
 20
387.7263842617474
 30
0.0
 11
238.0126202953234
 21
387.2999551564657
 31
0.0
  0
LINE
  5
4EE
330
6F
100
AcDbEntity
  8
ANCHOR
  6
HIDDEN
100
AcDbLine
 10
238.7130902933732
 20
387.726384261747
 30
0.0
 11
238.7674070819173
 21
388.2234251921363
 31
0.0
  0
LINE
  5
4EF
330
6F
100
AcDbEntity
  8
ANCHOR
  6
HIDDEN
100
AcDbLine
 10
238.7674070819151
 20
388.223425192137
 30
0.0
 11
238.1918656975218
 21
388.9401902267453
 31
0.0
  0
LINE
  5
4F0
330
6F
100
AcDbEntity
  8
ANCHOR
  6
HIDDEN
100
AcDbLine
 10
242.0258493024886
 20
390.8852017220568
 30
0.0
 11
238.4471546036859
 21
391.2762825995792
 31
0.0
  0
LINE
  5
4F1
330
6F
100
AcDbEntity
  8
ANCHOR
  6
HIDDEN
100
AcDbLine
 10
239.0933078131907
 20
391.2056707744711
 30
0.0
 11
239.1476246017349
 21
391.70271170486
 31
0.0
  0
LINE
  5
4F2
330
6F
100
AcDbEntity
  8
ANCHOR
  6
HIDDEN
100
AcDbLine
 10
242.0801660910341
 20
391.3822426524467
 30
0.0
 11
239.1476246017333
 21
391.7027117048613
 31
0.0
  0
LINE
  5
4F3
330
6F
100
AcDbEntity
  8
ANCHOR
  6
HIDDEN
100
AcDbLine
 10
239.1476246017321
 20
391.702711704859
 30
0.0
 11
238.5720832173386
 21
392.4194767394674
 31
0.0
  0
LINE
  5
4F4
330
6F
100
AcDbEntity
  8
ANCHOR
  6
HIDDEN
100
AcDbLine
 10
238.8273721235076
 20
392.4055691122989
 30
0.0
 11
238.8273721235049
 21
394.7555691123039
 31
0.0
  0
LINE
  5
4F5
330
6F
100
AcDbEntity
  8
ANCHOR
  6
HIDDEN
100
AcDbLine
 10
242.4273721235044
 20
394.7555691123111
 30
0.0
 11
238.8273721235041
 21
394.7555691123032
 31
0.0
  0
LINE
  5
4F6
330
6F
100
AcDbEntity
  8
ANCHOR
  6
HIDDEN
100
AcDbLine
 10
239.4773721234997
 20
394.7555691123043
 30
0.0
 11
239.477372123498
 21
395.2555691123043
 31
0.0
  0
LINE
  5
4F7
330
6F
100
AcDbEntity
  8
ANCHOR
  6
HIDDEN
100
AcDbLine
 10
242.4273721235045
 20
395.2555691123116
 30
0.0
 11
239.4773721234983
 21
395.255569112305
 31
0.0
  0
LINE
  5
4F8
330
6F
100
AcDbEntity
  8
ANCHOR
  6
HIDDEN
100
AcDbLine
 10
239.4773721234978
 20
395.2555691123056
 30
0.0
 11
238.8273721235016
 21
395.905569112299
 31
0.0
  0
LINE
  5
4F9
330
6F
100
AcDbEntity
  8
ANCHOR
  6
HIDDEN
100
AcDbLine
 10
238.8273721235035
 20
395.9055691122987
 30
0.0
 11
238.8273721235008
 21
398.2555691123037
 31
0.0
  0
LINE
  5
4FA
330
6F
100
AcDbEntity
  8
ANCHOR
  6
HIDDEN
100
AcDbLine
 10
242.427372123501
 20
398.2555691123121
 30
0.0
 11
238.8273721235007
 21
398.255569112304
 31
0.0
  0
LINE
  5
4FB
330
6F
100
AcDbEntity
  8
ANCHOR
  6
HIDDEN
100
AcDbLine
 10
239.4773721234977
 20
398.2555691123051
 30
0.0
 11
239.4773721234961
 21
398.7555691123051
 31
0.0
  0
LINE
  5
4FC
330
6F
100
AcDbEntity
  8
ANCHOR
  6
HIDDEN
100
AcDbLine
 10
242.4273721235005
 20
398.7555691123121
 30
0.0
 11
239.4773721234961
 21
398.7555691123055
 31
0.0
  0
LINE
  5
4FD
330
6F
100
AcDbEntity
  8
ANCHOR
  6
HIDDEN
100
AcDbLine
 10
239.4773721234947
 20
398.755569112305
 30
0.0
 11
238.8273721234983
 21
399.4055691122984
 31
0.0
  0
LINE
  5
4FE
330
6F
100
AcDbEntity
  8
ANCHOR
  6
HIDDEN
100
AcDbLine
 10
238.8273721235006
 20
398.2555691123037
 30
0.0
 11
238.8273721234967
 21
401.7555691123041
 31
0.0
  0
LINE
  5
4FF
330
6F
100
AcDbEntity
  8
ANCHOR
  6
HIDDEN
100
AcDbLine
 10
242.4273721234962
 20
401.7555691123114
 30
0.0
 11
238.7273721233555
 21
401.7555691123034
 31
0.0
  0
LINE
  5
500
330
6F
100
AcDbEntity
  8
ANCHOR
  6
HIDDEN
100
AcDbLine
 10
242.4273721234953
 20
402.2555691123117
 30
0.0
 11
239.9617471234946
 21
402.2555691123062
 31
0.0
  0
LINE
  5
501
330
6F
100
AcDbEntity
  8
ANCHOR
  6
HIDDEN
100
AcDbLine
 10
242.4273721234893
 20
405.2555691123123
 30
0.0
 11
239.8679971234922
 21
405.2555691123066
 31
0.0
  0
LINE
  5
502
330
6F
100
AcDbEntity
  8
ANCHOR
  6
HIDDEN
100
AcDbLine
 10
242.4273721234866
 20
405.7555691123117
 30
0.0
 11
239.8523721234913
 21
405.7555691123061
 31
0.0
  0
LINE
  5
503
330
6F
100
AcDbEntity
  8
ANCHOR
  6
HIDDEN
100
AcDbLine
 10
242.4273721234815
 20
408.7555691123113
 30
0.0
 11
239.758622123488
 21
408.7555691123055
 31
0.0
  0
LINE
  5
504
330
6F
100
AcDbEntity
  8
ANCHOR
  6
HIDDEN
100
AcDbLine
 10
242.4273721234794
 20
409.2555691123116
 30
0.0
 11
239.7429971234878
 21
409.2555691123059
 31
0.0
  0
LINE
  5
505
330
6F
100
AcDbEntity
  8
ANCHOR
  6
HIDDEN
100
AcDbLine
 10
242.4273721235093
 20
388.2555691122993
 30
0.0
 11
241.6202736631017
 21
380.8699894338886
 31
0.0
  0
ARC
  5
506
330
6F
100
AcDbEntity
  8
ANCHOR
  6
HIDDEN
100
AcDbCircle
 10
241.123232732715
 20
380.9243062224343
 30
0.0
 40
0.5
100
AcDbArc
 50
263.7634467283077
 51
353.7634467282444
  0
LINE
  5
507
330
6F
100
AcDbEntity
  8
ANCHOR
  6
HIDDEN
100
AcDbLine
 10
242.7273720779525
 20
413.7555691123126
 30
0.0
 11
242.4273720779441
 21
413.7555691123101
 31
0.0
  0
LINE
  5
508
330
6F
100
AcDbEntity
  8
ANCHOR
  6
HIDDEN
100
AcDbLine
 10
242.4273720781444
 20
388.2555691123097
 30
0.0
 11
242.4273720779464
 21
413.7555691123096
 31
0.0
  0
LINE
  5
509
330
6F
100
AcDbEntity
  8
ANCHOR
  6
HIDDEN
100
AcDbLine
 10
244.3858282575542
 20
380.4272652920598
 30
0.0
 11
246.7565275523973
 21
380.6863360535178
 31
0.0
  0
LINE
  5
50A
330
6F
100
AcDbEntity
  8
ANCHOR
  6
HIDDEN
100
AcDbLine
 10
246.7273720779321
 20
415.7555691123386
 30
0.0
 11
247.4273720778932
 21
420.7555691123435
 31
0.0
  0
LINE
  5
50B
330
6F
100
AcDbEntity
  8
ANCHOR
  6
HIDDEN
100
AcDbLine
 10
242.7273720779369
 20
413.7555691123115
 30
0.0
 11
243.0273720779452
 21
413.7555691123138
 31
0.0
  0
LINE
  5
50C
330
6F
100
AcDbEntity
  8
ANCHOR
  6
HIDDEN
100
AcDbLine
 10
243.0273720781441
 20
388.2555691123138
 30
0.0
 11
243.0273720779462
 21
413.7555691123138
 31
0.0
  0
LINE
  5
50D
330
6F
100
AcDbEntity
  8
ANCHOR
  6
HIDDEN
100
AcDbLine
 10
246.7273720779745
 20
410.255569112339
 30
0.0
 11
245.7273720779772
 21
409.755569112332
 31
0.0
  0
LINE
  5
50E
330
6F
100
AcDbEntity
  8
ANCHOR
  6
HIDDEN
100
AcDbLine
 10
245.7273720779773
 20
409.755569112332
 30
0.0
 11
245.4773720780396
 21
401.7555691123305
 31
0.0
  0
LINE
  5
50F
330
6F
100
AcDbEntity
  8
ANCHOR
  6
HIDDEN
100
AcDbLine
 10
246.727372077972
 20
410.2555691123393
 30
0.0
 11
246.7273720778905
 21
420.7555691123394
 31
0.0
  0
LINE
  5
510
330
6F
100
AcDbEntity
  8
ANCHOR
  6
HIDDEN
100
AcDbLine
 10
243.5628865958693
 20
383.3551940858422
 30
0.0
 11
247.8223414261872
 21
383.8206686437871
 31
0.0
  0
LINE
  5
511
330
6F
100
AcDbEntity
  8
ANCHOR
  6
HIDDEN
100
AcDbLine
 10
243.4542530187665
 20
384.3492759466191
 30
0.0
 11
247.0675546395795
 21
384.7441386794498
 31
0.0
  0
LINE
  5
512
330
6F
100
AcDbEntity
  8
ANCHOR
  6
HIDDEN
100
AcDbLine
 10
246.7565275523973
 20
380.6863360535178
 30
0.0
 11
247.8223414261875
 21
383.8206686437874
 31
0.0
  0
LINE
  5
513
330
6F
100
AcDbEntity
  8
ANCHOR
  6
HIDDEN
100
AcDbLine
 10
247.8223414261859
 20
383.8206686437875
 30
0.0
 11
247.0675546395812
 21
384.7441386794509
 31
0.0
  0
LINE
  5
514
330
6F
100
AcDbEntity
  8
ANCHOR
  6
HIDDEN
100
AcDbLine
 10
243.3456194416708
 20
385.3433578073973
 30
0.0
 11
247.6050742719883
 21
385.8088323653418
 31
0.0
  0
LINE
  5
515
330
6F
100
AcDbEntity
  8
ANCHOR
  6
HIDDEN
100
AcDbLine
 10
247.0675546395805
 20
384.7441386794515
 30
0.0
 11
247.6050742719866
 21
385.8088323653429
 31
0.0
  0
LINE
  5
516
330
6F
100
AcDbEntity
  8
ANCHOR
  6
HIDDEN
100
AcDbLine
 10
243.1826690760211
 20
386.8344805985626
 30
0.0
 11
247.442123906341
 21
387.2999551565073
 31
0.0
  0
LINE
  5
517
330
6F
100
AcDbEntity
  8
ANCHOR
  6
HIDDEN
100
AcDbLine
 10
247.6050742719885
 20
385.8088323653417
 30
0.0
 11
247.4421239063395
 21
387.2999551565077
 31
0.0
  0
LINE
  5
518
330
6F
100
AcDbEntity
  8
ANCHOR
  6
HIDDEN
100
AcDbLine
 10
247.2628785041254
 20
388.940190226785
 30
0.0
 11
247.0075895979412
 21
391.2762825996168
 31
0.0
  0
LINE
  5
519
330
6F
100
AcDbEntity
  8
ANCHOR
  6
HIDDEN
100
AcDbLine
 10
243.1283522874705
 20
387.3315215289523
 30
0.0
 11
246.7416539082872
 21
387.7263842617833
 31
0.0
  0
LINE
  5
51A
330
6F
100
AcDbEntity
  8
ANCHOR
  6
HIDDEN
100
AcDbLine
 10
243.0740354989202
 20
387.8285624593409
 30
0.0
 11
246.6873371197386
 21
388.2234251921723
 31
0.0
  0
LINE
  5
51B
330
6F
100
AcDbEntity
  8
ANCHOR
  6
HIDDEN
100
AcDbLine
 10
246.7416539082858
 20
387.7263842617834
 30
0.0
 11
247.4421239063381
 21
387.2999551565079
 31
0.0
  0
LINE
  5
51C
330
6F
100
AcDbEntity
  8
ANCHOR
  6
HIDDEN
100
AcDbLine
 10
246.7416539082867
 20
387.7263842617828
 30
0.0
 11
246.6873371197381
 21
388.2234251921718
 31
0.0
  0
LINE
  5
51D
330
6F
100
AcDbEntity
  8
ANCHOR
  6
HIDDEN
100
AcDbLine
 10
246.6873371197379
 20
388.2234251921718
 30
0.0
 11
247.2628785041248
 21
388.9401902267853
 31
0.0
  0
LINE
  5
51E
330
6F
100
AcDbEntity
  8
ANCHOR
  6
HIDDEN
100
AcDbLine
 10
243.4288948991427
 20
390.885201722063
 30
0.0
 11
247.007589597942
 21
391.2762825996169
 31
0.0
  0
LINE
  5
51F
330
6F
100
AcDbEntity
  8
ANCHOR
  6
HIDDEN
100
AcDbLine
 10
246.3614363884375
 20
391.2056707745029
 30
0.0
 11
246.3071195998889
 21
391.7027117048917
 31
0.0
  0
LINE
  5
520
330
6F
100
AcDbEntity
  8
ANCHOR
  6
HIDDEN
100
AcDbLine
 10
243.3745781105925
 20
391.3822426524522
 30
0.0
 11
246.3071195998905
 21
391.7027117048928
 31
0.0
  0
LINE
  5
521
330
6F
100
AcDbEntity
  8
ANCHOR
  6
HIDDEN
100
AcDbLine
 10
246.3071195998912
 20
391.7027117048919
 30
0.0
 11
246.8826609842781
 21
392.4194767395053
 31
0.0
  0
LINE
  5
522
330
6F
100
AcDbEntity
  8
ANCHOR
  6
HIDDEN
100
AcDbLine
 10
246.6273720781127
 20
392.4055691123328
 30
0.0
 11
246.6273720780944
 21
394.7555691123378
 31
0.0
  0
LINE
  5
523
330
6F
100
AcDbEntity
  8
ANCHOR
  6
HIDDEN
100
AcDbLine
 10
243.027372078093
 20
394.7555691123138
 30
0.0
 11
246.6273720780934
 21
394.7555691123378
 31
0.0
  0
LINE
  5
524
330
6F
100
AcDbEntity
  8
ANCHOR
  6
HIDDEN
100
AcDbLine
 10
245.977372078096
 20
394.7555691123339
 30
0.0
 11
245.9773720780933
 21
395.2555691123339
 31
0.0
  0
LINE
  5
525
330
6F
100
AcDbEntity
  8
ANCHOR
  6
HIDDEN
100
AcDbLine
 10
243.0273720780882
 20
395.255569112315
 30
0.0
 11
245.9773720780926
 21
395.2555691123346
 31
0.0
  0
LINE
  5
526
330
6F
100
AcDbEntity
  8
ANCHOR
  6
HIDDEN
100
AcDbLine
 10
245.9773720780936
 20
395.255569112332
 30
0.0
 11
246.627372078084
 21
395.9055691123311
 31
0.0
  0
LINE
  5
527
330
6F
100
AcDbEntity
  8
ANCHOR
  6
HIDDEN
100
AcDbLine
 10
246.6273720780855
 20
395.9055691123328
 30
0.0
 11
246.6273720780672
 21
398.2555691123378
 31
0.0
  0
LINE
  5
528
330
6F
100
AcDbEntity
  8
ANCHOR
  6
HIDDEN
100
AcDbLine
 10
243.0273720780668
 20
398.2555691123138
 30
0.0
 11
246.6273720780671
 21
398.2555691123378
 31
0.0
  0
LINE
  5
529
330
6F
100
AcDbEntity
  8
ANCHOR
  6
HIDDEN
100
AcDbLine
 10
245.9773720780699
 20
398.2555691123334
 30
0.0
 11
245.9773720780672
 21
398.7555691123334
 31
0.0
  0
LINE
  5
52A
330
6F
100
AcDbEntity
  8
ANCHOR
  6
HIDDEN
100
AcDbLine
 10
243.0273720780612
 20
398.7555691123147
 30
0.0
 11
245.9773720780656
 21
398.7555691123343
 31
0.0
  0
LINE
  5
52B
330
6F
100
AcDbEntity
  8
ANCHOR
  6
HIDDEN
100
AcDbLine
 10
245.9773720780665
 20
398.7555691123338
 30
0.0
 11
246.627372078057
 21
399.405569112333
 31
0.0
  0
LINE
  5
52C
330
6F
100
AcDbEntity
  8
ANCHOR
  6
HIDDEN
100
AcDbLine
 10
246.6273720780676
 20
398.2555691123384
 30
0.0
 11
246.6273720780405
 21
401.7555691123387
 31
0.0
  0
LINE
  5
52D
330
6F
100
AcDbEntity
  8
ANCHOR
  6
HIDDEN
100
AcDbLine
 10
243.0273720780384
 20
401.7555691123145
 30
0.0
 11
246.727372078181
 21
401.7555691123391
 31
0.0
  0
LINE
  5
52E
330
6F
100
AcDbEntity
  8
ANCHOR
  6
HIDDEN
100
AcDbLine
 10
243.0273720780355
 20
402.2555691123142
 30
0.0
 11
245.4929970780345
 21
402.2555691123306
 31
0.0
  0
LINE
  5
52F
330
6F
100
AcDbEntity
  8
ANCHOR
  6
HIDDEN
100
AcDbLine
 10
243.0273720780167
 20
405.2555691123147
 30
0.0
 11
245.586747078012
 21
405.2555691123318
 31
0.0
  0
LINE
  5
530
330
6F
100
AcDbEntity
  8
ANCHOR
  6
HIDDEN
100
AcDbLine
 10
243.027372078013
 20
405.7555691123138
 30
0.0
 11
245.6023720780082
 21
405.755569112331
 31
0.0
  0
LINE
  5
531
330
6F
100
AcDbEntity
  8
ANCHOR
  6
HIDDEN
100
AcDbLine
 10
243.0273720779926
 20
408.7555691123137
 30
0.0
 11
245.6961220779842
 21
408.7555691123314
 31
0.0
  0
LINE
  5
532
330
6F
100
AcDbEntity
  8
ANCHOR
  6
HIDDEN
100
AcDbLine
 10
243.0273720779903
 20
409.2555691123138
 30
0.0
 11
245.7117470779819
 21
409.2555691123318
 31
0.0
  0
LINE
  5
533
330
6F
100
AcDbEntity
  8
ANCHOR
  6
HIDDEN
100
AcDbLine
 10
243.0273720781427
 20
388.2555691123027
 30
0.0
 11
243.8344705386158
 21
380.869989433899
 31
0.0
  0
ARC
  5
534
330
6F
100
AcDbEntity
  8
ANCHOR
  6
HIDDEN
100
AcDbCircle
 10
244.3315114690056
 20
380.9243062224484
 30
0.0
 40
0.5
100
AcDbArc
 50
186.2365532722638
 51
276.2365532722005
  0
LINE
  5
535
330
6F
100
AcDbEntity
  8
ANCHOR
  6
HIDDEN
100
AcDbLine
 10
238.727372123356
 20
401.7555691123038
 30
0.0
 11
237.1158880971461
 21
409.5915833560876
 31
0.0
  0
LINE
  5
536
330
6F
100
AcDbEntity
  8
ANCHOR
  6
HIDDEN
100
AcDbLine
 10
238.2116887197266
 20
409.2275032425845
 30
0.0
 11
237.1158880971752
 21
409.591583355948
 31
0.0
  0
LINE
  5
537
330
6F
100
AcDbEntity
  8
ANCHOR
  6
HIDDEN
100
AcDbLine
 10
239.7482993129742
 20
401.7555691123058
 30
0.0
 11
238.2116887197267
 21
409.2275032425848
 31
0.0
  0
LINE
  5
538
330
6F
100
AcDbEntity
  8
ANCHOR
  6
HIDDEN
100
AcDbLine
 10
246.7273720781786
 20
401.7555691123098
 30
0.0
 11
248.3388561043711
 21
409.5915833560974
 31
0.0
  0
LINE
  5
539
330
6F
100
AcDbEntity
  8
ANCHOR
  6
HIDDEN
100
AcDbLine
 10
247.2430554817932
 20
409.2275032425914
 30
0.0
 11
248.3388561043439
 21
409.5915833559573
 31
0.0
  0
LINE
  5
53A
330
6F
100
AcDbEntity
  8
ANCHOR
  6
HIDDEN
100
AcDbLine
 10
245.7064448885615
 20
401.755569112309
 30
0.0
 11
247.2430554817922
 21
409.2275032425908
 31
0.0
  0
LINE
  5
53B
330
6F
100
AcDbEntity
  8
ANCHOR
  6
HIDDEN
100
AcDbLine
 10
242.7273721689338
 20
368.7555691123112
 30
0.0
 11
239.9773721344775
 21
379.0187089614263
 31
0.0
  0
LINE
  5
53C
330
6F
100
AcDbEntity
  8
ANCHOR
  6
HIDDEN
100
AcDbLine
 10
242.7273721234753
 20
368.755569112311
 30
0.0
 11
245.4773721342489
 21
379.0187088734047
 31
0.0
  0
LINE
  5
53D
330
6F
100
AcDbEntity
  8
ANCHOR
  6
HIDDEN
100
AcDbLine
 10
239.977372134479
 20
379.0187089614267
 30
0.0
 11
239.9773721339327
 21
380.5465495414958
 31
0.0
  0
LINE
  5
53E
330
6F
100
AcDbEntity
  8
ANCHOR
  6
HIDDEN
100
AcDbLine
 10
245.477372134249
 20
379.0187088734045
 30
0.0
 11
245.4773721338875
 21
380.5465495487437
 31
0.0
  0
ARC
  5
53F
330
6F
100
AcDbEntity
  8
ANCHOR
  6
Continuous
100
AcDbCircle
 10
242.727372123424
 20
414.1555691123021
 30
0.0
 40
14.0
100
AcDbArc
 50
74.63751496329646
 51
105.3624850364064
  0
LINE
  5
540
330
6F
100
AcDbEntity
  8
ANCHOR
  6
Continuous
100
AcDbLine
 10
237.4773721234012
 20
424.8555691122911
 30
0.0
 11
237.4857134320941
 21
424.9179062927614
 31
0.0
  0
LINE
  5
541
330
6F
100
AcDbEntity
  8
ANCHOR
  6
Continuous
100
AcDbLine
 10
247.977372123405
 20
424.8555691123131
 30
0.0
 11
247.8257322491111
 21
425.9888208066531
 31
0.0
  0
ARC
  5
542
330
6F
100
AcDbEntity
  8
ANCHOR
  6
Continuous
100
AcDbCircle
 10
245.9329623227175
 20
425.8232248953986
 30
0.0
 40
1.9
100
AcDbArc
 50
5.000000000119887
 51
74.63751496329646
  0
LINE
  5
543
330
6F
100
AcDbEntity
  8
ANCHOR
  6
Continuous
100
AcDbLine
 10
249.2273721234341
 20
424.8555691123153
 30
0.0
 11
236.2273721234414
 21
424.8555691122879
 31
0.0
  0
LINE
  5
544
330
6F
100
AcDbEntity
  8
ANCHOR
  6
Continuous
100
AcDbLine
 10
236.2273721234336
 20
424.2555691122892
 30
0.0
 11
236.2273721234337
 21
424.2899579990401
 31
0.0
  0
LINE
  5
545
330
6F
100
AcDbEntity
  8
ANCHOR
  6
Continuous
100
AcDbLine
 10
249.2273721234325
 20
424.2555691123162
 30
0.0
 11
249.227372123433
 21
424.8555691123161
 31
0.0
  0
LINE
  5
546
330
6F
100
AcDbEntity
  8
ANCHOR
  6
HIDDEN
100
AcDbLine
 10
245.4773721246137
 20
419.2555691121237
 30
0.0
 11
245.4773721234311
 21
424.2555691123079
 31
0.0
  0
LINE
  5
547
330
6F
100
AcDbEntity
  8
ANCHOR
  6
HIDDEN
100
AcDbLine
 10
239.9773721252206
 20
419.255569112138
 30
0.0
 11
239.9773721234328
 21
424.2555691122966
 31
0.0
  0
LINE
  5
548
330
6F
100
AcDbEntity
  8
ANCHOR
  6
Continuous
100
AcDbLine
 10
249.2273721234336
 20
424.255569112315
 30
0.0
 11
236.2273721234336
 21
424.2555691122876
 31
0.0
  0
LINE
  5
549
330
6F
100
AcDbEntity
  8
ANCHOR
  6
Continuous
100
AcDbLine
 10
237.4773721234735
 20
424.8555691123846
 30
0.0
 11
237.6290119977819
 21
425.9888208067216
 31
0.0
  0
ARC
  5
54A
330
6F
100
AcDbEntity
  8
ANCHOR
  6
Continuous
100
AcDbCircle
 10
239.5217819241686
 20
425.8232248954421
 30
0.0
 40
1.9
100
AcDbArc
 50
105.3624850359274
 51
174.999999999104
  0
LINE
  5
54B
330
6F
100
AcDbEntity
  8
ANCHOR
  6
Continuous
100
AcDbLine
 10
236.2273721234348
 20
424.255569112404
 30
0.0
 11
236.2273721234426
 21
424.8555691124041
 31
0.0
  0
LINE
  5
54C
330
6F
100
AcDbEntity
  8
KUTAI
  6
Continuous
100
AcDbLine
 10
632.7412277187526
 20
142.8364496096263
 30
0.0
 11
582.7412277187526
 21
142.8364496096263
 31
0.0
  0
LINE
  5
54D
330
6F
100
AcDbEntity
  8
KUTAI
  6
Continuous
100
AcDbLine
 10
635.7412277187527
 20
113.8364496096263
 30
0.0
 11
635.7412277187527
 21
139.8364496096263
 31
0.0
  0
LINE
  5
54E
330
6F
100
AcDbEntity
  8
KUTAI
  6
Continuous
100
AcDbLine
 10
579.7412277187527
 20
139.8364496096263
 30
0.0
 11
579.7412277187527
 21
113.8364496096263
 31
0.0
  0
LINE
  5
54F
330
6F
100
AcDbEntity
  8
KUTAI
  6
Continuous
100
AcDbLine
 10
582.7412277187526
 20
110.8364496096263
 30
0.0
 11
632.7412277187526
 21
110.8364496096263
 31
0.0
  0
LINE
  5
550
330
6F
100
AcDbEntity
  8
KUTAI
  6
Continuous
100
AcDbLine
 10
518.9620800525037
 20
142.8364496096263
 30
0.0
 11
562.7412277187528
 21
142.8364496096263
 31
0.0
  0
LINE
  5
551
330
6F
100
AcDbEntity
  8
KUTAI
  6
Continuous
100
AcDbLine
 10
565.7412277187527
 20
113.8364496096263
 30
0.0
 11
565.7412277187527
 21
139.8364496096263
 31
0.0
  0
LINE
  5
552
330
6F
100
AcDbEntity
  8
KUTAI
  6
Continuous
100
AcDbLine
 10
518.9620800525037
 20
110.8364496096263
 30
0.0
 11
562.7412277187528
 21
110.8364496096263
 31
0.0
  0
LINE
  5
553
330
6F
100
AcDbEntity
  8
KUTAI
  6
Continuous
100
AcDbLine
 10
652.7412277187527
 20
142.8364496096263
 30
0.0
 11
694.1524096246031
 21
142.8364496096263
 31
0.0
  0
LINE
  5
554
330
6F
100
AcDbEntity
  8
KUTAI
  6
Continuous
100
AcDbLine
 10
649.7412277187527
 20
139.8364496096263
 30
0.0
 11
649.7412277187527
 21
113.8364496096263
 31
0.0
  0
LINE
  5
555
330
6F
100
AcDbEntity
  8
KUTAI
  6
Continuous
100
AcDbLine
 10
652.7412277187527
 20
110.8364496096263
 30
0.0
 11
694.1524096246031
 21
110.8364496096263
 31
0.0
  0
LINE
  5
556
330
6F
100
AcDbEntity
  8
KUTAI
  6
Continuous
100
AcDbLine
 10
518.9620800525037
 20
156.8364496096263
 30
0.0
 11
694.1524096246031
 21
156.8364496096263
 31
0.0
  0
LINE
  5
557
330
6F
100
AcDbEntity
  8
KUTAI
  6
Continuous
100
AcDbLine
 10
518.9620800525037
 20
96.83644960962631
 30
0.0
 11
694.1524096246031
 21
96.83644960962631
 31
0.0
  0
ARC
  5
558
330
6F
100
AcDbEntity
  8
KUTAI
  6
Continuous
100
AcDbCircle
 10
632.7412277187526
 20
139.8364496096263
 30
0.0
 40
3.000000191249998
100
AcDbArc
 50
0.0
 51
90.0
  0
ARC
  5
559
330
6F
100
AcDbEntity
  8
KUTAI
  6
Continuous
100
AcDbCircle
 10
582.7412277187526
 20
139.8364496096263
 30
0.0
 40
3.000000191249998
100
AcDbArc
 50
90.0
 51
180.0
  0
ARC
  5
55A
330
6F
100
AcDbEntity
  8
KUTAI
  6
Continuous
100
AcDbCircle
 10
632.7412277187526
 20
113.8364496096263
 30
0.0
 40
3.000000191249998
100
AcDbArc
 50
270.0
 51
0.0
  0
ARC
  5
55B
330
6F
100
AcDbEntity
  8
KUTAI
  6
Continuous
100
AcDbCircle
 10
582.7412277187526
 20
113.8364496096263
 30
0.0
 40
3.000000191249998
100
AcDbArc
 50
180.0
 51
270.0
  0
ARC
  5
55C
330
6F
100
AcDbEntity
  8
KUTAI
  6
Continuous
100
AcDbCircle
 10
562.7412277187528
 20
139.8364496096263
 30
0.0
 40
3.000000191249998
100
AcDbArc
 50
0.0
 51
90.0
  0
ARC
  5
55D
330
6F
100
AcDbEntity
  8
KUTAI
  6
Continuous
100
AcDbCircle
 10
562.7412277187528
 20
113.8364496096263
 30
0.0
 40
3.000000191249998
100
AcDbArc
 50
270.0
 51
0.0
  0
ARC
  5
55E
330
6F
100
AcDbEntity
  8
KUTAI
  6
Continuous
100
AcDbCircle
 10
652.7412277187527
 20
139.8364496096263
 30
0.0
 40
3.000000191249998
100
AcDbArc
 50
90.0
 51
180.0
  0
ARC
  5
55F
330
6F
100
AcDbEntity
  8
KUTAI
  6
Continuous
100
AcDbCircle
 10
652.7412277187527
 20
113.8364496096263
 30
0.0
 40
3.000000191249998
100
AcDbArc
 50
180.0
 51
270.0
  0
LINE
  5
560
330
6F
100
AcDbEntity
  8
ANCHOR
  6
HIDDEN
100
AcDbLine
 10
611.2412277190034
 20
160.3364496094666
 30
0.0
 11
610.1812277190032
 21
159.2764496094666
 31
0.0
  0
LINE
  5
561
330
6F
100
AcDbEntity
  8
ANCHOR
  6
HIDDEN
100
AcDbLine
 10
605.7412277190032
 20
129.8364496094668
 30
0.0
 11
605.7412277190032
 21
127.3364496094665
 31
0.0
  0
LINE
  5
562
330
6F
100
AcDbEntity
  8
ANCHOR
  6
HIDDEN
100
AcDbLine
 10
609.7412277190032
 20
129.8364496094668
 30
0.0
 11
609.7412277190032
 21
127.3364496094665
 31
0.0
  0
LINE
  5
563
330
6F
100
AcDbEntity
  8
ANCHOR
  6
Continuous
100
AcDbLine
 10
611.9912277190032
 20
162.7364496094666
 30
0.0
 11
603.4912277190032
 21
162.7364496094666
 31
0.0
  0
LINE
  5
564
330
6F
100
AcDbEntity
  8
ANCHOR
  6
HIDDEN
100
AcDbLine
 10
609.8912277190033
 20
131.3364496094668
 30
0.0
 11
605.5912277190032
 21
131.3364496094668
 31
0.0
  0
LINE
  5
565
330
6F
100
AcDbEntity
  8
ANCHOR
  6
HIDDEN
100
AcDbLine
 10
609.7412277190032
 20
127.3364496094665
 30
0.0
 11
605.7412277190032
 21
127.3364496094665
 31
0.0
  0
LINE
  5
566
330
6F
100
AcDbEntity
  8
ANCHOR
  6
HIDDEN
100
AcDbLine
 10
609.7412277190032
 20
129.8364496094668
 30
0.0
 11
605.7412277190032
 21
129.8364496094668
 31
0.0
  0
LINE
  5
567
330
6F
100
AcDbEntity
  8
ANCHOR
  6
HIDDEN
100
AcDbLine
 10
609.7412277190032
 20
129.8364496094667
 30
0.0
 11
609.8912277190033
 21
131.3364496094667
 31
0.0
  0
LINE
  5
568
330
6F
100
AcDbEntity
  8
ANCHOR
  6
HIDDEN
100
AcDbLine
 10
605.7412277190032
 20
129.8364496094667
 30
0.0
 11
605.5912277190032
 21
131.3364496094667
 31
0.0
  0
LINE
  5
569
330
6F
100
AcDbEntity
  8
ANCHOR
  6
HIDDEN
100
AcDbLine
 10
604.2412277190031
 20
160.3364496094665
 30
0.0
 11
605.3012277190028
 21
159.2764496094666
 31
0.0
  0
LINE
  5
56A
330
6F
100
AcDbEntity
  8
ANCHOR
  6
HIDDEN
100
AcDbLine
 10
610.1812277190032
 20
159.2764496094666
 30
0.0
 11
605.3012277190032
 21
159.2764496094666
 31
0.0
  0
LINE
  5
56B
330
6F
100
AcDbEntity
  8
ANCHOR
  6
HIDDEN
100
AcDbLine
 10
610.3912277190032
 20
143.8574496095208
 30
0.0
 11
609.8912277190033
 21
143.5687744749258
 31
0.0
  0
LINE
  5
56C
330
6F
100
AcDbEntity
  8
ANCHOR
  6
HIDDEN
100
AcDbLine
 10
604.5412277190028
 20
143.8574496095206
 30
0.0
 11
605.5912277190032
 21
143.576102957468
 31
0.0
  0
LINE
  5
56D
330
6F
100
AcDbEntity
  8
ANCHOR
  6
HIDDEN
100
AcDbLine
 10
610.9412277190037
 20
145.6714496095205
 30
0.0
 11
609.8912277190036
 21
145.9527962615731
 31
0.0
  0
LINE
  5
56E
330
6F
100
AcDbEntity
  8
ANCHOR
  6
HIDDEN
100
AcDbLine
 10
610.3912277190032
 20
143.8574496095208
 30
0.0
 11
609.8912277190033
 21
144.1461247441157
 31
0.0
  0
LINE
  5
56F
330
6F
100
AcDbEntity
  8
ANCHOR
  6
HIDDEN
100
AcDbLine
 10
605.0912277190032
 20
142.0434496095207
 30
0.0
 11
605.5912277190034
 21
142.3321247441154
 31
0.0
  0
LINE
  5
570
330
6F
100
AcDbEntity
  8
ANCHOR
  6
HIDDEN
100
AcDbLine
 10
605.0912277190032
 20
142.0434496095205
 30
0.0
 11
605.5912277190032
 21
141.7547744749256
 31
0.0
  0
LINE
  5
571
330
6F
100
AcDbEntity
  8
ANCHOR
  6
HIDDEN
100
AcDbLine
 10
610.9412277190032
 20
145.6714496095206
 30
0.0
 11
604.5412277190031
 21
143.8574496095206
 31
0.0
  0
LINE
  5
572
330
6F
100
AcDbEntity
  8
ANCHOR
  6
HIDDEN
100
AcDbLine
 10
605.5912277190032
 20
143.5761029574681
 30
0.0
 11
610.9412277190032
 21
145.6714496095207
 31
0.0
  0
LINE
  5
573
330
6F
100
AcDbEntity
  8
ANCHOR
  6
HIDDEN
100
AcDbLine
 10
609.8912277190033
 20
145.952796261573
 30
0.0
 11
604.5412277190032
 21
143.8574496095205
 31
0.0
  0
LINE
  5
574
330
6F
100
AcDbEntity
  8
ANCHOR
  6
HIDDEN
100
AcDbLine
 10
609.891227719003
 20
144.1461247441155
 30
0.0
 11
605.5912277190032
 21
142.3321247441155
 31
0.0
  0
LINE
  5
575
330
6F
100
AcDbEntity
  8
ANCHOR
  6
HIDDEN
100
AcDbLine
 10
605.0912277190032
 20
142.0434496095206
 30
0.0
 11
610.3912277190032
 21
143.8574496095205
 31
0.0
  0
LINE
  5
576
330
6F
100
AcDbEntity
  8
ANCHOR
  6
HIDDEN
100
AcDbLine
 10
605.5912277190032
 20
141.754774474926
 30
0.0
 11
609.8912277190028
 21
143.5687744749258
 31
0.0
  0
LINE
  5
577
330
6F
100
AcDbEntity
  8
ANCHOR
  6
HIDDEN
100
AcDbLine
 10
610.3912277190032
 20
140.2294496095343
 30
0.0
 11
609.891227719003
 21
139.9407744749393
 31
0.0
  0
LINE
  5
578
330
6F
100
AcDbEntity
  8
ANCHOR
  6
HIDDEN
100
AcDbLine
 10
604.541227719003
 20
140.229449609534
 30
0.0
 11
605.591227719003
 21
139.9481029574814
 31
0.0
  0
LINE
  5
579
330
6F
100
AcDbEntity
  8
ANCHOR
  6
HIDDEN
100
AcDbLine
 10
610.9412277190032
 20
142.0434496095344
 30
0.0
 11
609.8912277190033
 21
142.324796261587
 31
0.0
  0
LINE
  5
57A
330
6F
100
AcDbEntity
  8
ANCHOR
  6
HIDDEN
100
AcDbLine
 10
610.3912277190032
 20
140.229449609534
 30
0.0
 11
609.8912277190033
 21
140.518124744129
 31
0.0
  0
LINE
  5
57B
330
6F
100
AcDbEntity
  8
ANCHOR
  6
HIDDEN
100
AcDbLine
 10
605.0912277190032
 20
138.4154496095341
 30
0.0
 11
605.5912277190032
 21
138.7041247441289
 31
0.0
  0
LINE
  5
57C
330
6F
100
AcDbEntity
  8
ANCHOR
  6
HIDDEN
100
AcDbLine
 10
605.0912277190032
 20
138.415449609534
 30
0.0
 11
605.591227719003
 21
138.1267744749392
 31
0.0
  0
LINE
  5
57D
330
6F
100
AcDbEntity
  8
ANCHOR
  6
HIDDEN
100
AcDbLine
 10
610.9412277190036
 20
142.0434496095343
 30
0.0
 11
604.5412277190036
 21
140.2294496095342
 31
0.0
  0
LINE
  5
57E
330
6F
100
AcDbEntity
  8
ANCHOR
  6
HIDDEN
100
AcDbLine
 10
605.5912277190032
 20
139.9481029574812
 30
0.0
 11
610.9412277190031
 21
142.0434496095339
 31
0.0
  0
LINE
  5
57F
330
6F
100
AcDbEntity
  8
ANCHOR
  6
HIDDEN
100
AcDbLine
 10
609.891227719003
 20
142.3247962615868
 30
0.0
 11
604.5412277190031
 21
140.2294496095341
 31
0.0
  0
LINE
  5
580
330
6F
100
AcDbEntity
  8
ANCHOR
  6
HIDDEN
100
AcDbLine
 10
609.891227719003
 20
140.5181247441291
 30
0.0
 11
605.5912277190032
 21
138.704124744129
 31
0.0
  0
LINE
  5
581
330
6F
100
AcDbEntity
  8
ANCHOR
  6
HIDDEN
100
AcDbLine
 10
605.0912277190032
 20
138.4154496095341
 30
0.0
 11
610.3912277190032
 21
140.2294496095341
 31
0.0
  0
LINE
  5
582
330
6F
100
AcDbEntity
  8
ANCHOR
  6
HIDDEN
100
AcDbLine
 10
605.5912277190034
 20
138.1267744749394
 30
0.0
 11
609.8912277190033
 21
139.9407744749393
 31
0.0
  0
LINE
  5
583
330
6F
100
AcDbEntity
  8
ANCHOR
  6
HIDDEN
100
AcDbLine
 10
609.8912277190033
 20
140.5181247441291
 30
0.0
 11
609.8912277190033
 21
141.63221335072
 31
0.0
  0
LINE
  5
584
330
6F
100
AcDbEntity
  8
ANCHOR
  6
HIDDEN
100
AcDbLine
 10
609.8912277190033
 20
142.3247962615868
 30
0.0
 11
609.8912277190033
 21
143.5687744749256
 31
0.0
  0
LINE
  5
585
330
6F
100
AcDbEntity
  8
ANCHOR
  6
HIDDEN
100
AcDbLine
 10
609.8912277190033
 20
144.1461247441156
 30
0.0
 11
609.8912277190033
 21
145.2602133507066
 31
0.0
  0
LINE
  5
586
330
6F
100
AcDbEntity
  8
ANCHOR
  6
HIDDEN
100
AcDbLine
 10
605.5912277190032
 20
143.576102957468
 30
0.0
 11
605.5912277190032
 21
142.3321247441155
 31
0.0
  0
LINE
  5
587
330
6F
100
AcDbEntity
  8
ANCHOR
  6
HIDDEN
100
AcDbLine
 10
605.5912277190032
 20
141.7547744749258
 30
0.0
 11
605.5912277190032
 21
140.6406858683482
 31
0.0
  0
LINE
  5
588
330
6F
100
AcDbEntity
  8
ANCHOR
  6
HIDDEN
100
AcDbLine
 10
605.5912277190032
 20
139.9481029574816
 30
0.0
 11
605.5912277190032
 21
138.7041247441292
 31
0.0
  0
LINE
  5
589
330
6F
100
AcDbEntity
  8
ANCHOR
  6
HIDDEN
100
AcDbLine
 10
610.391227719003
 20
147.4854496095068
 30
0.0
 11
609.8912277190033
 21
147.196774474912
 31
0.0
  0
LINE
  5
58A
330
6F
100
AcDbEntity
  8
ANCHOR
  6
HIDDEN
100
AcDbLine
 10
604.5412277190028
 20
147.4854496095068
 30
0.0
 11
605.5912277190027
 21
147.2041029574541
 31
0.0
  0
LINE
  5
58B
330
6F
100
AcDbEntity
  8
ANCHOR
  6
HIDDEN
100
AcDbLine
 10
610.9412277190031
 20
149.2994496095071
 30
0.0
 11
609.891227719003
 21
149.5807962615597
 31
0.0
  0
LINE
  5
58C
330
6F
100
AcDbEntity
  8
ANCHOR
  6
HIDDEN
100
AcDbLine
 10
610.3912277190032
 20
147.4854496095071
 30
0.0
 11
609.8912277190033
 21
147.774124744102
 31
0.0
  0
LINE
  5
58D
330
6F
100
AcDbEntity
  8
ANCHOR
  6
HIDDEN
100
AcDbLine
 10
605.0912277190032
 20
145.6714496095071
 30
0.0
 11
605.5912277190032
 21
145.9601247441018
 31
0.0
  0
LINE
  5
58E
330
6F
100
AcDbEntity
  8
ANCHOR
  6
HIDDEN
100
AcDbLine
 10
605.0912277190032
 20
145.6714496095072
 30
0.0
 11
605.5912277190027
 21
145.3827744749123
 31
0.0
  0
LINE
  5
58F
330
6F
100
AcDbEntity
  8
ANCHOR
  6
HIDDEN
100
AcDbLine
 10
610.9412277190031
 20
149.299449609507
 30
0.0
 11
604.5412277190031
 21
147.485449609507
 31
0.0
  0
LINE
  5
590
330
6F
100
AcDbEntity
  8
ANCHOR
  6
HIDDEN
100
AcDbLine
 10
605.5912277190032
 20
147.2041029574546
 30
0.0
 11
610.9412277190031
 21
149.2994496095073
 31
0.0
  0
LINE
  5
591
330
6F
100
AcDbEntity
  8
ANCHOR
  6
HIDDEN
100
AcDbLine
 10
609.8912277190028
 20
149.5807962615597
 30
0.0
 11
604.5412277190028
 21
147.4854496095071
 31
0.0
  0
LINE
  5
592
330
6F
100
AcDbEntity
  8
ANCHOR
  6
HIDDEN
100
AcDbLine
 10
609.8912277190033
 20
147.774124744102
 30
0.0
 11
605.5912277190032
 21
145.9601247441019
 31
0.0
  0
LINE
  5
593
330
6F
100
AcDbEntity
  8
ANCHOR
  6
HIDDEN
100
AcDbLine
 10
605.0912277190032
 20
145.6714496095071
 30
0.0
 11
610.391227719003
 21
147.4854496095069
 31
0.0
  0
LINE
  5
594
330
6F
100
AcDbEntity
  8
ANCHOR
  6
HIDDEN
100
AcDbLine
 10
605.5912277190032
 20
145.3827744749122
 30
0.0
 11
609.891227719003
 21
147.1967744749122
 31
0.0
  0
LINE
  5
595
330
6F
100
AcDbEntity
  8
ANCHOR
  6
HIDDEN
100
AcDbLine
 10
609.8912277190033
 20
145.9527962615731
 30
0.0
 11
609.8912277190033
 21
147.1967744749121
 31
0.0
  0
LINE
  5
596
330
6F
100
AcDbEntity
  8
ANCHOR
  6
HIDDEN
100
AcDbLine
 10
609.8912277190033
 20
147.7741247441021
 30
0.0
 11
609.8912277190033
 21
148.8882133506931
 31
0.0
  0
LINE
  5
597
330
6F
100
AcDbEntity
  8
ANCHOR
  6
HIDDEN
100
AcDbLine
 10
605.5912277190032
 20
147.2041029574544
 30
0.0
 11
605.5912277190032
 21
145.9601247441019
 31
0.0
  0
LINE
  5
598
330
6F
100
AcDbEntity
  8
ANCHOR
  6
HIDDEN
100
AcDbLine
 10
605.5912277190032
 20
145.3827744749123
 30
0.0
 11
605.5912277190032
 21
144.2686858683348
 31
0.0
  0
LINE
  5
599
330
6F
100
AcDbEntity
  8
ANCHOR
  6
HIDDEN
100
AcDbLine
 10
610.391227719003
 20
151.1134496094936
 30
0.0
 11
609.891227719003
 21
150.8247744748988
 31
0.0
  0
LINE
  5
59A
330
6F
100
AcDbEntity
  8
ANCHOR
  6
HIDDEN
100
AcDbLine
 10
604.5412277190032
 20
151.1134496094934
 30
0.0
 11
605.5912277190034
 21
150.8321029574406
 31
0.0
  0
LINE
  5
59B
330
6F
100
AcDbEntity
  8
ANCHOR
  6
HIDDEN
100
AcDbLine
 10
610.9412277190032
 20
152.9274496094933
 30
0.0
 11
609.8912277190033
 21
153.208796261546
 31
0.0
  0
LINE
  5
59C
330
6F
100
AcDbEntity
  8
ANCHOR
  6
HIDDEN
100
AcDbLine
 10
610.3912277190032
 20
151.1134496094935
 30
0.0
 11
609.8912277190033
 21
151.4021247440883
 31
0.0
  0
LINE
  5
59D
330
6F
100
AcDbEntity
  8
ANCHOR
  6
HIDDEN
100
AcDbLine
 10
605.0912277190032
 20
149.2994496094933
 30
0.0
 11
605.5912277190032
 21
149.5881247440882
 31
0.0
  0
LINE
  5
59E
330
6F
100
AcDbEntity
  8
ANCHOR
  6
HIDDEN
100
AcDbLine
 10
605.0912277190032
 20
149.2994496094934
 30
0.0
 11
605.5912277190034
 21
149.0107744748985
 31
0.0
  0
LINE
  5
59F
330
6F
100
AcDbEntity
  8
ANCHOR
  6
HIDDEN
100
AcDbLine
 10
610.9412277190032
 20
152.9274496094936
 30
0.0
 11
604.5412277190032
 21
151.1134496094935
 31
0.0
  0
LINE
  5
5A0
330
6F
100
AcDbEntity
  8
ANCHOR
  6
HIDDEN
100
AcDbLine
 10
605.5912277190032
 20
150.8321029574409
 30
0.0
 11
610.9412277190032
 21
152.9274496094936
 31
0.0
  0
LINE
  5
5A1
330
6F
100
AcDbEntity
  8
ANCHOR
  6
HIDDEN
100
AcDbLine
 10
609.8912277190033
 20
153.2087962615464
 30
0.0
 11
604.5412277190035
 21
151.1134496094937
 31
0.0
  0
LINE
  5
5A2
330
6F
100
AcDbEntity
  8
ANCHOR
  6
HIDDEN
100
AcDbLine
 10
609.8912277190028
 20
151.4021247440883
 30
0.0
 11
605.5912277190032
 21
149.5881247440884
 31
0.0
  0
LINE
  5
5A3
330
6F
100
AcDbEntity
  8
ANCHOR
  6
HIDDEN
100
AcDbLine
 10
605.0912277190032
 20
149.2994496094935
 30
0.0
 11
610.391227719003
 21
151.1134496094934
 31
0.0
  0
LINE
  5
5A4
330
6F
100
AcDbEntity
  8
ANCHOR
  6
HIDDEN
100
AcDbLine
 10
605.5912277190034
 20
149.010774474899
 30
0.0
 11
609.8912277190033
 21
150.824774474899
 31
0.0
  0
LINE
  5
5A5
330
6F
100
AcDbEntity
  8
ANCHOR
  6
HIDDEN
100
AcDbLine
 10
609.8912277190033
 20
149.5807962615596
 30
0.0
 11
609.8912277190033
 21
150.8247744748989
 31
0.0
  0
LINE
  5
5A6
330
6F
100
AcDbEntity
  8
ANCHOR
  6
HIDDEN
100
AcDbLine
 10
609.8912277190033
 20
151.4021247440884
 30
0.0
 11
609.8912277190033
 21
152.5162133506795
 31
0.0
  0
LINE
  5
5A7
330
6F
100
AcDbEntity
  8
ANCHOR
  6
HIDDEN
100
AcDbLine
 10
605.5912277190032
 20
150.8321029574408
 30
0.0
 11
605.5912277190032
 21
149.5881247440886
 31
0.0
  0
LINE
  5
5A8
330
6F
100
AcDbEntity
  8
ANCHOR
  6
HIDDEN
100
AcDbLine
 10
605.5912277190032
 20
149.0107744748988
 30
0.0
 11
605.5912277190032
 21
147.8966858683213
 31
0.0
  0
LINE
  5
5A9
330
6F
100
AcDbEntity
  8
ANCHOR
  6
HIDDEN
100
AcDbLine
 10
610.391227719003
 20
154.7414496094801
 30
0.0
 11
609.891227719003
 21
154.4527744748851
 31
0.0
  0
LINE
  5
5AA
330
6F
100
AcDbEntity
  8
ANCHOR
  6
HIDDEN
100
AcDbLine
 10
604.5412277190031
 20
154.7414496094799
 30
0.0
 11
605.591227719003
 21
154.4601029574273
 31
0.0
  0
LINE
  5
5AB
330
6F
100
AcDbEntity
  8
ANCHOR
  6
HIDDEN
100
AcDbLine
 10
610.9412277190032
 20
156.5554496094798
 30
0.0
 11
609.8912277190033
 21
156.8367962615323
 31
0.0
  0
LINE
  5
5AC
330
6F
100
AcDbEntity
  8
ANCHOR
  6
HIDDEN
100
AcDbLine
 10
610.3912277190032
 20
154.74144960948
 30
0.0
 11
609.8912277190033
 21
155.0301247440749
 31
0.0
  0
LINE
  5
5AD
330
6F
100
AcDbEntity
  8
ANCHOR
  6
HIDDEN
100
AcDbLine
 10
605.0912277190028
 20
152.9274496094802
 30
0.0
 11
605.591227719003
 21
153.2161247440751
 31
0.0
  0
LINE
  5
5AE
330
6F
100
AcDbEntity
  8
ANCHOR
  6
HIDDEN
100
AcDbLine
 10
605.0912277190032
 20
152.9274496094803
 30
0.0
 11
605.5912277190027
 21
152.6387744748855
 31
0.0
  0
LINE
  5
5AF
330
6F
100
AcDbEntity
  8
ANCHOR
  6
HIDDEN
100
AcDbLine
 10
610.9412277190032
 20
156.5554496094801
 30
0.0
 11
604.5412277190032
 21
154.7414496094799
 31
0.0
  0
LINE
  5
5B0
330
6F
100
AcDbEntity
  8
ANCHOR
  6
HIDDEN
100
AcDbLine
 10
605.5912277190034
 20
154.4601029574274
 30
0.0
 11
610.9412277190032
 21
156.5554496094802
 31
0.0
  0
LINE
  5
5B1
330
6F
100
AcDbEntity
  8
ANCHOR
  6
HIDDEN
100
AcDbLine
 10
609.8912277190028
 20
156.8367962615326
 30
0.0
 11
604.5412277190028
 21
154.74144960948
 31
0.0
  0
LINE
  5
5B2
330
6F
100
AcDbEntity
  8
ANCHOR
  6
HIDDEN
100
AcDbLine
 10
609.891227719003
 20
155.0301247440748
 30
0.0
 11
605.5912277190032
 21
153.216124744075
 31
0.0
  0
LINE
  5
5B3
330
6F
100
AcDbEntity
  8
ANCHOR
  6
HIDDEN
100
AcDbLine
 10
605.0912277190028
 20
152.9274496094799
 30
0.0
 11
610.391227719003
 21
154.7414496094801
 31
0.0
  0
LINE
  5
5B4
330
6F
100
AcDbEntity
  8
ANCHOR
  6
HIDDEN
100
AcDbLine
 10
605.5912277190032
 20
152.6387744748854
 30
0.0
 11
609.8912277190033
 21
154.4527744748853
 31
0.0
  0
LINE
  5
5B5
330
6F
100
AcDbEntity
  8
ANCHOR
  6
HIDDEN
100
AcDbLine
 10
609.8912277190033
 20
153.2087962615464
 30
0.0
 11
609.8912277190033
 21
154.4527744748852
 31
0.0
  0
LINE
  5
5B6
330
6F
100
AcDbEntity
  8
ANCHOR
  6
HIDDEN
100
AcDbLine
 10
609.8912277190033
 20
155.0301247440749
 30
0.0
 11
609.8912277190033
 21
156.1442133506661
 31
0.0
  0
LINE
  5
5B7
330
6F
100
AcDbEntity
  8
ANCHOR
  6
HIDDEN
100
AcDbLine
 10
605.5912277190032
 20
154.4601029574275
 30
0.0
 11
605.5912277190032
 21
153.2161247440751
 31
0.0
  0
LINE
  5
5B8
330
6F
100
AcDbEntity
  8
ANCHOR
  6
HIDDEN
100
AcDbLine
 10
605.5912277190032
 20
152.6387744748853
 30
0.0
 11
605.5912277190032
 21
151.5246858683076
 31
0.0
  0
LINE
  5
5B9
330
6F
100
AcDbEntity
  8
ANCHOR
  6
HIDDEN
100
AcDbLine
 10
605.0912277190032
 20
156.5554496094665
 30
0.0
 11
605.5912277190034
 21
156.8441247440614
 31
0.0
  0
LINE
  5
5BA
330
6F
100
AcDbEntity
  8
ANCHOR
  6
HIDDEN
100
AcDbLine
 10
605.0912277190032
 20
156.5554496094665
 30
0.0
 11
605.5912277190032
 21
156.2667744748717
 31
0.0
  0
LINE
  5
5BB
330
6F
100
AcDbEntity
  8
ANCHOR
  6
HIDDEN
100
AcDbLine
 10
607.7412277190031
 20
159.2764496094666
 30
0.0
 11
604.9512277190032
 21
158.4856589844666
 31
0.0
  0
LINE
  5
5BC
330
6F
100
AcDbEntity
  8
ANCHOR
  6
HIDDEN
100
AcDbLine
 10
609.8912277190033
 20
156.8367962615327
 30
0.0
 11
609.8912277190033
 21
158.0807744748717
 31
0.0
  0
LINE
  5
5BD
330
6F
100
AcDbEntity
  8
ANCHOR
  6
HIDDEN
100
AcDbLine
 10
605.5912277190032
 20
158.3141715013107
 30
0.0
 11
605.5912277190032
 21
156.8441247440614
 31
0.0
  0
LINE
  5
5BE
330
6F
100
AcDbEntity
  8
ANCHOR
  6
HIDDEN
100
AcDbLine
 10
605.5912277190032
 20
156.2667744748718
 30
0.0
 11
605.5912277190032
 21
155.1526858682941
 31
0.0
  0
LINE
  5
5BF
330
6F
100
AcDbEntity
  8
ANCHOR
  6
HIDDEN
100
AcDbLine
 10
610.3912277190028
 20
136.6014496095476
 30
0.0
 11
609.8912277190028
 21
136.3127744749526
 31
0.0
  0
LINE
  5
5C0
330
6F
100
AcDbEntity
  8
ANCHOR
  6
HIDDEN
100
AcDbLine
 10
604.5412277190035
 20
136.6014496095481
 30
0.0
 11
605.5912277190034
 21
136.3201029574954
 31
0.0
  0
LINE
  5
5C1
330
6F
100
AcDbEntity
  8
ANCHOR
  6
HIDDEN
100
AcDbLine
 10
610.9412277190032
 20
138.4154496095479
 30
0.0
 11
609.8912277190033
 21
138.6967962616004
 31
0.0
  0
LINE
  5
5C2
330
6F
100
AcDbEntity
  8
ANCHOR
  6
HIDDEN
100
AcDbLine
 10
610.3912277190032
 20
136.6014496095479
 30
0.0
 11
609.891227719003
 21
136.8901247441427
 31
0.0
  0
LINE
  5
5C3
330
6F
100
AcDbEntity
  8
ANCHOR
  6
HIDDEN
100
AcDbLine
 10
605.0912277190032
 20
134.7874496095475
 30
0.0
 11
605.5912277190032
 21
135.0761247441424
 31
0.0
  0
LINE
  5
5C4
330
6F
100
AcDbEntity
  8
ANCHOR
  6
HIDDEN
100
AcDbLine
 10
605.0912277190028
 20
134.7874496095478
 30
0.0
 11
605.5912277190032
 21
134.4987744749529
 31
0.0
  0
LINE
  5
5C5
330
6F
100
AcDbEntity
  8
ANCHOR
  6
HIDDEN
100
AcDbLine
 10
610.9412277190036
 20
138.4154496095479
 30
0.0
 11
604.5412277190032
 21
136.601449609548
 31
0.0
  0
LINE
  5
5C6
330
6F
100
AcDbEntity
  8
ANCHOR
  6
HIDDEN
100
AcDbLine
 10
605.5912277190034
 20
136.320102957495
 30
0.0
 11
610.9412277190032
 21
138.4154496095476
 31
0.0
  0
LINE
  5
5C7
330
6F
100
AcDbEntity
  8
ANCHOR
  6
HIDDEN
100
AcDbLine
 10
609.8912277190033
 20
138.6967962616003
 30
0.0
 11
604.5412277190031
 21
136.6014496095478
 31
0.0
  0
LINE
  5
5C8
330
6F
100
AcDbEntity
  8
ANCHOR
  6
HIDDEN
100
AcDbLine
 10
609.8912277190028
 20
136.8901247441427
 30
0.0
 11
605.591227719003
 21
135.0761247441427
 31
0.0
  0
LINE
  5
5C9
330
6F
100
AcDbEntity
  8
ANCHOR
  6
HIDDEN
100
AcDbLine
 10
605.0912277190032
 20
134.7874496095477
 30
0.0
 11
610.3912277190032
 21
136.6014496095477
 31
0.0
  0
LINE
  5
5CA
330
6F
100
AcDbEntity
  8
ANCHOR
  6
HIDDEN
100
AcDbLine
 10
605.5912277190027
 20
134.4987744749527
 30
0.0
 11
609.8912277190028
 21
136.3127744749526
 31
0.0
  0
LINE
  5
5CB
330
6F
100
AcDbEntity
  8
ANCHOR
  6
HIDDEN
100
AcDbLine
 10
609.8912277190033
 20
136.8901247441426
 30
0.0
 11
609.8912277190033
 21
138.0042133507338
 31
0.0
  0
LINE
  5
5CC
330
6F
100
AcDbEntity
  8
ANCHOR
  6
HIDDEN
100
AcDbLine
 10
609.8912277190033
 20
138.6967962616002
 30
0.0
 11
609.8912277190033
 21
139.9407744749395
 31
0.0
  0
LINE
  5
5CD
330
6F
100
AcDbEntity
  8
ANCHOR
  6
HIDDEN
100
AcDbLine
 10
605.5912277190032
 20
138.1267744749393
 30
0.0
 11
605.5912277190032
 21
137.012685868362
 31
0.0
  0
LINE
  5
5CE
330
6F
100
AcDbEntity
  8
ANCHOR
  6
HIDDEN
100
AcDbLine
 10
605.5912277190032
 20
136.3201029574952
 30
0.0
 11
605.5912277190032
 21
135.0761247441427
 31
0.0
  0
LINE
  5
5CF
330
6F
100
AcDbEntity
  8
ANCHOR
  6
HIDDEN
100
AcDbLine
 10
610.2912277190032
 20
132.939223194467
 30
0.0
 11
609.8912277190033
 21
132.708283086791
 31
0.0
  0
LINE
  5
5D0
330
6F
100
AcDbEntity
  8
ANCHOR
  6
HIDDEN
100
AcDbLine
 10
604.541227719003
 20
132.9734496095612
 30
0.0
 11
605.5912277190027
 21
132.6921029575085
 31
0.0
  0
LINE
  5
5D1
330
6F
100
AcDbEntity
  8
ANCHOR
  6
HIDDEN
100
AcDbLine
 10
610.9412277190028
 20
134.7874496095614
 30
0.0
 11
609.891227719003
 21
135.068796261614
 31
0.0
  0
LINE
  5
5D2
330
6F
100
AcDbEntity
  8
ANCHOR
  6
HIDDEN
100
AcDbLine
 10
610.2912277190035
 20
132.939223194467
 30
0.0
 11
609.891227719003
 21
133.1701633021434
 31
0.0
  0
LINE
  5
5D3
330
6F
100
AcDbEntity
  8
ANCHOR
  6
HIDDEN
100
AcDbLine
 10
610.9412277190032
 20
134.7874496095618
 30
0.0
 11
604.5412277190032
 21
132.9734496095618
 31
0.0
  0
LINE
  5
5D4
330
6F
100
AcDbEntity
  8
ANCHOR
  6
HIDDEN
100
AcDbLine
 10
605.5912277190032
 20
132.6921029575089
 30
0.0
 11
610.9412277190028
 21
134.7874496095615
 31
0.0
  0
LINE
  5
5D5
330
6F
100
AcDbEntity
  8
ANCHOR
  6
HIDDEN
100
AcDbLine
 10
609.891227719003
 20
135.0687962616141
 30
0.0
 11
604.541227719003
 21
132.9734496095615
 31
0.0
  0
LINE
  5
5D6
330
6F
100
AcDbEntity
  8
ANCHOR
  6
HIDDEN
100
AcDbLine
 10
605.6083721509207
 20
131.3364496094666
 30
0.0
 11
610.2912277190035
 21
132.939223194467
 31
0.0
  0
LINE
  5
5D7
330
6F
100
AcDbEntity
  8
ANCHOR
  6
HIDDEN
100
AcDbLine
 10
609.8912277190033
 20
133.1701633021434
 30
0.0
 11
609.8912277190033
 21
134.3762133507472
 31
0.0
  0
LINE
  5
5D8
330
6F
100
AcDbEntity
  8
ANCHOR
  6
HIDDEN
100
AcDbLine
 10
609.8912277190033
 20
135.068796261614
 30
0.0
 11
609.8912277190033
 21
136.3127744749528
 31
0.0
  0
LINE
  5
5D9
330
6F
100
AcDbEntity
  8
ANCHOR
  6
HIDDEN
100
AcDbLine
 10
605.5912277190032
 20
134.498774474953
 30
0.0
 11
605.5912277190032
 21
133.3846858683754
 31
0.0
  0
LINE
  5
5DA
330
6F
100
AcDbEntity
  8
ANCHOR
  6
HIDDEN
100
AcDbLine
 10
605.591227719003
 20
132.6921029575085
 30
0.0
 11
605.5912277190032
 21
131.3364496094667
 31
0.0
  0
LINE
  5
5DB
330
6F
100
AcDbEntity
  8
ANCHOR
  6
HIDDEN
100
AcDbLine
 10
609.8912277190033
 20
131.3364496094668
 30
0.0
 11
609.8912277190033
 21
132.7082830867911
 31
0.0
  0
LINE
  5
5DC
330
6F
100
AcDbEntity
  8
ANCHOR
  6
HIDDEN
100
AcDbLine
 10
609.8912277190028
 20
133.1701633021433
 30
0.0
 11
605.6083721509202
 21
131.3364496094666
 31
0.0
  0
LINE
  5
5DD
330
6F
100
AcDbEntity
  8
ANCHOR
  6
HIDDEN
100
AcDbLine
 10
605.6083721509207
 20
131.3364496094667
 30
0.0
 11
609.8912277190033
 21
132.7082830867911
 31
0.0
  0
LINE
  5
5DE
330
6F
100
AcDbEntity
  8
ANCHOR
  6
HIDDEN
100
AcDbLine
 10
610.3912277190032
 20
158.3694496094667
 30
0.0
 11
609.8912277190033
 21
158.0807744748718
 31
0.0
  0
LINE
  5
5DF
330
6F
100
AcDbEntity
  8
ANCHOR
  6
HIDDEN
100
AcDbLine
 10
610.3912277190032
 20
158.3694496094668
 30
0.0
 11
610.0140585850757
 21
158.5872083104699
 31
0.0
  0
LINE
  5
5E0
330
6F
100
AcDbEntity
  8
ANCHOR
  6
HIDDEN
100
AcDbLine
 10
605.5912277190032
 20
156.2667744748717
 30
0.0
 11
609.891227719003
 21
158.0807744748717
 31
0.0
  0
LINE
  5
5E1
330
6F
100
AcDbEntity
  8
ANCHOR
  6
HIDDEN
100
AcDbLine
 10
610.3912277190033
 20
158.3694496094668
 30
0.0
 11
605.0912277190032
 21
156.5554496094667
 31
0.0
  0
LINE
  5
5E2
330
6F
100
AcDbEntity
  8
ANCHOR
  6
HIDDEN
100
AcDbLine
 10
610.1812277190028
 20
159.2764496094666
 30
0.0
 11
610.0140585850752
 21
158.5872083104695
 31
0.0
  0
LINE
  5
5E3
330
6F
100
AcDbEntity
  8
ANCHOR
  6
HIDDEN
100
AcDbLine
 10
610.0140585850757
 20
158.5872083104695
 30
0.0
 11
605.5912277190032
 21
156.8441247440613
 31
0.0
  0
LINE
  5
5E4
330
6F
100
AcDbEntity
  8
ANCHOR
  6
HIDDEN
100
AcDbLine
 10
605.3012277190031
 20
159.2764496094666
 30
0.0
 11
605.4460249435955
 21
158.6794480887647
 31
0.0
  0
LINE
  5
5E5
330
6F
100
AcDbEntity
  8
ANCHOR
  6
HIDDEN
100
AcDbLine
 10
604.951227719003
 20
158.4856589844668
 30
0.0
 11
605.5912277190032
 21
158.3141715013109
 31
0.0
  0
LINE
  5
5E6
330
6F
100
AcDbEntity
  8
ANCHOR
  6
HIDDEN
100
AcDbLine
 10
605.4460249435956
 20
158.6794480887646
 30
0.0
 11
604.9512277190032
 21
158.4856589844666
 31
0.0
  0
LINE
  5
5E7
330
6F
100
AcDbEntity
  8
ANCHOR
  6
HIDDEN
100
AcDbLine
 10
605.5912277190032
 20
158.3141715013109
 30
0.0
 11
607.7412277190031
 21
159.2764496094666
 31
0.0
  0
LINE
  5
5E8
330
6F
100
AcDbEntity
  8
ANCHOR
  6
HIDDEN
100
AcDbLine
 10
611.2412277190028
 20
160.3364496094664
 30
0.0
 11
610.1812277190031
 21
159.2764496094664
 31
0.0
  0
LINE
  5
5E9
330
6F
100
AcDbEntity
  8
ANCHOR
  6
HIDDEN
100
AcDbLine
 10
604.2412277190031
 20
160.3364496094666
 30
0.0
 11
605.3012277190028
 21
159.2764496094666
 31
0.0
  0
LINE
  5
5EA
330
6F
100
AcDbEntity
  8
ANCHOR
  6
Continuous
100
AcDbLine
 10
614.5912277183184
 20
161.9364496094664
 30
0.0
 11
600.8912277196882
 21
161.9364496094665
 31
0.0
  0
LINE
  5
5EB
330
6F
100
AcDbEntity
  8
ANCHOR
  6
Continuous
100
AcDbLine
 10
614.5912277183182
 20
161.9364496094665
 30
0.0
 11
614.5912277183182
 21
160.3364496096266
 31
0.0
  0
LINE
  5
5EC
330
6F
100
AcDbEntity
  8
ANCHOR
  6
Continuous
100
AcDbLine
 10
614.5912277183184
 20
160.3364496096263
 30
0.0
 11
600.8912277196882
 21
160.3364496096264
 31
0.0
  0
LINE
  5
5ED
330
6F
100
AcDbEntity
  8
ANCHOR
  6
Continuous
100
AcDbLine
 10
600.8912277196882
 20
160.3364496096266
 30
0.0
 11
600.8912277196882
 21
161.9364496094666
 31
0.0
  0
LINE
  5
5EE
330
6F
100
AcDbEntity
  8
ANCHOR
  6
Continuous
100
AcDbLine
 10
603.4912277190032
 20
162.7364496094667
 30
0.0
 11
602.7412277190031
 21
161.9364496094666
 31
0.0
  0
LINE
  5
5EF
330
6F
100
AcDbEntity
  8
ANCHOR
  6
Continuous
100
AcDbLine
 10
611.9912277190032
 20
162.7364496094663
 30
0.0
 11
612.7412277190034
 21
161.9364496094663
 31
0.0
  0
ARC
  5
5F0
330
6F
100
AcDbEntity
  8
LOUVER
  6
Continuous
100
AcDbCircle
 10
607.7412277201057
 20
507.2555691123148
 30
0.0
 40
2.1
100
AcDbArc
 50
171.042328421765
 51
188.9576715807843
  0
ARC
  5
5F1
330
6F
100
AcDbEntity
  8
LOUVER
  6
Continuous
100
AcDbCircle
 10
607.7412277201057
 20
507.2555691123148
 30
0.0
 40
1.8
100
AcDbArc
 50
200.3599951900864
 51
222.7186445082694
  0
ARC
  5
5F2
330
6F
100
AcDbEntity
  8
LOUVER
  6
Continuous
100
AcDbCircle
 10
605.8644008037502
 20
506.9597300918315
 30
0.0
 40
0.2
100
AcDbArc
 50
188.9576715807859
 51
269.9999999998204
  0
ARC
  5
5F3
330
6F
100
AcDbEntity
  8
LOUVER
  6
Continuous
100
AcDbCircle
 10
605.8644008037362
 20
507.5514081327151
 30
0.0
 40
0.2
100
AcDbArc
 50
89.99999999982042
 51
171.0423284217637
  0
ARC
  5
5F4
330
6F
100
AcDbEntity
  8
LOUVER
  6
Continuous
100
AcDbCircle
 10
605.8661774411431
 20
507.9514041871447
 30
0.0
 40
0.2
100
AcDbArc
 50
269.9999999998204
 51
339.6400048124608
  0
ARC
  5
5F5
330
6F
100
AcDbEntity
  8
LOUVER
  6
Continuous
100
AcDbCircle
 10
605.866177441174
 20
506.5597340374019
 30
0.0
 40
0.2
100
AcDbArc
 50
20.35999519009133
 51
89.99999999982028
  0
ARC
  5
5F6
330
6F
100
AcDbEntity
  8
LOUVER
  6
Continuous
100
AcDbCircle
 10
605.9412277199283
 20
505.5934920986478
 30
0.0
 40
0.6500000000000014
100
AcDbArc
 50
222.7186445082704
 51
42.71864450827043
  0
ARC
  5
5F7
330
6F
100
AcDbEntity
  8
LOUVER
  6
Continuous
100
AcDbCircle
 10
607.7412277201057
 20
507.2555691123148
 30
0.0
 40
1.8
100
AcDbArc
 50
110.3599951900866
 51
159.6400048124626
  0
ARC
  5
5F8
330
6F
100
AcDbEntity
  8
LOUVER
  6
Continuous
100
AcDbCircle
 10
607.7412277201057
 20
507.2555691123148
 30
0.0
 40
1.8
100
AcDbArc
 50
317.281355473095
 51
339.6400048124627
  0
ARC
  5
5F9
330
6F
100
AcDbEntity
  8
LOUVER
  6
Continuous
100
AcDbCircle
 10
607.7412277201057
 20
507.2555691123148
 30
0.0
 40
1.8
100
AcDbArc
 50
20.35999519008635
 51
69.64000481246268
  0
ARC
  5
5FA
330
6F
100
AcDbEntity
  8
LOUVER
  6
Continuous
100
AcDbCircle
 10
609.5412277197429
 20
505.5934920980621
 30
0.0
 40
0.6500000000000048
100
AcDbArc
 50
137.2813554730932
 51
317.2813554730932
  0
ARC
  5
5FB
330
6F
100
AcDbEntity
  8
LOUVER
  6
Continuous
100
AcDbCircle
 10
607.7412277201057
 20
507.2555691123148
 30
0.0
 40
3.1
100
AcDbArc
 50
317.2813554730942
 51
21.59674775560783
  0
ARC
  5
5FC
330
6F
100
AcDbEntity
  8
LOUVER
  6
Continuous
100
AcDbCircle
 10
607.7412277201057
 20
507.2555691123148
 30
0.0
 40
3.1
100
AcDbArc
 50
158.4032522443896
 51
222.7186445082701
  0
LINE
  5
5FD
330
6F
100
AcDbEntity
  8
LOUVER
  6
Continuous
100
AcDbLine
 10
605.866177441177
 20
506.7597340374013
 30
0.0
 11
605.8644008037504
 21
506.7597300918312
 31
0.0
  0
LINE
  5
5FE
330
6F
100
AcDbEntity
  8
LOUVER
  6
Continuous
100
AcDbLine
 10
605.8661774411423
 20
507.7514041871443
 30
0.0
 11
605.8644008037365
 21
507.7514081327143
 31
0.0
  0
ARC
  5
5FF
330
6F
100
AcDbEntity
  8
LOUVER
  6
Continuous
100
AcDbCircle
 10
607.7412277201057
 20
507.2555691123157
 30
0.0
 40
2.1
100
AcDbArc
 50
81.042328421765
 51
98.95767158078427
  0
ARC
  5
600
330
6F
100
AcDbEntity
  8
LOUVER
  6
Continuous
100
AcDbCircle
 10
607.4453886996226
 20
509.1323960286713
 30
0.0
 40
0.2
100
AcDbArc
 50
98.95767158078593
 51
179.9999999998205
  0
ARC
  5
601
330
6F
100
AcDbEntity
  8
LOUVER
  6
Continuous
100
AcDbCircle
 10
608.037066740506
 20
509.132396028685
 30
0.0
 40
0.2
100
AcDbArc
 50
359.9999999998204
 51
81.04232842176369
  0
ARC
  5
602
330
6F
100
AcDbEntity
  8
LOUVER
  6
Continuous
100
AcDbCircle
 10
608.4370627949357
 20
509.1306193912774
 30
0.0
 40
0.2
100
AcDbArc
 50
179.9999999998204
 51
249.6400048124609
  0
ARC
  5
603
330
6F
100
AcDbEntity
  8
LOUVER
  6
Continuous
100
AcDbCircle
 10
607.0453926451929
 20
509.1306193912465
 30
0.0
 40
0.2
100
AcDbArc
 50
290.3599951900913
 51
359.9999999998204
  0
LINE
  5
604
330
6F
100
AcDbEntity
  8
LOUVER
  6
Continuous
100
AcDbLine
 10
607.245392645193
 20
509.130619391245
 30
0.0
 11
607.2453886996231
 21
509.1323960286707
 31
0.0
  0
LINE
  5
605
330
6F
100
AcDbEntity
  8
LOUVER
  6
Continuous
100
AcDbLine
 10
608.2370627949351
 20
509.1306193912777
 30
0.0
 11
608.2370667405053
 21
509.1323960286833
 31
0.0
  0
ARC
  5
606
330
6F
100
AcDbEntity
  8
LOUVER
  6
Continuous
100
AcDbCircle
 10
607.7412277201057
 20
507.2555691123148
 30
0.0
 40
2.1
100
AcDbArc
 50
351.042328421765
 51
8.95767158078419
  0
ARC
  5
607
330
6F
100
AcDbEntity
  8
LOUVER
  6
Continuous
100
AcDbCircle
 10
609.6180546364622
 20
507.5514081327987
 30
0.0
 40
0.2
100
AcDbArc
 50
8.957671580785854
 51
89.99999999982028
  0
ARC
  5
608
330
6F
100
AcDbEntity
  8
LOUVER
  6
Continuous
100
AcDbCircle
 10
609.6180546364759
 20
506.9597300919152
 30
0.0
 40
0.2
100
AcDbArc
 50
269.9999999998204
 51
351.0423284217637
  0
ARC
  5
609
330
6F
100
AcDbEntity
  8
LOUVER
  6
Continuous
100
AcDbCircle
 10
609.6162779990682
 20
506.5597340374856
 30
0.0
 40
0.2
100
AcDbArc
 50
89.99999999982042
 51
159.6400048124608
  0
ARC
  5
60A
330
6F
100
AcDbEntity
  8
LOUVER
  6
Continuous
100
AcDbCircle
 10
609.6162779990374
 20
507.9514041872283
 30
0.0
 40
0.2
100
AcDbArc
 50
200.3599951900913
 51
269.9999999998204
  0
LINE
  5
60B
330
6F
100
AcDbEntity
  8
LOUVER
  6
Continuous
100
AcDbLine
 10
609.6162779990367
 20
507.7514041872274
 30
0.0
 11
609.6180546364614
 21
507.7514081327974
 31
0.0
  0
LINE
  5
60C
330
6F
100
AcDbEntity
  8
LOUVER
  6
Continuous
100
AcDbLine
 10
609.616277999069
 20
506.7597340374841
 30
0.0
 11
609.6180546364755
 21
506.7597300919141
 31
0.0
  0
LINE
  5
60D
330
6F
100
AcDbEntity
  8
LOUVER
  6
Continuous
100
AcDbLine
 10
587.7412277201053
 20
510.7555691123151
 30
0.0
 11
627.7412277201054
 21
510.7555691123151
 31
0.0
  0
LINE
  5
60E
330
6F
100
AcDbEntity
  8
LOUVER
  6
Continuous
100
AcDbLine
 10
590.2412277202455
 20
445.5555691122988
 30
0.0
 11
588.9412277201024
 21
445.5555691122988
 31
0.0
  0
LINE
  5
60F
330
6F
100
AcDbEntity
  8
LOUVER
  6
Continuous
100
AcDbLine
 10
589.5412277200478
 20
436.7555691123151
 30
0.0
 11
589.5412277200466
 21
441.7555691120031
 31
0.0
  0
LINE
  5
610
330
6F
100
AcDbEntity
  8
LOUVER
  6
Continuous
100
AcDbLine
 10
589.5412277200502
 20
436.7555691123159
 30
0.0
 11
587.7412277201017
 21
436.7555691123159
 31
0.0
  0
LINE
  5
611
330
6F
100
AcDbEntity
  8
LOUVER
  6
Continuous
100
AcDbLine
 10
588.9412277201017
 20
450.7555691123164
 30
0.0
 11
593.0412277201012
 21
450.7555691123176
 31
0.0
  0
LINE
  5
612
330
6F
100
AcDbEntity
  8
LOUVER
  6
Continuous
100
AcDbLine
 10
593.041227720102
 20
450.7555691123178
 30
0.0
 11
593.041227720102
 21
451.9555691123176
 31
0.0
  0
LINE
  5
613
330
6F
100
AcDbEntity
  8
LOUVER
  6
Continuous
100
AcDbLine
 10
588.9412277201024
 20
451.9555691123161
 30
0.0
 11
593.0412277201018
 21
451.9555691123175
 31
0.0
  0
ARC
  5
614
330
6F
100
AcDbEntity
  8
LOUVER
  6
Continuous
100
AcDbCircle
 10
607.7412277201057
 20
479.7555691123148
 30
0.0
 40
2.1
100
AcDbArc
 50
171.0423284192157
 51
188.9576715782349
  0
ARC
  5
615
330
6F
100
AcDbEntity
  8
LOUVER
  6
Continuous
100
AcDbCircle
 10
607.7412277201057
 20
479.7555691123148
 30
0.0
 40
1.8
100
AcDbArc
 50
137.2813554917305
 51
159.6400048099136
  0
ARC
  5
616
330
6F
100
AcDbEntity
  8
LOUVER
  6
Continuous
100
AcDbCircle
 10
605.8644008037502
 20
480.0514081327977
 30
0.0
 40
0.2
100
AcDbArc
 50
90.00000000017953
 51
171.042328419214
  0
ARC
  5
617
330
6F
100
AcDbEntity
  8
LOUVER
  6
Continuous
100
AcDbCircle
 10
605.8644008037362
 20
479.4597300919153
 30
0.0
 40
0.2
100
AcDbArc
 50
188.9576715782362
 51
270.0000000001795
  0
ARC
  5
618
330
6F
100
AcDbEntity
  8
LOUVER
  6
Continuous
100
AcDbCircle
 10
605.8661774411431
 20
479.0597340374857
 30
0.0
 40
0.2
100
AcDbArc
 50
20.3599951875391
 51
90.00000000017953
  0
ARC
  5
619
330
6F
100
AcDbEntity
  8
LOUVER
  6
Continuous
100
AcDbCircle
 10
605.866177441174
 20
480.4514041872276
 30
0.0
 40
0.2
100
AcDbArc
 50
270.0000000001796
 51
339.6400048099085
  0
ARC
  5
61A
330
6F
100
AcDbEntity
  8
LOUVER
  6
Continuous
100
AcDbCircle
 10
605.9412277199283
 20
481.4176461259825
 30
0.0
 40
0.6500000000000014
100
AcDbArc
 50
317.2813554917294
 51
137.2813554917293
  0
ARC
  5
61B
330
6F
100
AcDbEntity
  8
LOUVER
  6
Continuous
100
AcDbCircle
 10
607.7412277201057
 20
479.7555691123148
 30
0.0
 40
1.8
100
AcDbArc
 50
200.3599951875373
 51
249.6400048099133
  0
ARC
  5
61C
330
6F
100
AcDbEntity
  8
LOUVER
  6
Continuous
100
AcDbCircle
 10
607.7412277201057
 20
479.7555691123148
 30
0.0
 40
1.8
100
AcDbArc
 50
20.35999518753717
 51
42.71864452690496
  0
ARC
  5
61D
330
6F
100
AcDbEntity
  8
LOUVER
  6
Continuous
100
AcDbCircle
 10
607.7412277201057
 20
479.7555691123148
 30
0.0
 40
1.8
100
AcDbArc
 50
290.3599951875372
 51
339.6400048099135
  0
ARC
  5
61E
330
6F
100
AcDbEntity
  8
LOUVER
  6
Continuous
100
AcDbCircle
 10
609.5412277197429
 20
481.4176461265683
 30
0.0
 40
0.6500000000000048
100
AcDbArc
 50
42.71864452690667
 51
222.7186445269066
  0
ARC
  5
61F
330
6F
100
AcDbEntity
  8
LOUVER
  6
Continuous
100
AcDbCircle
 10
607.7412277201057
 20
479.7555691123148
 30
0.0
 40
3.1
100
AcDbArc
 50
338.8315511541686
 51
42.71864452690567
  0
ARC
  5
620
330
6F
100
AcDbEntity
  8
LOUVER
  6
Continuous
100
AcDbCircle
 10
607.7412277201057
 20
479.7555691123148
 30
0.0
 40
3.1
100
AcDbArc
 50
137.28135549173
 51
201.1684488458311
  0
LINE
  5
621
330
6F
100
AcDbEntity
  8
LOUVER
  6
Continuous
100
AcDbLine
 10
605.8661774411752
 20
480.2514041872291
 30
0.0
 11
605.8644008037483
 21
480.2514081327991
 31
0.0
  0
LINE
  5
622
330
6F
100
AcDbEntity
  8
LOUVER
  6
Continuous
100
AcDbLine
 10
605.8661774411429
 20
479.2597340374839
 30
0.0
 11
605.8644008037374
 21
479.259730091914
 31
0.0
  0
ARC
  5
623
330
6F
100
AcDbEntity
  8
LOUVER
  6
Continuous
100
AcDbCircle
 10
607.7412277201057
 20
479.7555691123148
 30
0.0
 40
2.1
100
AcDbArc
 50
261.0423284192156
 51
278.9576715782349
  0
ARC
  5
624
330
6F
100
AcDbEntity
  8
LOUVER
  6
Continuous
100
AcDbCircle
 10
607.4453886996226
 20
477.8787421959582
 30
0.0
 40
0.2
100
AcDbArc
 50
180.0000000001794
 51
261.0423284192139
  0
ARC
  5
625
330
6F
100
AcDbEntity
  8
LOUVER
  6
Continuous
100
AcDbCircle
 10
608.037066740506
 20
477.8787421959455
 30
0.0
 40
0.2
100
AcDbArc
 50
278.9576715782362
 51
0.0000000001796163
  0
ARC
  5
626
330
6F
100
AcDbEntity
  8
LOUVER
  6
Continuous
100
AcDbCircle
 10
608.4370627949357
 20
477.8805188333522
 30
0.0
 40
0.2
100
AcDbArc
 50
110.3599951875391
 51
180.0000000001795
  0
ARC
  5
627
330
6F
100
AcDbEntity
  8
LOUVER
  6
Continuous
100
AcDbCircle
 10
607.0453926451929
 20
477.8805188333831
 30
0.0
 40
0.2
100
AcDbArc
 50
0.000000000179536
 51
69.64000480990852
  0
LINE
  5
628
330
6F
100
AcDbEntity
  8
LOUVER
  6
Continuous
100
AcDbLine
 10
607.2453926451941
 20
477.8805188333841
 30
0.0
 11
607.2453886996241
 21
477.8787421959576
 31
0.0
  0
LINE
  5
629
330
6F
100
AcDbEntity
  8
LOUVER
  6
Continuous
100
AcDbLine
 10
608.2370627949359
 20
477.8805188333522
 30
0.0
 11
608.2370667405059
 21
477.8787421959466
 31
0.0
  0
ARC
  5
62A
330
6F
100
AcDbEntity
  8
LOUVER
  6
Continuous
100
AcDbCircle
 10
607.7412277201057
 20
479.7555691123148
 30
0.0
 40
2.1
100
AcDbArc
 50
351.0423284192156
 51
8.957671578234869
  0
ARC
  5
62B
330
6F
100
AcDbEntity
  8
LOUVER
  6
Continuous
100
AcDbCircle
 10
609.6180546364622
 20
479.4597300918316
 30
0.0
 40
0.2
100
AcDbArc
 50
270.0000000001796
 51
351.042328419214
  0
ARC
  5
62C
330
6F
100
AcDbEntity
  8
LOUVER
  6
Continuous
100
AcDbCircle
 10
609.6180546364759
 20
480.0514081327151
 30
0.0
 40
0.2
100
AcDbArc
 50
8.957671578236167
 51
90.00000000017953
  0
ARC
  5
62D
330
6F
100
AcDbEntity
  8
LOUVER
  6
Continuous
100
AcDbCircle
 10
609.6162779990682
 20
480.4514041871446
 30
0.0
 40
0.2
100
AcDbArc
 50
200.3599951875391
 51
270.0000000001795
  0
ARC
  5
62E
330
6F
100
AcDbEntity
  8
LOUVER
  6
Continuous
100
AcDbCircle
 10
609.6162779990374
 20
479.0597340374018
 30
0.0
 40
0.2
100
AcDbArc
 50
90.00000000017953
 51
159.6400048099086
  0
LINE
  5
62F
330
6F
100
AcDbEntity
  8
LOUVER
  6
Continuous
100
AcDbLine
 10
609.6162779990372
 20
479.2597340374022
 30
0.0
 11
609.6180546364628
 21
479.2597300918322
 31
0.0
  0
LINE
  5
630
330
6F
100
AcDbEntity
  8
LOUVER
  6
Continuous
100
AcDbLine
 10
609.6162779990687
 20
480.2514041871443
 30
0.0
 11
609.6180546364752
 21
480.2514081327144
 31
0.0
  0
LINE
  5
631
330
6F
100
AcDbEntity
  8
LOUVER
  6
Continuous
100
AcDbLine
 10
611.0983097864243
 20
477.9555691123158
 30
0.0
 11
626.5412277201402
 21
477.9555691123158
 31
0.0
  0
LINE
  5
632
330
6F
100
AcDbEntity
  8
LOUVER
  6
Continuous
100
AcDbLine
 10
587.7412277201056
 20
510.755569112315
 30
0.0
 11
587.7412277201021
 21
436.7555691123138
 31
0.0
  0
LINE
  5
633
330
6F
100
AcDbEntity
  8
LOUVER
  6
Continuous
100
AcDbLine
 10
588.9412277201033
 20
477.9555691123148
 30
0.0
 11
604.3841456537863
 21
477.9555691123148
 31
0.0
  0
LINE
  5
634
330
6F
100
AcDbEntity
  8
LOUVER
  6
Continuous
100
AcDbLine
 10
588.9412277201028
 20
476.7555691123146
 30
0.0
 11
626.5412277201387
 21
476.7555691123146
 31
0.0
  0
LINE
  5
635
330
6F
100
AcDbEntity
  8
LOUVER
  6
Continuous
100
AcDbLine
 10
625.2412277199709
 20
445.5555691122858
 30
0.0
 11
626.5412277201094
 21
445.5555691122837
 31
0.0
  0
LINE
  5
636
330
6F
100
AcDbEntity
  8
LOUVER
  6
Continuous
100
AcDbLine
 10
625.9412277201546
 20
436.755569112301
 30
0.0
 11
625.9412277201573
 21
441.7555691119895
 31
0.0
  0
LINE
  5
637
330
6F
100
AcDbEntity
  8
LOUVER
  6
Continuous
100
AcDbLine
 10
625.9412277201529
 20
436.7555691123012
 30
0.0
 11
627.7412277201013
 21
436.7555691122982
 31
0.0
  0
LINE
  5
638
330
6F
100
AcDbEntity
  8
LOUVER
  6
Continuous
100
AcDbLine
 10
626.5412277201147
 20
450.755569112301
 30
0.0
 11
622.4412277201244
 21
450.7555691123092
 31
0.0
  0
LINE
  5
639
330
6F
100
AcDbEntity
  8
LOUVER
  6
Continuous
100
AcDbLine
 10
622.4412277201241
 20
450.755569112309
 30
0.0
 11
622.4412277201261
 21
451.9555691123088
 31
0.0
  0
ARC
  5
63A
330
6F
100
AcDbEntity
  8
LOUVER
  6
Continuous
100
AcDbCircle
 10
625.2412277199709
 20
445.3555691122861
 30
0.0
 40
0.2
100
AcDbArc
 50
90.0
 51
194.1296704973614
  0
LINE
  5
63B
330
6F
100
AcDbEntity
  8
LOUVER
  6
Continuous
100
AcDbLine
 10
626.5412277201151
 20
451.9555691123009
 30
0.0
 11
622.4412277201267
 21
451.9555691123093
 31
0.0
  0
LINE
  5
63C
330
6F
100
AcDbEntity
  8
LOUVER
  6
Continuous
100
AcDbLine
 10
627.7412277201968
 20
510.7555691123021
 30
0.0
 11
627.7412277201013
 21
436.7555691122985
 31
0.0
  0
ARC
  5
63D
330
6F
100
AcDbEntity
  8
LOUVER
  6
Continuous
100
AcDbCircle
 10
604.3841456537867
 20
478.4555691123155
 30
0.0
 40
0.5
100
AcDbArc
 50
270.0
 51
21.16844884583121
  0
ARC
  5
63E
330
6F
100
AcDbEntity
  8
LOUVER
  6
Continuous
100
AcDbCircle
 10
611.0983097864247
 20
478.4555691123155
 30
0.0
 40
0.5
100
AcDbArc
 50
158.8315511541688
 51
270.0
  0
LINE
  5
63F
330
6F
100
AcDbEntity
  8
LOUVER
  6
Continuous
100
AcDbLine
 10
588.9412277201061
 20
509.5555691123153
 30
0.0
 11
588.9412277201041
 21
477.9555691123149
 31
0.0
  0
LINE
  5
640
330
6F
100
AcDbEntity
  8
LOUVER
  6
Continuous
100
AcDbLine
 10
626.5412277201952
 20
509.5555691123156
 30
0.0
 11
626.5412277201406
 21
477.9555691123152
 31
0.0
  0
LINE
  5
641
330
6F
100
AcDbEntity
  8
LOUVER
  6
Continuous
100
AcDbLine
 10
588.9412277201047
 20
476.7555691123151
 30
0.0
 11
588.9412277201039
 21
451.9555691123155
 31
0.0
  0
LINE
  5
642
330
6F
100
AcDbEntity
  8
LOUVER
  6
Continuous
100
AcDbLine
 10
588.9412277201039
 20
450.7555691123148
 30
0.0
 11
588.9412277201037
 21
445.5555691122977
 31
0.0
  0
LINE
  5
643
330
6F
100
AcDbEntity
  8
LOUVER
  6
Continuous
100
AcDbLine
 10
626.54122772014
 20
476.7555691123162
 30
0.0
 11
626.5412277201161
 21
451.9555691123014
 31
0.0
  0
LINE
  5
644
330
6F
100
AcDbEntity
  8
LOUVER
  6
Continuous
100
AcDbLine
 10
626.541227720115
 20
450.7555691123012
 30
0.0
 11
626.5412277201098
 21
445.5555691122841
 31
0.0
  0
ARC
  5
645
330
6F
100
AcDbEntity
  8
LOUVER
  6
Continuous
100
AcDbCircle
 10
590.2412277202301
 20
445.3555691122842
 30
0.0
 40
0.2
100
AcDbArc
 50
345.8703295026307
 51
90.0
  0
LINE
  5
646
330
6F
100
AcDbEntity
  8
LOUVER
  6
Continuous
100
AcDbLine
 10
590.4351768661768
 20
445.3067456672336
 30
0.0
 11
589.541227720047
 21
441.7555691120033
 31
0.0
  0
LINE
  5
647
330
6F
100
AcDbEntity
  8
LOUVER
  6
Continuous
100
AcDbLine
 10
625.9412277201586
 20
441.7555691119898
 30
0.0
 11
625.0472785740257
 21
445.3067456672354
 31
0.0
  0
LINE
  5
648
330
6F
100
AcDbEntity
  8
LOUVER
  6
Continuous
100
AcDbLine
 10
604.4093098411602
 20
509.080391744449
 30
0.0
 11
588.9412277201063
 21
509.5555691123145
 31
0.0
  0
LINE
  5
649
330
6F
100
AcDbEntity
  8
LOUVER
  6
Continuous
100
AcDbLine
 10
626.5412277201958
 20
509.5555691123144
 30
0.0
 11
611.0731455990527
 21
509.0803917444487
 31
0.0
  0
ARC
  5
64A
330
6F
100
AcDbEntity
  8
LOUVER
  6
Continuous
100
AcDbCircle
 10
611.0884982881543
 20
508.5806275050948
 30
0.0
 40
0.5
100
AcDbArc
 50
91.75956514561034
 51
201.5967477556075
  0
ARC
  5
64B
330
6F
100
AcDbEntity
  8
LOUVER
  6
Continuous
100
AcDbCircle
 10
604.3939571520569
 20
508.5806275050948
 30
0.0
 40
0.5
100
AcDbArc
 50
338.4032522443904
 51
88.24043485437984
  0
LINE
  5
64C
330
6F
100
AcDbEntity
  8
LOUVER
  6
CENTER
100
AcDbLine
 10
601.8015886551209
 20
445.7555691122847
 30
0.0
 11
583.352625794548
 21
445.7555691123062
 31
0.0
  0
LINE
  5
64D
330
6F
100
AcDbEntity
  8
ANCHOR
  6
HIDDEN
100
AcDbLine
 10
597.2412277204909
 20
447.7555691124107
 30
0.0
 11
587.7412277191621
 21
447.7555691124512
 31
0.0
  0
LINE
  5
64E
330
6F
100
AcDbEntity
  8
ANCHOR
  6
HIDDEN
100
AcDbLine
 10
597.241227721046
 20
443.7555691124109
 30
0.0
 11
587.7412277191465
 21
443.7555691124511
 31
0.0
  0
LINE
  5
64F
330
6F
100
AcDbEntity
  8
ANCHOR
  6
HIDDEN
100
AcDbLine
 10
600.1638774512564
 20
446.7555691124194
 30
0.0
 11
598.2412277205019
 21
446.7555691124154
 31
0.0
  0
LINE
  5
650
330
6F
100
AcDbEntity
  8
ANCHOR
  6
HIDDEN
100
AcDbLine
 10
600.1638774514524
 20
444.7555691124192
 30
0.0
 11
598.2412277210397
 21
444.7555691124153
 31
0.0
  0
LINE
  5
651
330
6F
100
AcDbEntity
  8
ANCHOR
  6
HIDDEN
100
AcDbLine
 10
600.7412277205437
 20
445.7555691122589
 30
0.0
 11
600.1638774512562
 21
446.7555691124196
 31
0.0
  0
LINE
  5
652
330
6F
100
AcDbEntity
  8
ANCHOR
  6
HIDDEN
100
AcDbLine
 10
600.163877451453
 20
444.7555691124206
 30
0.0
 11
600.7412277205447
 21
445.7555691122595
 31
0.0
  0
ARC
  5
653
330
6F
100
AcDbEntity
  8
ANCHOR
  6
HIDDEN
100
AcDbCircle
 10
598.741227721049
 20
445.7555691124176
 30
0.0
 40
0.5
100
AcDbArc
 50
97.20679386168658
 51
262.7932061387912
  0
LINE
  5
654
330
6F
100
AcDbEntity
  8
ANCHOR
  6
HIDDEN
100
AcDbLine
 10
598.6785022845837
 20
445.2595191959563
 30
0.0
 11
600.1638774514518
 21
444.7555691124185
 31
0.0
  0
LINE
  5
655
330
6F
100
AcDbEntity
  8
ANCHOR
  6
HIDDEN
100
AcDbLine
 10
598.6785022845809
 20
446.2516190288777
 30
0.0
 11
600.1638774512566
 21
446.7555691124196
 31
0.0
  0
LINE
  5
656
330
6F
100
AcDbEntity
  8
ANCHOR
  6
HIDDEN
100
AcDbLine
 10
598.2412277205
 20
446.7555691124148
 30
0.0
 11
597.2412277204905
 21
447.7555691124122
 31
0.0
  0
LINE
  5
657
330
6F
100
AcDbEntity
  8
ANCHOR
  6
HIDDEN
100
AcDbLine
 10
597.2412277210462
 20
443.7555691124143
 30
0.0
 11
598.2412277210388
 21
444.7555691124143
 31
0.0
  0
LINE
  5
658
330
6F
100
AcDbEntity
  8
ANCHOR
  6
HIDDEN
100
AcDbLine
 10
597.2412277207777
 20
443.755569112413
 30
0.0
 11
597.2412277207628
 21
447.755569112413
 31
0.0
  0
LINE
  5
659
330
6F
100
AcDbEntity
  8
ANCHOR
  6
HIDDEN
100
AcDbLine
 10
598.2412277205432
 20
444.7555691124131
 30
0.0
 11
598.2412277205337
 21
446.7555691124131
 31
0.0
  0
LINE
  5
65A
330
6F
100
AcDbEntity
  8
ANCHOR
  6
HIDDEN
100
AcDbLine
 10
598.0412277210415
 20
444.5555691124134
 30
0.0
 11
587.7412277191508
 21
444.5555691124545
 31
0.0
  0
LINE
  5
65B
330
6F
100
AcDbEntity
  8
ANCHOR
  6
HIDDEN
100
AcDbLine
 10
598.0412277205004
 20
446.955569112413
 30
0.0
 11
587.7412277191601
 21
446.9555691124542
 31
0.0
  0
LINE
  5
65C
330
6F
100
AcDbEntity
  8
ANCHOR
  6
Continuous
100
AcDbLine
 10
585.7189171380126
 20
446.2537673600435
 30
0.0
 11
585.7189171380131
 21
445.2573708645613
 31
0.0
  0
LINE
  5
65D
330
6F
100
AcDbEntity
  8
ANCHOR
  6
Continuous
100
AcDbLine
 10
585.7189171380126
 20
446.2537673600437
 30
0.0
 11
585.2412277193382
 21
446.2537673600437
 31
0.0
  0
LINE
  5
65E
330
6F
100
AcDbEntity
  8
ANCHOR
  6
Continuous
100
AcDbLine
 10
585.718917138013
 20
445.2573708645616
 30
0.0
 11
585.2412277193387
 21
445.2573708645616
 31
0.0
  0
LINE
  5
65F
330
6F
100
AcDbEntity
  8
ANCHOR
  6
Continuous
100
AcDbLine
 10
587.241227719355
 20
441.0555691123003
 30
0.0
 11
587.741227719355
 21
441.0555691123009
 31
0.0
  0
ARC
  5
660
330
6F
100
AcDbEntity
  8
ANCHOR
  6
Continuous
100
AcDbCircle
 10
591.3326931136611
 20
445.5799376789852
 30
0.0
 40
6.099999999999998
100
AcDbArc
 50
183.0312034848472
 51
227.876411461438
  0
LINE
  5
661
330
6F
100
AcDbEntity
  8
ANCHOR
  6
Continuous
100
AcDbLine
 10
587.2412277193212
 20
450.4555691123025
 30
0.0
 11
587.2412277193558
 21
441.0555691123009
 31
0.0
  0
ARC
  5
662
330
6F
100
AcDbEntity
  8
ANCHOR
  6
Continuous
100
AcDbCircle
 10
591.3326931136611
 20
445.9312005456228
 30
0.0
 40
6.099999999999998
100
AcDbArc
 50
132.1235885386251
 51
176.9687965152159
  0
LINE
  5
663
330
6F
100
AcDbEntity
  8
ANCHOR
  6
Continuous
100
AcDbLine
 10
587.7412277193217
 20
450.4555691123038
 30
0.0
 11
587.7412277193561
 21
441.0555691123024
 31
0.0
  0
LINE
  5
664
330
6F
100
AcDbEntity
  8
ANCHOR
  6
Continuous
100
AcDbLine
 10
587.2412277193507
 20
450.455569112302
 30
0.0
 11
587.7412277193506
 21
450.4555691123025
 31
0.0
  0
LINE
  5
665
330
6F
100
AcDbEntity
  8
UKEZAI
  6
Continuous
100
AcDbLine
 10
624.4412277201014
 20
438.7555691123014
 30
0.0
 11
624.4412277201014
 21
445.7555691123014
 31
0.0
  0
LINE
  5
666
330
6F
100
AcDbEntity
  8
UKEZAI
  6
Continuous
100
AcDbLine
 10
625.9412277201533
 20
435.755569112301
 30
0.0
 11
625.9412277201554
 21
437.7555691120143
 31
0.0
  0
LINE
  5
667
330
6F
100
AcDbEntity
  8
UKEZAI
  6
Continuous
100
AcDbLine
 10
622.9412277201014
 20
437.2555691123014
 30
0.0
 11
622.9412277201014
 21
450.0055691123014
 31
0.0
  0
LINE
  5
668
330
6F
100
AcDbEntity
  8
UKEZAI
  6
Continuous
100
AcDbLine
 10
624.4412277201014
 20
445.7555691122557
 30
0.0
 11
625.7412277193703
 21
445.7555691122567
 31
0.0
  0
LINE
  5
669
330
6F
100
AcDbEntity
  8
UKEZAI
  6
Continuous
100
AcDbLine
 10
624.4412277201014
 20
438.7555691123014
 30
0.0
 11
625.7412277201567
 21
438.7555691123014
 31
0.0
  0
LINE
  5
66A
330
6F
100
AcDbEntity
  8
UKEZAI
  6
Continuous
100
AcDbLine
 10
591.0412277201015
 20
438.7555691123014
 30
0.0
 11
591.0412277201015
 21
445.7555691123014
 31
0.0
  0
LINE
  5
66B
330
6F
100
AcDbEntity
  8
UKEZAI
  6
Continuous
100
AcDbLine
 10
589.5412277200493
 20
435.7555691123013
 30
0.0
 11
589.5412277200472
 21
437.7555691120114
 31
0.0
  0
LINE
  5
66C
330
6F
100
AcDbEntity
  8
UKEZAI
  6
Continuous
100
AcDbLine
 10
592.5412277201014
 20
437.2555691123014
 30
0.0
 11
592.5412277201014
 21
450.0055691123014
 31
0.0
  0
ARC
  5
66D
330
6F
100
AcDbEntity
  8
UKEZAI
  6
Continuous
100
AcDbCircle
 10
591.7912277201016
 20
450.0055691123014
 30
0.0
 40
0.75
100
AcDbArc
 50
0.0
 51
160.1120357041571
  0
LINE
  5
66E
330
6F
100
AcDbEntity
  8
UKEZAI
  6
Continuous
100
AcDbLine
 10
591.0412277201012
 20
445.755569112256
 30
0.0
 11
589.7412277208322
 21
445.7555691122569
 31
0.0
  0
LINE
  5
66F
330
6F
100
AcDbEntity
  8
UKEZAI
  6
Continuous
100
AcDbLine
 10
591.0412277201015
 20
438.7555691123014
 30
0.0
 11
589.7412277200462
 21
438.7555691123014
 31
0.0
  0
LINE
  5
670
330
6F
100
AcDbEntity
  8
UKEZAI
  6
Continuous
100
AcDbLine
 10
589.5412277200502
 20
435.7555691123014
 30
0.0
 11
625.9412277201533
 21
435.7555691123014
 31
0.0
  0
ARC
  5
671
330
6F
100
AcDbEntity
  8
UKEZAI
  6
Continuous
100
AcDbCircle
 10
607.7412277201013
 20
437.2555691123014
 30
0.0
 40
0.3
100
AcDbArc
 50
180.0
 51
0.0
  0
ARC
  5
672
330
6F
100
AcDbEntity
  8
UKEZAI
  6
Continuous
100
AcDbCircle
 10
623.6912277201014
 20
450.0055691123014
 30
0.0
 40
0.75
100
AcDbArc
 50
19.8879642958426
 51
180.0
  0
LINE
  5
673
330
6F
100
AcDbEntity
  8
UKEZAI
  6
Continuous
100
AcDbLine
 10
625.9412277201552
 20
437.7555691120143
 30
0.0
 11
625.7412277201563
 21
438.7555691123012
 31
0.0
  0
LINE
  5
674
330
6F
100
AcDbEntity
  8
UKEZAI
  6
Continuous
100
AcDbLine
 10
589.5412277200476
 20
437.7555691120141
 30
0.0
 11
589.7412277200462
 21
438.7555691123012
 31
0.0
  0
ARC
  5
675
330
6F
100
AcDbEntity
  8
UKEZAI
  6
Continuous
100
AcDbCircle
 10
589.7412277208326
 20
445.955569112257
 30
0.0
 40
0.2
100
AcDbArc
 50
160.1120357041559
 51
270.0
  0
LINE
  5
676
330
6F
100
AcDbEntity
  8
UKEZAI
  6
Continuous
100
AcDbLine
 10
589.5531557993725
 20
446.023605516912
 30
0.0
 11
591.0859580146263
 21
450.2607056297572
 31
0.0
  0
ARC
  5
677
330
6F
100
AcDbEntity
  8
UKEZAI
  6
Continuous
100
AcDbCircle
 10
625.7412277193703
 20
445.955569112257
 30
0.0
 40
0.2
100
AcDbArc
 50
270.0
 51
19.88796429584412
  0
LINE
  5
678
330
6F
100
AcDbEntity
  8
UKEZAI
  6
Continuous
100
AcDbLine
 10
625.9292996408301
 20
446.0236055169118
 30
0.0
 11
624.3964974255764
 21
450.2607056297572
 31
0.0
  0
ARC
  5
679
330
6F
100
AcDbEntity
  8
UKEZAI
  6
Continuous
100
AcDbCircle
 10
609.7412277201014
 20
437.2555691123014
 30
0.0
 40
0.3
100
AcDbArc
 50
0.0
 51
180.0
  0
LINE
  5
67A
330
6F
100
AcDbEntity
  8
UKEZAI
  6
Continuous
100
AcDbLine
 10
608.0412277201014
 20
437.2555691123014
 30
0.0
 11
609.4412277201017
 21
437.2555691123014
 31
0.0
  0
LINE
  5
67B
330
6F
100
AcDbEntity
  8
UKEZAI
  6
Continuous
100
AcDbLine
 10
610.0412277201016
 20
437.2555691123014
 30
0.0
 11
622.9412277201014
 21
437.2555691123014
 31
0.0
  0
ARC
  5
67C
330
6F
100
AcDbEntity
  8
UKEZAI
  6
Continuous
100
AcDbCircle
 10
605.7412277201014
 20
437.2555691123014
 30
0.0
 40
0.3
100
AcDbArc
 50
0.0
 51
180.0
  0
LINE
  5
67D
330
6F
100
AcDbEntity
  8
UKEZAI
  6
Continuous
100
AcDbLine
 10
592.5412277201014
 20
437.2555691123014
 30
0.0
 11
605.4412277201017
 21
437.2555691123014
 31
0.0
  0
LINE
  5
67E
330
6F
100
AcDbEntity
  8
UKEZAI
  6
Continuous
100
AcDbLine
 10
606.0412277201016
 20
437.2555691123014
 30
0.0
 11
607.4412277201018
 21
437.2555691123014
 31
0.0
  0
ENDSEC
  0
SECTION
  2
OBJECTS
  0
DICTIONARY
  5
C
330
0
100
AcDbDictionary
281
     1
  3
ACAD_CIP_PREVIOUS_PRODUCT_INFO
350
682
  3
ACAD_COLOR
350
62
  3
ACAD_DETAILVIEWSTYLE
350
69
  3
ACAD_GROUP
350
D
  3
ACAD_LAYOUT
350
61
  3
ACAD_MATERIAL
350
10
  3
ACAD_MLEADERSTYLE
350
65
  3
ACAD_MLINESTYLE
350
5E
  3
ACAD_PLOTSETTINGS
350
60
  3
ACAD_PLOTSTYLENAME
350
E
  3
ACAD_SCALELIST
350
42
  3
ACAD_SECTIONVIEWSTYLE
350
67
  3
ACAD_TABLESTYLE
350
63
  3
ACAD_VISUALSTYLE
350
29
  3
ACDB_RECOMPOSE_DATA
350
778
  3
AcDbVariableDictionary
350
695
  0
DICTIONARY
  5
685
330
54
100
AcDbDictionary
280
     1
281
     1
  3
ADSK_XREC_LAYER_RECONCILED
360
686
  0
DICTIONARY
  5
687
330
75
100
AcDbDictionary
280
     1
281
     1
  3
ADSK_XREC_LAYER_RECONCILED
360
688
  0
DICTIONARY
  5
689
330
76
100
AcDbDictionary
280
     1
281
     1
  3
ADSK_XREC_LAYER_RECONCILED
360
68A
  0
DICTIONARY
  5
68B
330
77
100
AcDbDictionary
280
     1
281
     1
  3
ADSK_XREC_LAYER_RECONCILED
360
68C
  0
DICTIONARY
  5
68D
330
78
100
AcDbDictionary
280
     1
281
     1
  3
ADSK_XREC_LAYER_RECONCILED
360
68E
  0
DICTIONARY
  5
68F
330
79
100
AcDbDictionary
280
     1
281
     1
  3
ADSK_XREC_LAYER_RECONCILED
360
690
  0
DICTIONARY
  5
691
330
7A
100
AcDbDictionary
280
     1
281
     1
  3
ADSK_XREC_LAYER_RECONCILED
360
692
  0
DICTIONARY
  5
693
330
7B
100
AcDbDictionary
280
     1
281
     1
  3
ADSK_XREC_LAYER_RECONCILED
360
694
  0
DICTIONARY
  5
72C
330
B8
100
AcDbDictionary
280
     1
281
     1
  0
DICTIONARY
  5
75F
330
CA
100
AcDbDictionary
280
     1
281
     1
  0
DICTIONARY
  5
712
330
FD
100
AcDbDictionary
280
     1
281
     1
  0
DICTIONARY
  5
746
330
107
100
AcDbDictionary
280
     1
281
     1
  0
DICTIONARY
  5
6F5
330
111
100
AcDbDictionary
280
     1
281
     1
  0
XRECORD
  5
682
102
{ACAD_REACTORS
330
C
102
}
330
C
100
AcDbXrecord
280
     1
300
ACD
300
2022
300

  0
DICTIONARY
  5
62
102
{ACAD_REACTORS
330
C
102
}
330
C
100
AcDbDictionary
281
     1
  0
DICTIONARY
  5
69
102
{ACAD_REACTORS
330
C
102
}
330
C
100
AcDbDictionary
281
     1
  3
Imperial24
350
6A
  3
Metric50
350
680
  0
DICTIONARY
  5
D
102
{ACAD_REACTORS
330
C
102
}
330
C
100
AcDbDictionary
281
     1
  0
DICTIONARY
  5
61
102
{ACAD_REACTORS
330
C
102
}
330
C
100
AcDbDictionary
281
     1
  3
Model
350
72
  3
レイアウト1
350
6E
  0
DICTIONARY
  5
10
102
{ACAD_REACTORS
330
C
102
}
330
C
100
AcDbDictionary
281
     1
  3
ByBlock
350
19
  3
ByLayer
350
11
  3
Global
350
21
  0
DICTIONARY
  5
65
102
{ACAD_REACTORS
330
C
102
}
330
C
100
AcDbDictionary
281
     1
  3
Standard
350
66
  0
DICTIONARY
  5
5E
102
{ACAD_REACTORS
330
C
102
}
330
C
100
AcDbDictionary
281
     1
  3
Standard
350
5F
  0
DICTIONARY
  5
60
102
{ACAD_REACTORS
330
C
102
}
330
C
100
AcDbDictionary
281
     1
  0
ACDBDICTIONARYWDFLT
  5
E
102
{ACAD_REACTORS
330
C
102
}
330
C
100
AcDbDictionary
281
     1
  3
Normal
350
F
100
AcDbDictionaryWithDefault
340
F
  0
DICTIONARY
  5
42
102
{ACAD_REACTORS
330
C
102
}
330
C
100
AcDbDictionary
281
     1
  3
A0
350
43
  3
A1
350
44
  3
A2
350
45
  3
A3
350
46
  3
A4
350
47
  3
A5
350
48
  3
A6
350
49
  3
A7
350
4A
  3
A8
350
4B
  3
A9
350
4C
  3
B0
350
4D
  3
B1
350
4E
  3
B2
350
4F
  3
B3
350
50
  3
B4
350
51
  3
B5
350
52
  3
B6
350
53
  0
DICTIONARY
  5
67
102
{ACAD_REACTORS
330
C
102
}
330
C
100
AcDbDictionary
281
     1
  3
Imperial24
350
68
  3
Metric50
350
67F
  0
DICTIONARY
  5
63
102
{ACAD_REACTORS
330
C
102
}
330
C
100
AcDbDictionary
281
     1
  3
Standard
350
64
  0
DICTIONARY
  5
29
102
{ACAD_REACTORS
330
C
102
}
330
C
100
AcDbDictionary
281
     1
  3
2dWireframe
350
2F
  3
Basic
350
2E
  3
Brighten
350
35
  3
ColorChange
350
39
  3
Conceptual
350
32
  3
Dim
350
34
  3
EdgeColorOff
350
41
  3
Facepattern
350
38
  3
Flat
350
2A
  3
FlatWithEdges
350
2B
  3
Gouraud
350
2C
  3
GouraudWithEdges
350
2D
  3
Hidden
350
31
  3
JitterOff
350
3F
  3
Linepattern
350
37
  3
OverhangOff
350
40
  3
Realistic
350
33
  3
Shaded
350
3E
  3
Shaded with edges
350
3D
  3
Shades of Gray
350
3A
  3
Sketchy
350
3B
  3
Thicken
350
36
  3
Wireframe
350
30
  3
X-Ray
350
3C
  0
XRECORD
  5
778
102
{ACAD_REACTORS
330
C
102
}
330
C
100
AcDbXrecord
280
     1
 90
        1
330
64
  0
DICTIONARY
  5
695
102
{ACAD_REACTORS
330
C
102
}
330
C
100
AcDbDictionary
281
     1
  3
CANNOSCALE
350
69A
  3
CMLEADERSTYLE
350
697
  3
CTABLESTYLE
350
696
  3
CVIEWDETAILSTYLE
350
698
  3
CVIEWSECTIONSTYLE
350
699
  3
DIMASSOC
350
69D
  3
INDEXCTL
350
69C
  3
LAYEREVAL
350
775
  3
LAYERNOTIFY
350
776
  3
LIGHTINGUNITS
350
774
  3
MSLTSCALE
350
773
  3
SORTENTS
350
69B
  0
XRECORD
  5
686
102
{ACAD_REACTORS
330
685
102
}
330
685
100
AcDbXrecord
280
     1
290
     1
  0
XRECORD
  5
688
102
{ACAD_REACTORS
330
687
102
}
330
687
100
AcDbXrecord
280
     1
290
     1
  0
XRECORD
  5
68A
102
{ACAD_REACTORS
330
689
102
}
330
689
100
AcDbXrecord
280
     1
290
     1
  0
XRECORD
  5
68C
102
{ACAD_REACTORS
330
68B
102
}
330
68B
100
AcDbXrecord
280
     1
290
     1
  0
XRECORD
  5
68E
102
{ACAD_REACTORS
330
68D
102
}
330
68D
100
AcDbXrecord
280
     1
290
     1
  0
XRECORD
  5
690
102
{ACAD_REACTORS
330
68F
102
}
330
68F
100
AcDbXrecord
280
     1
290
     1
  0
XRECORD
  5
692
102
{ACAD_REACTORS
330
691
102
}
330
691
100
AcDbXrecord
280
     1
290
     1
  0
XRECORD
  5
694
102
{ACAD_REACTORS
330
693
102
}
330
693
100
AcDbXrecord
280
     1
290
     1
  0
ACDBDETAILVIEWSTYLE
  5
6A
102
{ACAD_REACTORS
330
69
102
}
330
69
100
AcDbModelDocViewStyle
 70
     0
  3
Imperial24
290
     0
300
Imperial24
 90
        0
100
AcDbDetailViewStyle
 70
     0
 71
     0
 90
        3
 71
     1
340
55
 62
   256
 40
0.24
340
0
 62
   256
 40
0.24
300

 40
0.36
280
     3
 71
     2
340
5C
 90
       25
 62
   256
 71
     3
340
55
 62
   256
 40
0.24
 90
        1
 40
0.75
 90
        1
300
%<\AcVar ViewType \f "%tc1">% %<\AcVar ViewDetailId>%\PSCALE %<\AcVar ViewScale \f "%sn">%
 71
     4
340
5C
 90
       25
 62
   256
340
5C
 90
       25
 62
   256
280
     0
  0
ACDBDETAILVIEWSTYLE
  5
680
102
{ACAD_REACTORS
330
69
102
}
330
69
100
AcDbModelDocViewStyle
 70
     0
  3
Metric50
290
     0
300
Metric50
 90
        0
100
AcDbDetailViewStyle
 70
     0
 71
     0
 90
        3
 71
     1
340
55
 62
   256
 40
5.0
340
0
 62
   256
 40
5.0
300

 40
0.0
280
     1
 71
     2
340
5C
 90
       25
 62
   256
 71
     3
340
55
 62
   256
 40
5.0
 90
        0
 40
15.0
 90
        1
300
%<\AcVar ViewDetailId>% (%<\AcVar ViewScale \f "%sn">%)
 71
     4
340
5C
 90
       25
 62
   256
340
5C
 90
       25
 62
   256
280
     0
  0
LAYOUT
  5
72
102
{ACAD_REACTORS
330
61
102
}
330
61
100
AcDbPlotSettings
  1

  2
OKI B821
  4

  6

 40
0.0
 41
0.0
 42
0.0
 43
0.0
 44
0.0
 45
0.0
 46
0.0
 47
0.0
 48
0.0
 49
0.0
140
0.0
141
0.0
142
1.0
143
1.0
 70
  1712
 72
     0
 73
     0
 74
     0
  7

 75
     0
147
1.0
 76
     0
 77
     2
 78
   300
148
0.0
149
0.0
100
AcDbLayout
  1
Model
 70
     1
 71
     0
 10
0.0
 20
0.0
 11
12.0
 21
9.0
 12
0.0
 22
0.0
 32
0.0
 14
0.0
 24
0.0
 34
0.0
 15
0.0
 25
0.0
 35
0.0
146
0.0
 13
0.0
 23
0.0
 33
0.0
 16
1.0
 26
0.0
 36
0.0
 17
0.0
 27
1.0
 37
0.0
 76
     0
330
6F
331
82
  0
LAYOUT
  5
6E
102
{ACAD_REACTORS
330
61
102
}
330
61
100
AcDbPlotSettings
  1

  2
OKI B821
  4

  6

 40
0.0
 41
0.0
 42
0.0
 43
0.0
 44
0.0
 45
0.0
 46
0.0
 47
0.0
 48
0.0
 49
0.0
140
0.0
141
0.0
142
1.0
143
1.0
 70
   688
 72
     0
 73
     0
 74
     5
  7

 75
    16
147
1.0
 76
     0
 77
     2
 78
   300
148
0.0
149
0.0
100
AcDbLayout
  1
レイアウト1
 70
     1
 71
     1
 10
0.0
 20
0.0
 11
12.0
 21
9.0
 12
0.0
 22
0.0
 32
0.0
 14
1.000000000000000E+20
 24
1.000000000000000E+20
 34
1.000000000000000E+20
 15
-1.000000000000000E+20
 25
-1.000000000000000E+20
 35
-1.000000000000000E+20
146
0.0
 13
0.0
 23
0.0
 33
0.0
 16
1.0
 26
0.0
 36
0.0
 17
0.0
 27
1.0
 37
0.0
 76
     0
330
6B
  0
MATERIAL
  5
19
102
{ACAD_XDICTIONARY
360
1A
102
}
102
{ACAD_REACTORS
330
10
102
}
330
10
100
AcDbMaterial
  1
ByBlock
 72
     0
 43
0.0208333333333333
 43
0.0
 43
0.0
 43
0.0
 43
0.0
 43
0.0208333333333333
 43
0.0
 43
0.0
 43
0.0
 43
0.0
 43
1.0
 43
0.0
 43
0.0
 43
0.0
 43
0.0
 43
1.0
 77
     0
 47
0.0208333333333333
 47
0.0
 47
0.0
 47
0.0
 47
0.0
 47
0.0208333333333333
 47
0.0
 47
0.0
 47
0.0
 47
0.0
 47
1.0
 47
0.0
 47
0.0
 47
0.0
 47
0.0
 47
1.0
171
     0
 49
0.0208333333333333
 49
0.0
 49
0.0
 49
0.0
 49
0.0
 49
0.0208333333333333
 49
0.0
 49
0.0
 49
0.0
 49
0.0
 49
1.0
 49
0.0
 49
0.0
 49
0.0
 49
0.0
 49
1.0
175
     0
142
0.0208333333333333
142
0.0
142
0.0
142
0.0
142
0.0
142
0.0208333333333333
142
0.0
142
0.0
142
0.0
142
0.0
142
1.0
142
0.0
142
0.0
142
0.0
142
0.0
142
1.0
179
     0
144
0.0208333333333333
144
0.0
144
0.0
144
0.0
144
0.0
144
0.0208333333333333
144
0.0
144
0.0
144
0.0
144
0.0
144
1.0
144
0.0
144
0.0
144
0.0
144
0.0
144
1.0
147
0.0208333333333333
147
0.0
147
0.0
147
0.0
147
0.0
147
0.0208333333333333
147
0.0
147
0.0
147
0.0
147
0.0
147
1.0
147
0.0
147
0.0
147
0.0
147
0.0
147
1.0
  0
MATERIAL
  5
11
102
{ACAD_XDICTIONARY
360
12
102
}
102
{ACAD_REACTORS
330
10
102
}
330
10
100
AcDbMaterial
  1
ByLayer
 72
     0
 43
0.0208333333333333
 43
0.0
 43
0.0
 43
0.0
 43
0.0
 43
0.0208333333333333
 43
0.0
 43
0.0
 43
0.0
 43
0.0
 43
1.0
 43
0.0
 43
0.0
 43
0.0
 43
0.0
 43
1.0
 77
     0
 47
0.0208333333333333
 47
0.0
 47
0.0
 47
0.0
 47
0.0
 47
0.0208333333333333
 47
0.0
 47
0.0
 47
0.0
 47
0.0
 47
1.0
 47
0.0
 47
0.0
 47
0.0
 47
0.0
 47
1.0
171
     0
 49
0.0208333333333333
 49
0.0
 49
0.0
 49
0.0
 49
0.0
 49
0.0208333333333333
 49
0.0
 49
0.0
 49
0.0
 49
0.0
 49
1.0
 49
0.0
 49
0.0
 49
0.0
 49
0.0
 49
1.0
175
     0
142
0.0208333333333333
142
0.0
142
0.0
142
0.0
142
0.0
142
0.0208333333333333
142
0.0
142
0.0
142
0.0
142
0.0
142
1.0
142
0.0
142
0.0
142
0.0
142
0.0
142
1.0
179
     0
144
0.0208333333333333
144
0.0
144
0.0
144
0.0
144
0.0
144
0.0208333333333333
144
0.0
144
0.0
144
0.0
144
0.0
144
1.0
144
0.0
144
0.0
144
0.0
144
0.0
144
1.0
147
0.0208333333333333
147
0.0
147
0.0
147
0.0
147
0.0
147
0.0208333333333333
147
0.0
147
0.0
147
0.0
147
0.0
147
1.0
147
0.0
147
0.0
147
0.0
147
0.0
147
1.0
  0
MATERIAL
  5
21
102
{ACAD_XDICTIONARY
360
22
102
}
102
{ACAD_REACTORS
330
10
102
}
330
10
100
AcDbMaterial
  1
Global
 72
     0
 43
0.0208333333333333
 43
0.0
 43
0.0
 43
0.0
 43
0.0
 43
0.0208333333333333
 43
0.0
 43
0.0
 43
0.0
 43
0.0
 43
1.0
 43
0.0
 43
0.0
 43
0.0
 43
0.0
 43
1.0
 77
     0
 47
0.0208333333333333
 47
0.0
 47
0.0
 47
0.0
 47
0.0
 47
0.0208333333333333
 47
0.0
 47
0.0
 47
0.0
 47
0.0
 47
1.0
 47
0.0
 47
0.0
 47
0.0
 47
0.0
 47
1.0
171
     0
 49
0.0208333333333333
 49
0.0
 49
0.0
 49
0.0
 49
0.0
 49
0.0208333333333333
 49
0.0
 49
0.0
 49
0.0
 49
0.0
 49
1.0
 49
0.0
 49
0.0
 49
0.0
 49
0.0
 49
1.0
175
     0
142
0.0208333333333333
142
0.0
142
0.0
142
0.0
142
0.0
142
0.0208333333333333
142
0.0
142
0.0
142
0.0
142
0.0
142
1.0
142
0.0
142
0.0
142
0.0
142
0.0
142
1.0
179
     0
144
0.0208333333333333
144
0.0
144
0.0
144
0.0
144
0.0
144
0.0208333333333333
144
0.0
144
0.0
144
0.0
144
0.0
144
1.0
144
0.0
144
0.0
144
0.0
144
0.0
144
1.0
147
0.0208333333333333
147
0.0
147
0.0
147
0.0
147
0.0
147
0.0208333333333333
147
0.0
147
0.0
147
0.0
147
0.0
147
1.0
147
0.0
147
0.0
147
0.0
147
0.0
147
1.0
  0
MLEADERSTYLE
  5
66
102
{ACAD_REACTORS
330
65
102
}
330
65
100
AcDbMLeaderStyle
179
     2
170
     2
171
     1
172
     0
 90
        2
 40
0.0
 41
0.0
173
     1
 91
-1056964608
340
5A
 92
       -2
290
     1
 42
0.09
291
     1
 43
0.36
  3
Standard
 44
0.18
300

342
55
174
     1
178
     6
175
     1
176
     0
 93
-1056964608
 45
0.18
292
     0
297
     0
 46
0.18
 94
-1056964608
 47
1.0
 49
1.0
140
1.0
293
     1
141
0.0
294
     1
177
     0
142
1.0
295
     0
296
     0
143
0.125
271
     0
272
     9
273
     9
298
     0
1001
ACAD_MLEADERVER
1070
     2
  0
MLINESTYLE
  5
5F
102
{ACAD_REACTORS
330
5E
102
}
330
5E
100
AcDbMlineStyle
  2
STANDARD
 70
     0
  3

 62
   256
 51
90.0
 52
90.0
 71
     2
 49
0.5
 62
   256
  6
BYLAYER
 49
-0.5
 62
   256
  6
BYLAYER
  0
ACDBPLACEHOLDER
  5
F
102
{ACAD_REACTORS
330
E
102
}
330
E
  0
SCALE
  5
43
102
{ACAD_REACTORS
330
42
102
}
330
42
100
AcDbScale
 70
     0
300
1:1
140
1.0
141
1.0
290
     1
  0
SCALE
  5
44
102
{ACAD_REACTORS
330
42
102
}
330
42
100
AcDbScale
 70
     0
300
1/128" = 1'-0"
140
0.0078125
141
12.0
290
     0
  0
SCALE
  5
45
102
{ACAD_REACTORS
330
42
102
}
330
42
100
AcDbScale
 70
     0
300
1/64" = 1'-0"
140
0.015625
141
12.0
290
     0
  0
SCALE
  5
46
102
{ACAD_REACTORS
330
42
102
}
330
42
100
AcDbScale
 70
     0
300
1/32" = 1'-0"
140
0.03125
141
12.0
290
     0
  0
SCALE
  5
47
102
{ACAD_REACTORS
330
42
102
}
330
42
100
AcDbScale
 70
     0
300
1/16" = 1'-0"
140
0.0625
141
12.0
290
     0
  0
SCALE
  5
48
102
{ACAD_REACTORS
330
42
102
}
330
42
100
AcDbScale
 70
     0
300
3/32" = 1'-0"
140
0.09375
141
12.0
290
     0
  0
SCALE
  5
49
102
{ACAD_REACTORS
330
42
102
}
330
42
100
AcDbScale
 70
     0
300
1/8" = 1'-0"
140
0.125
141
12.0
290
     0
  0
SCALE
  5
4A
102
{ACAD_REACTORS
330
42
102
}
330
42
100
AcDbScale
 70
     0
300
3/16" = 1'-0"
140
0.1875
141
12.0
290
     0
  0
SCALE
  5
4B
102
{ACAD_REACTORS
330
42
102
}
330
42
100
AcDbScale
 70
     0
300
1/4" = 1'-0"
140
0.25
141
12.0
290
     0
  0
SCALE
  5
4C
102
{ACAD_REACTORS
330
42
102
}
330
42
100
AcDbScale
 70
     0
300
3/8" = 1'-0"
140
0.375
141
12.0
290
     0
  0
SCALE
  5
4D
102
{ACAD_REACTORS
330
42
102
}
330
42
100
AcDbScale
 70
     0
300
1/2" = 1'-0"
140
0.5
141
12.0
290
     0
  0
SCALE
  5
4E
102
{ACAD_REACTORS
330
42
102
}
330
42
100
AcDbScale
 70
     0
300
3/4" = 1'-0"
140
0.75
141
12.0
290
     0
  0
SCALE
  5
4F
102
{ACAD_REACTORS
330
42
102
}
330
42
100
AcDbScale
 70
     0
300
1" = 1'-0"
140
1.0
141
12.0
290
     0
  0
SCALE
  5
50
102
{ACAD_REACTORS
330
42
102
}
330
42
100
AcDbScale
 70
     0
300
1-1/2" = 1'-0"
140
1.5
141
12.0
290
     0
  0
SCALE
  5
51
102
{ACAD_REACTORS
330
42
102
}
330
42
100
AcDbScale
 70
     0
300
3" = 1'-0"
140
3.0
141
12.0
290
     0
  0
SCALE
  5
52
102
{ACAD_REACTORS
330
42
102
}
330
42
100
AcDbScale
 70
     0
300
6" = 1'-0"
140
6.0
141
12.0
290
     0
  0
SCALE
  5
53
102
{ACAD_REACTORS
330
42
102
}
330
42
100
AcDbScale
 70
     0
300
1'-0" = 1'-0"
140
12.0
141
12.0
290
     0
  0
ACDBSECTIONVIEWSTYLE
  5
68
102
{ACAD_REACTORS
330
67
102
}
330
67
100
AcDbModelDocViewStyle
 70
     0
  3
Imperial24
290
     0
300
Imperial24
 90
        0
100
AcDbSectionViewStyle
 70
     0
 71
     0
 90
       78
 71
     1
340
55
 62
   256
 40
0.24
340
0
340
0
 62
   256
 40
0.24
300
I, O, Q, S, X, Z
 40
0.48
 90
        3
 40
0.18
 90
        1
 71
     2
340
5C
 90
       25
 62
   256
340
5C
 90
       50
 62
   256
 40
0.24
 40
0.0
 40
0.24
 71
     3
340
55
 62
   256
 40
0.24
 90
        1
 40
0.75
 90
        1
300
%<\AcVar ViewType \f "%tc1">% %<\AcVar ViewSectionStartId>%-%<\AcVar ViewSectionEndId>%\PSCALE %<\AcVar ViewScale \f "%sn">%
 71
     4
 62
   256
 62
   257
300
ANSI31
 40
1.0
 90
        0
290
     0
290
     0
 90
        6
 40
0.0
 40
1.570796326794896
 40
0.2617993877991494
 40
1.308996938995747
 40
-0.2617993877991494
 40
1.832595714594045
  0
ACDBSECTIONVIEWSTYLE
  5
67F
102
{ACAD_REACTORS
330
67
102
}
330
67
100
AcDbModelDocViewStyle
 70
     0
  3
Metric50
290
     0
300
Metric50
 90
        0
100
AcDbSectionViewStyle
 70
     0
 71
     0
 90
      102
 71
     1
340
55
 62
   256
 40
5.0
340
0
340
0
 62
   256
 40
5.0
300
I, O, Q, S, X, Z
 40
10.0
 90
        0
 40
2.5
 90
        0
 71
     2
340
5C
 90
       25
 62
   256
340
5C
 90
       50
 62
   256
 40
5.0
 40
2.5
 40
5.0
 71
     3
340
55
 62
   256
 40
5.0
 90
        0
 40
15.0
 90
        1
300
%<\AcVar ViewSectionStartId>%-%<\AcVar ViewSectionEndId>% (%<\AcVar ViewScale \f "%sn">%)
 71
     4
 62
   256
 62
   257
300
ANSI31
 40
1.0
 90
        0
290
     0
290
     0
 90
        6
 40
0.0
 40
1.570796326794896
 40
0.2617993877991494
 40
1.308996938995747
 40
-0.2617993877991494
 40
1.832595714594045
  0
TABLESTYLE
  5
64
102
{ACAD_XDICTIONARY
360
6A0
102
}
102
{ACAD_REACTORS
330
63
102
}
330
63
100
AcDbTableStyle
280
     0
  3
Standard
 70
     0
 71
     0
 40
0.06
 41
0.06
280
     0
281
     0
  7
STANDARD
140
0.18
170
     2
 62
     0
 63
     7
283
     0
 90
      512
 91
        0
  1

274
    -2
284
     1
 64
     0
275
    -2
285
     1
 65
     0
276
    -2
286
     1
 66
     0
277
    -2
287
     1
 67
     0
278
    -2
288
     1
 68
     0
279
    -2
289
     1
 69
     0
  7
STANDARD
140
0.25
170
     5
 62
     0
 63
     7
283
     0
 90
      512
 91
        0
  1

274
    -2
284
     1
 64
     0
275
    -2
285
     1
 65
     0
276
    -2
286
     1
 66
     0
277
    -2
287
     1
 67
     0
278
    -2
288
     1
 68
     0
279
    -2
289
     1
 69
     0
  7
STANDARD
140
0.18
170
     5
 62
     0
 63
     7
283
     0
 90
      512
 91
        0
  1

274
    -2
284
     1
 64
     0
275
    -2
285
     1
 65
     0
276
    -2
286
     1
 66
     0
277
    -2
287
     1
 67
     0
278
    -2
288
     1
 68
     0
279
    -2
289
     1
 69
     0
  0
VISUALSTYLE
  5
2F
102
{ACAD_REACTORS
330
29
102
}
330
29
100
AcDbVisualStyle
  2

 70
     4
177
     3
291
     0
 70
    58
 90
        0
176
     1
 90
        2
176
     1
 90
        0
176
     1
 90
        0
176
     1
 40
0.6
176
     1
 40
30.0
176
     1
 62
     7
176
     1
 90
        1
176
     1
 90
        4
176
     1
 62
     7
176
     1
 62
   257
176
     1
 90
        1
176
     1
 90
        1
176
     1
 40
1.0
176
     1
 90
        0
176
     1
 62
   257
176
     1
 40
1.0
176
     1
 90
        1
176
     1
 90
        6
176
     1
 90
        2
176
     1
 62
     7
176
     1
 90
        5
176
     1
 90
        0
176
     1
 90
        0
176
     1
290
     0
176
     1
 90
        1
176
     1
 40
0.0
176
     1
 90
        0
176
     1
290
     1
176
     1
290
     1
176
     1
290
     0
176
     1
290
     0
176
     1
290
     0
176
     1
290
     0
176
     1
290
     0
176
     1
290
     0
176
     1
290
     0
176
     1
 90
       50
176
     1
 40
0.0
176
     1
 40
1.0
176
     1
 90
        0
176
     1
 62
    18
420
        0
176
     1
 90
       50
176
     1
 90
        3
176
     1
 62
     5
420
      255
176
     1
290
     0
176
     1
 90
       50
176
     1
 90
       50
176
     1
 90
       50
176
     1
290
     0
176
     1
 90
       50
176
     1
 62
   256
176
     0
 40
1.0
176
     0
 90
        2
176
     1
  1
strokes_ogs.tif
176
     1
290
     0
176
     1
 40
1.0
176
     1
 40
1.0
176
     1
1001
ACAD
1000
AcDbSavedByObjectVersion
1070
     0
  0
VISUALSTYLE
  5
2E
102
{ACAD_REACTORS
330
29
102
}
330
29
100
AcDbVisualStyle
  2

 70
     7
177
     3
291
     1
 70
    58
 90
        1
176
     1
 90
        0
176
     1
 90
        1
176
     1
 90
        0
176
     1
 40
0.6
176
     1
 40
30.0
176
     1
 62
     7
176
     1
 90
        0
176
     1
 90
        4
176
     1
 62
     7
176
     1
 62
   257
176
     1
 90
        1
176
     1
 90
        1
176
     1
 40
1.0
176
     1
 90
        8
176
     1
 62
     7
176
     1
 40
1.0
176
     1
 90
        1
176
     1
 90
        6
176
     1
 90
        2
176
     1
 62
     7
176
     1
 90
        5
176
     1
 90
        0
176
     1
 90
        0
176
     1
290
     0
176
     1
 90
        1
176
     1
 40
0.0
176
     1
 90
        0
176
     1
290
     0
176
     1
290
     1
176
     1
290
     1
176
     1
290
     0
176
     1
290
     0
176
     1
290
     0
176
     1
290
     0
176
     1
290
     0
176
     1
290
     0
176
     1
 90
       50
176
     1
 40
0.0
176
     1
 40
1.0
176
     1
 90
        0
176
     1
 62
    18
420
        0
176
     1
 90
       50
176
     1
 90
        3
176
     1
 62
     5
420
      255
176
     1
290
     0
176
     1
 90
       50
176
     1
 90
       50
176
     1
 90
       50
176
     1
290
     0
176
     1
 90
       50
176
     1
 62
   256
176
     0
 40
1.0
176
     0
 90
        2
176
     1
  1
strokes_ogs.tif
176
     1
290
     0
176
     1
 40
1.0
176
     1
 40
1.0
176
     1
1001
ACAD
1000
AcDbSavedByObjectVersion
1070
     0
  0
VISUALSTYLE
  5
35
102
{ACAD_REACTORS
330
29
102
}
330
29
100
AcDbVisualStyle
  2

 70
    12
177
     3
291
     1
 70
    58
 90
        2
176
     1
 90
        2
176
     1
 90
        0
176
     1
 90
        0
176
     1
 40
0.6
176
     1
 40
30.0
176
     1
 62
     7
176
     1
 90
        1
176
     1
 90
        4
176
     1
 62
     7
176
     1
 62
   257
176
     1
 90
        1
176
     1
 90
        1
176
     1
 40
1.0
176
     1
 90
        8
176
     1
 62
     7
176
     1
 40
1.0
176
     1
 90
        1
176
     1
 90
        6
176
     1
 90
        2
176
     1
 62
     7
176
     1
 90
        5
176
     1
 90
        0
176
     1
 90
        0
176
     1
290
     0
176
     1
 90
        1
176
     1
 40
50.0
176
     1
 90
        0
176
     1
290
     0
176
     1
290
     1
176
     1
290
     1
176
     1
290
     0
176
     1
290
     0
176
     1
290
     0
176
     1
290
     0
176
     1
290
     0
176
     1
290
     0
176
     1
 90
       50
176
     1
 40
0.0
176
     1
 40
1.0
176
     1
 90
        0
176
     1
 62
    18
420
        0
176
     1
 90
       50
176
     1
 90
        3
176
     1
 62
     5
420
      255
176
     1
290
     0
176
     1
 90
       50
176
     1
 90
       50
176
     1
 90
       50
176
     1
290
     0
176
     1
 90
       50
176
     1
 62
   256
176
     0
 40
1.0
176
     0
 90
        2
176
     1
  1
strokes_ogs.tif
176
     1
290
     0
176
     1
 40
1.0
176
     1
 40
1.0
176
     1
1001
ACAD
1000
AcDbSavedByObjectVersion
1070
     0
  0
VISUALSTYLE
  5
39
102
{ACAD_REACTORS
330
29
102
}
330
29
100
AcDbVisualStyle
  2

 70
    16
177
     3
291
     1
 70
    58
 90
        2
176
     1
 90
        2
176
     1
 90
        3
176
     1
 90
        0
176
     1
 40
0.6
176
     1
 40
30.0
176
     1
 62
     8
176
     1
 90
        1
176
     1
 90
        4
176
     1
 62
     7
176
     1
 62
   257
176
     1
 90
        1
176
     1
 90
        1
176
     1
 40
1.0
176
     1
 90
        8
176
     1
 62
     8
176
     1
 40
1.0
176
     1
 90
        1
176
     1
 90
        6
176
     1
 90
        2
176
     1
 62
     7
176
     1
 90
        5
176
     1
 90
        0
176
     1
 90
        0
176
     1
290
     0
176
     1
 90
        1
176
     1
 40
0.0
176
     1
 90
        0
176
     1
290
     0
176
     1
290
     1
176
     1
290
     1
176
     1
290
     0
176
     1
290
     0
176
     1
290
     0
176
     1
290
     0
176
     1
290
     0
176
     1
290
     0
176
     1
 90
       50
176
     1
 40
0.0
176
     1
 40
1.0
176
     1
 90
        0
176
     1
 62
    18
420
        0
176
     1
 90
       50
176
     1
 90
        3
176
     1
 62
     5
420
      255
176
     1
290
     0
176
     1
 90
       50
176
     1
 90
       50
176
     1
 90
       50
176
     1
290
     0
176
     1
 90
       50
176
     1
 62
   256
176
     0
 40
1.0
176
     0
 90
        2
176
     1
  1
strokes_ogs.tif
176
     1
290
     0
176
     1
 40
1.0
176
     1
 40
1.0
176
     1
1001
ACAD
1000
AcDbSavedByObjectVersion
1070
     0
  0
VISUALSTYLE
  5
32
102
{ACAD_REACTORS
330
29
102
}
330
29
100
AcDbVisualStyle
  2

 70
     9
177
     3
291
     0
 70
    58
 90
        3
176
     1
 90
        2
176
     1
 90
        0
176
     1
 90
        0
176
     1
 40
0.6
176
     1
 40
30.0
176
     1
 62
     7
176
     1
 90
        2
176
     1
 90
        2
176
     1
 62
     7
176
     1
 62
   257
176
     1
 90
        1
176
     1
 90
        1
176
     1
 40
179.0
176
     1
 90
        8
176
     1
 62
     7
176
     1
 40
1.0
176
     1
 90
        1
176
     1
 90
        6
176
     1
 90
        2
176
     1
 62
     7
176
     1
 90
        3
176
     1
 90
        0
176
     1
 90
        0
176
     1
290
     0
176
     1
 90
        1
176
     1
 40
0.0
176
     1
 90
        0
176
     1
290
     0
176
     1
290
     1
176
     1
290
     1
176
     1
290
     0
176
     1
290
     0
176
     1
290
     0
176
     1
290
     0
176
     1
290
     0
176
     1
290
     0
176
     1
 90
       50
176
     1
 40
0.0
176
     1
 40
1.0
176
     1
 90
        0
176
     1
 62
    18
420
        0
176
     1
 90
       50
176
     1
 90
        3
176
     1
 62
     5
420
      255
176
     1
290
     0
176
     1
 90
       50
176
     1
 90
       50
176
     1
 90
       50
176
     1
290
     0
176
     1
 90
       50
176
     1
 62
   256
176
     0
 40
1.0
176
     0
 90
        2
176
     1
  1
strokes_ogs.tif
176
     1
290
     0
176
     1
 40
1.0
176
     1
 40
1.0
176
     1
1001
ACAD
1000
AcDbSavedByObjectVersion
1070
     0
  0
VISUALSTYLE
  5
34
102
{ACAD_REACTORS
330
29
102
}
330
29
100
AcDbVisualStyle
  2

 70
    11
177
     3
291
     1
 70
    58
 90
        2
176
     1
 90
        2
176
     1
 90
        0
176
     1
 90
        0
176
     1
 40
0.6
176
     1
 40
30.0
176
     1
 62
     7
176
     1
 90
        1
176
     1
 90
        4
176
     1
 62
     7
176
     1
 62
   257
176
     1
 90
        1
176
     1
 90
        1
176
     1
 40
1.0
176
     1
 90
        8
176
     1
 62
     7
176
     1
 40
1.0
176
     1
 90
        1
176
     1
 90
        6
176
     1
 90
        2
176
     1
 62
     7
176
     1
 90
        5
176
     1
 90
        0
176
     1
 90
        0
176
     1
290
     0
176
     1
 90
        1
176
     1
 40
-50.0
176
     1
 90
        0
176
     1
290
     0
176
     1
290
     1
176
     1
290
     1
176
     1
290
     0
176
     1
290
     0
176
     1
290
     0
176
     1
290
     0
176
     1
290
     0
176
     1
290
     0
176
     1
 90
       50
176
     1
 40
0.0
176
     1
 40
1.0
176
     1
 90
        0
176
     1
 62
    18
420
        0
176
     1
 90
       50
176
     1
 90
        3
176
     1
 62
     5
420
      255
176
     1
290
     0
176
     1
 90
       50
176
     1
 90
       50
176
     1
 90
       50
176
     1
290
     0
176
     1
 90
       50
176
     1
 62
   256
176
     0
 40
1.0
176
     0
 90
        2
176
     1
  1
strokes_ogs.tif
176
     1
290
     0
176
     1
 40
1.0
176
     1
 40
1.0
176
     1
1001
ACAD
1000
AcDbSavedByObjectVersion
1070
     0
  0
VISUALSTYLE
  5
41
102
{ACAD_REACTORS
330
29
102
}
330
29
100
AcDbVisualStyle
  2

 70
    22
177
     3
291
     1
 70
    58
 90
        2
176
     0
 90
        2
176
     0
 90
        0
176
     0
 90
        0
176
     0
 40
0.6
176
     0
 40
30.0
176
     0
 62
     7
176
     0
 90
        1
176
     0
 90
        4
176
     0
 62
     7
176
     0
 62
   257
176
     0
 90
        1
176
     0
 90
        1
176
     0
 40
1.0
176
     0
 90
        8
176
     2
 62
     7
176
     0
 40
1.0
176
     0
 90
        1
176
     0
 90
        6
176
     0
 90
        2
176
     0
 62
     7
176
     0
 90
        5
176
     0
 90
        0
176
     0
 90
        0
176
     0
290
     0
176
     0
 90
        1
176
     0
 40
0.0
176
     0
 90
        0
176
     0
290
     0
176
     1
290
     1
176
     1
290
     1
176
     1
290
     0
176
     1
290
     0
176
     1
290
     0
176
     1
290
     0
176
     1
290
     0
176
     1
290
     0
176
     1
 90
       50
176
     0
 40
0.0
176
     0
 40
1.0
176
     0
 90
        0
176
     0
 62
    18
420
        0
176
     0
 90
       50
176
     0
 90
        3
176
     0
 62
     5
420
      255
176
     0
290
     0
176
     1
 90
       50
176
     0
 90
       50
176
     0
 90
       50
176
     0
290
     0
176
     1
 90
       50
176
     0
 62
   256
176
     0
 40
1.0
176
     0
 90
        2
176
     0
  1
strokes_ogs.tif
176
     0
290
     0
176
     1
 40
1.0
176
     0
 40
1.0
176
     0
1001
ACAD
1000
AcDbSavedByObjectVersion
1070
     0
  0
VISUALSTYLE
  5
38
102
{ACAD_REACTORS
330
29
102
}
330
29
100
AcDbVisualStyle
  2

 70
    15
177
     3
291
     1
 70
    58
 90
        2
176
     1
 90
        2
176
     1
 90
        0
176
     1
 90
        0
176
     1
 40
0.6
176
     1
 40
30.0
176
     1
 62
     7
176
     1
 90
        1
176
     1
 90
        4
176
     1
 62
     7
176
     1
 62
   257
176
     1
 90
        1
176
     1
 90
        1
176
     1
 40
1.0
176
     1
 90
        8
176
     1
 62
     7
176
     1
 40
1.0
176
     1
 90
        1
176
     1
 90
        6
176
     1
 90
        2
176
     1
 62
     7
176
     1
 90
        5
176
     1
 90
        0
176
     1
 90
        0
176
     1
290
     0
176
     1
 90
        1
176
     1
 40
0.0
176
     1
 90
        0
176
     1
290
     0
176
     1
290
     1
176
     1
290
     1
176
     1
290
     0
176
     1
290
     0
176
     1
290
     0
176
     1
290
     0
176
     1
290
     0
176
     1
290
     0
176
     1
 90
       50
176
     1
 40
0.0
176
     1
 40
1.0
176
     1
 90
        0
176
     1
 62
    18
420
        0
176
     1
 90
       50
176
     1
 90
        3
176
     1
 62
     5
420
      255
176
     1
290
     0
176
     1
 90
       50
176
     1
 90
       50
176
     1
 90
       50
176
     1
290
     0
176
     1
 90
       50
176
     1
 62
   256
176
     0
 40
1.0
176
     0
 90
        2
176
     1
  1
strokes_ogs.tif
176
     1
290
     0
176
     1
 40
1.0
176
     1
 40
1.0
176
     1
1001
ACAD
1000
AcDbSavedByObjectVersion
1070
     0
  0
VISUALSTYLE
  5
2A
102
{ACAD_REACTORS
330
29
102
}
330
29
100
AcDbVisualStyle
  2

 70
     0
177
     3
291
     1
 70
    58
 90
        2
176
     1
 90
        1
176
     1
 90
        1
176
     1
 90
        2
176
     1
 40
0.6
176
     1
 40
30.0
176
     1
 62
     7
176
     1
 90
        0
176
     1
 90
        0
176
     1
 62
     7
176
     1
 62
   257
176
     1
 90
        1
176
     1
 90
        1
176
     1
 40
1.0
176
     1
 90
        8
176
     1
 62
     7
176
     1
 40
1.0
176
     1
 90
        1
176
     1
 90
        6
176
     1
 90
        2
176
     1
 62
     7
176
     1
 90
        5
176
     1
 90
        0
176
     1
 90
        0
176
     1
290
     0
176
     1
 90
       13
176
     1
 40
0.0
176
     1
 90
        0
176
     1
290
     0
176
     1
290
     1
176
     1
290
     1
176
     1
290
     0
176
     1
290
     0
176
     1
290
     0
176
     1
290
     0
176
     1
290
     0
176
     1
290
     0
176
     1
 90
       50
176
     1
 40
0.0
176
     1
 40
1.0
176
     1
 90
        0
176
     1
 62
    18
420
        0
176
     1
 90
       50
176
     1
 90
        3
176
     1
 62
     5
420
      255
176
     1
290
     0
176
     1
 90
       50
176
     1
 90
       50
176
     1
 90
       50
176
     1
290
     0
176
     1
 90
       50
176
     1
 62
   256
176
     0
 40
1.0
176
     0
 90
        2
176
     1
  1
strokes_ogs.tif
176
     1
290
     0
176
     1
 40
1.0
176
     1
 40
1.0
176
     1
1001
ACAD
1000
AcDbSavedByObjectVersion
1070
     0
  0
VISUALSTYLE
  5
2B
102
{ACAD_REACTORS
330
29
102
}
330
29
100
AcDbVisualStyle
  2

 70
     1
177
     3
291
     1
 70
    58
 90
        2
176
     1
 90
        1
176
     1
 90
        1
176
     1
 90
        2
176
     1
 40
0.6
176
     1
 40
30.0
176
     1
 62
     7
176
     1
 90
        1
176
     1
 90
        0
176
     1
 62
     7
176
     1
 62
   257
176
     1
 90
        1
176
     1
 90
        1
176
     1
 40
1.0
176
     1
 90
        0
176
     1
 62
   257
176
     1
 40
1.0
176
     1
 90
        1
176
     1
 90
        6
176
     1
 90
        2
176
     1
 62
     7
176
     1
 90
        5
176
     1
 90
        0
176
     1
 90
        0
176
     1
290
     0
176
     1
 90
       13
176
     1
 40
0.0
176
     1
 90
        0
176
     1
290
     0
176
     1
290
     1
176
     1
290
     1
176
     1
290
     0
176
     1
290
     0
176
     1
290
     0
176
     1
290
     0
176
     1
290
     0
176
     1
290
     0
176
     1
 90
       50
176
     1
 40
0.0
176
     1
 40
1.0
176
     1
 90
        0
176
     1
 62
    18
420
        0
176
     1
 90
       50
176
     1
 90
        3
176
     1
 62
     5
420
      255
176
     1
290
     0
176
     1
 90
       50
176
     1
 90
       50
176
     1
 90
       50
176
     1
290
     0
176
     1
 90
       50
176
     1
 62
   256
176
     0
 40
1.0
176
     0
 90
        2
176
     1
  1
strokes_ogs.tif
176
     1
290
     0
176
     1
 40
1.0
176
     1
 40
1.0
176
     1
1001
ACAD
1000
AcDbSavedByObjectVersion
1070
     0
  0
VISUALSTYLE
  5
2C
102
{ACAD_REACTORS
330
29
102
}
330
29
100
AcDbVisualStyle
  2

 70
     2
177
     3
291
     1
 70
    58
 90
        2
176
     1
 90
        2
176
     1
 90
        1
176
     1
 90
        2
176
     1
 40
0.6
176
     1
 40
30.0
176
     1
 62
     7
176
     1
 90
        0
176
     1
 90
        0
176
     1
 62
     7
176
     1
 62
   257
176
     1
 90
        1
176
     1
 90
        1
176
     1
 40
1.0
176
     1
 90
        0
176
     1
 62
     7
176
     1
 40
1.0
176
     1
 90
        1
176
     1
 90
        6
176
     1
 90
        2
176
     1
 62
     7
176
     1
 90
        5
176
     1
 90
        0
176
     1
 90
        0
176
     1
290
     0
176
     1
 90
       13
176
     1
 40
0.0
176
     1
 90
        0
176
     1
290
     0
176
     1
290
     1
176
     1
290
     1
176
     1
290
     0
176
     1
290
     0
176
     1
290
     0
176
     1
290
     0
176
     1
290
     0
176
     1
290
     0
176
     1
 90
       50
176
     1
 40
0.0
176
     1
 40
1.0
176
     1
 90
        0
176
     1
 62
    18
420
        0
176
     1
 90
       50
176
     1
 90
        3
176
     1
 62
     5
420
      255
176
     1
290
     0
176
     1
 90
       50
176
     1
 90
       50
176
     1
 90
       50
176
     1
290
     0
176
     1
 90
       50
176
     1
 62
   256
176
     0
 40
1.0
176
     0
 90
        2
176
     1
  1
strokes_ogs.tif
176
     1
290
     0
176
     1
 40
1.0
176
     1
 40
1.0
176
     1
1001
ACAD
1000
AcDbSavedByObjectVersion
1070
     0
  0
VISUALSTYLE
  5
2D
102
{ACAD_REACTORS
330
29
102
}
330
29
100
AcDbVisualStyle
  2

 70
     3
177
     3
291
     1
 70
    58
 90
        2
176
     1
 90
        2
176
     1
 90
        1
176
     1
 90
        2
176
     1
 40
0.6
176
     1
 40
30.0
176
     1
 62
     7
176
     1
 90
        1
176
     1
 90
        0
176
     1
 62
     7
176
     1
 62
   257
176
     1
 90
        1
176
     1
 90
        1
176
     1
 40
1.0
176
     1
 90
        0
176
     1
 62
   257
176
     1
 40
1.0
176
     1
 90
        1
176
     1
 90
        6
176
     1
 90
        2
176
     1
 62
     7
176
     1
 90
        5
176
     1
 90
        0
176
     1
 90
        0
176
     1
290
     0
176
     1
 90
       13
176
     1
 40
0.0
176
     1
 90
        0
176
     1
290
     0
176
     1
290
     1
176
     1
290
     1
176
     1
290
     0
176
     1
290
     0
176
     1
290
     0
176
     1
290
     0
176
     1
290
     0
176
     1
290
     0
176
     1
 90
       50
176
     1
 40
0.0
176
     1
 40
1.0
176
     1
 90
        0
176
     1
 62
    18
420
        0
176
     1
 90
       50
176
     1
 90
        3
176
     1
 62
     5
420
      255
176
     1
290
     0
176
     1
 90
       50
176
     1
 90
       50
176
     1
 90
       50
176
     1
290
     0
176
     1
 90
       50
176
     1
 62
   256
176
     0
 40
1.0
176
     0
 90
        2
176
     1
  1
strokes_ogs.tif
176
     1
290
     0
176
     1
 40
1.0
176
     1
 40
1.0
176
     1
1001
ACAD
1000
AcDbSavedByObjectVersion
1070
     0
  0
VISUALSTYLE
  5
31
102
{ACAD_REACTORS
330
29
102
}
330
29
100
AcDbVisualStyle
  2

 70
     6
177
     3
291
     0
 70
    58
 90
        1
176
     1
 90
        2
176
     1
 90
        2
176
     1
 90
        0
176
     1
 40
0.6
176
     1
 40
30.0
176
     1
 62
     7
176
     1
 90
        2
176
     1
 90
        2
176
     1
 62
     7
176
     1
 62
   257
176
     1
 90
        2
176
     1
 90
        1
176
     1
 40
40.0
176
     1
 90
        0
176
     1
 62
   257
176
     1
 40
1.0
176
     1
 90
        1
176
     1
 90
        6
176
     1
 90
        2
176
     1
 62
     7
176
     1
 90
        3
176
     1
 90
        0
176
     1
 90
        0
176
     1
290
     0
176
     1
 90
        1
176
     1
 40
0.0
176
     1
 90
        0
176
     1
290
     0
176
     1
290
     1
176
     1
290
     1
176
     1
290
     0
176
     1
290
     0
176
     1
290
     0
176
     1
290
     0
176
     1
290
     0
176
     1
290
     0
176
     1
 90
       50
176
     1
 40
0.0
176
     1
 40
1.0
176
     1
 90
        0
176
     1
 62
    18
420
        0
176
     1
 90
       50
176
     1
 90
        3
176
     1
 62
     5
420
      255
176
     1
290
     0
176
     1
 90
       50
176
     1
 90
       50
176
     1
 90
       50
176
     1
290
     0
176
     1
 90
       50
176
     1
 62
   256
176
     0
 40
1.0
176
     0
 90
        2
176
     1
  1
strokes_ogs.tif
176
     1
290
     0
176
     1
 40
1.0
176
     1
 40
1.0
176
     1
1001
ACAD
1000
AcDbSavedByObjectVersion
1070
     0
  0
VISUALSTYLE
  5
3F
102
{ACAD_REACTORS
330
29
102
}
330
29
100
AcDbVisualStyle
  2

 70
    20
177
     3
291
     1
 70
    58
 90
        2
176
     0
 90
        2
176
     0
 90
        0
176
     0
 90
        0
176
     0
 40
0.6
176
     0
 40
30.0
176
     0
 62
     7
176
     0
 90
        1
176
     0
 90
        4
176
     0
 62
     7
176
     0
 62
   257
176
     0
 90
        1
176
     0
 90
        1
176
     0
 40
1.0
176
     0
 90
       10
176
     2
 62
     7
176
     0
 40
1.0
176
     0
 90
        1
176
     0
 90
        6
176
     0
 90
        2
176
     0
 62
     7
176
     0
 90
        5
176
     0
 90
        0
176
     0
 90
        0
176
     0
290
     0
176
     0
 90
        1
176
     0
 40
0.0
176
     0
 90
        0
176
     0
290
     0
176
     1
290
     1
176
     1
290
     1
176
     1
290
     0
176
     1
290
     0
176
     1
290
     0
176
     1
290
     0
176
     1
290
     0
176
     1
290
     0
176
     1
 90
       50
176
     0
 40
0.0
176
     0
 40
1.0
176
     0
 90
        0
176
     0
 62
    18
420
        0
176
     0
 90
       50
176
     0
 90
        3
176
     0
 62
     5
420
      255
176
     0
290
     0
176
     1
 90
       50
176
     0
 90
       50
176
     0
 90
       50
176
     0
290
     0
176
     1
 90
       50
176
     0
 62
   256
176
     0
 40
1.0
176
     0
 90
        2
176
     0
  1
strokes_ogs.tif
176
     0
290
     0
176
     1
 40
1.0
176
     0
 40
1.0
176
     0
1001
ACAD
1000
AcDbSavedByObjectVersion
1070
     0
  0
VISUALSTYLE
  5
37
102
{ACAD_REACTORS
330
29
102
}
330
29
100
AcDbVisualStyle
  2

 70
    14
177
     3
291
     1
 70
    58
 90
        2
176
     1
 90
        2
176
     1
 90
        0
176
     1
 90
        0
176
     1
 40
0.6
176
     1
 40
30.0
176
     1
 62
     7
176
     1
 90
        1
176
     1
 90
        4
176
     1
 62
     7
176
     1
 62
   257
176
     1
 90
        7
176
     1
 90
        7
176
     1
 40
1.0
176
     1
 90
        8
176
     1
 62
     7
176
     1
 40
1.0
176
     1
 90
        1
176
     1
 90
        6
176
     1
 90
        2
176
     1
 62
     7
176
     1
 90
        5
176
     1
 90
        0
176
     1
 90
        0
176
     1
290
     0
176
     1
 90
        1
176
     1
 40
0.0
176
     1
 90
        0
176
     1
290
     0
176
     1
290
     1
176
     1
290
     1
176
     1
290
     0
176
     1
290
     0
176
     1
290
     0
176
     1
290
     0
176
     1
290
     0
176
     1
290
     0
176
     1
 90
       50
176
     1
 40
0.0
176
     1
 40
1.0
176
     1
 90
        0
176
     1
 62
    18
420
        0
176
     1
 90
       50
176
     1
 90
        3
176
     1
 62
     5
420
      255
176
     1
290
     0
176
     1
 90
       50
176
     1
 90
       50
176
     1
 90
       50
176
     1
290
     0
176
     1
 90
       50
176
     1
 62
   256
176
     0
 40
1.0
176
     0
 90
        2
176
     1
  1
strokes_ogs.tif
176
     1
290
     0
176
     1
 40
1.0
176
     1
 40
1.0
176
     1
1001
ACAD
1000
AcDbSavedByObjectVersion
1070
     0
  0
VISUALSTYLE
  5
40
102
{ACAD_REACTORS
330
29
102
}
330
29
100
AcDbVisualStyle
  2

 70
    21
177
     3
291
     1
 70
    58
 90
        2
176
     0
 90
        2
176
     0
 90
        0
176
     0
 90
        0
176
     0
 40
0.6
176
     0
 40
30.0
176
     0
 62
     7
176
     0
 90
        1
176
     0
 90
        4
176
     0
 62
     7
176
     0
 62
   257
176
     0
 90
        1
176
     0
 90
        1
176
     0
 40
1.0
176
     0
 90
        9
176
     2
 62
     7
176
     0
 40
1.0
176
     0
 90
        1
176
     0
 90
        6
176
     0
 90
        2
176
     0
 62
     7
176
     0
 90
        5
176
     0
 90
        0
176
     0
 90
        0
176
     0
290
     0
176
     0
 90
        1
176
     0
 40
0.0
176
     0
 90
        0
176
     0
290
     0
176
     1
290
     1
176
     1
290
     1
176
     1
290
     0
176
     1
290
     0
176
     1
290
     0
176
     1
290
     0
176
     1
290
     0
176
     1
290
     0
176
     1
 90
       50
176
     0
 40
0.0
176
     0
 40
1.0
176
     0
 90
        0
176
     0
 62
    18
420
        0
176
     0
 90
       50
176
     0
 90
        3
176
     0
 62
     5
420
      255
176
     0
290
     0
176
     1
 90
       50
176
     0
 90
       50
176
     0
 90
       50
176
     0
290
     0
176
     1
 90
       50
176
     0
 62
   256
176
     0
 40
1.0
176
     0
 90
        2
176
     0
  1
strokes_ogs.tif
176
     0
290
     0
176
     1
 40
1.0
176
     0
 40
1.0
176
     0
1001
ACAD
1000
AcDbSavedByObjectVersion
1070
     0
  0
VISUALSTYLE
  5
33
102
{ACAD_REACTORS
330
29
102
}
330
29
100
AcDbVisualStyle
  2

 70
     8
177
     3
291
     0
 70
    58
 90
        2
176
     1
 90
        3
176
     1
 90
        0
176
     1
 90
        2
176
     1
 40
0.6
176
     1
 40
30.0
176
     1
 62
     7
176
     1
 90
        0
176
     1
 90
        0
176
     1
 62
     7
176
     1
 62
   257
176
     1
 90
        1
176
     1
 90
        1
176
     1
 40
1.0
176
     1
 90
        8
176
     1
 62
   257
176
     1
 40
1.0
176
     1
 90
        1
176
     1
 90
        6
176
     1
 90
        2
176
     1
 62
     7
176
     1
 90
        3
176
     1
 90
        0
176
     1
 90
        0
176
     1
290
     0
176
     1
 90
       13
176
     1
 40
0.0
176
     1
 90
        0
176
     1
290
     0
176
     1
290
     1
176
     1
290
     1
176
     1
290
     0
176
     1
290
     0
176
     1
290
     0
176
     1
290
     0
176
     1
290
     0
176
     1
290
     0
176
     1
 90
       50
176
     1
 40
0.0
176
     1
 40
1.0
176
     1
 90
        0
176
     1
 62
    18
420
        0
176
     1
 90
       50
176
     1
 90
        3
176
     1
 62
     5
420
      255
176
     1
290
     0
176
     1
 90
       50
176
     1
 90
       50
176
     1
 90
       50
176
     1
290
     0
176
     1
 90
       50
176
     1
 62
   256
176
     0
 40
1.0
176
     0
 90
        2
176
     1
  1
strokes_ogs.tif
176
     1
290
     0
176
     1
 40
1.0
176
     1
 40
1.0
176
     1
1001
ACAD
1000
AcDbSavedByObjectVersion
1070
     0
  0
VISUALSTYLE
  5
3E
102
{ACAD_REACTORS
330
29
102
}
330
29
100
AcDbVisualStyle
  2

 70
    27
177
     3
291
     0
 70
    58
 90
        2
176
     1
 90
        2
176
     1
 90
        1
176
     1
 90
        2
176
     1
 40
0.6
176
     1
 40
30.0
176
     1
 62
     7
176
     1
 90
        0
176
     1
 90
        4
176
     1
 62
     7
176
     1
 62
   257
176
     1
 90
        1
176
     1
 90
        1
176
     1
 40
1.0
176
     1
 90
        8
176
     1
 62
   257
176
     1
 40
1.0
176
     1
 90
        1
176
     1
 90
        6
176
     1
 90
        2
176
     1
 62
     8
176
     1
 90
        3
176
     1
 90
        0
176
     1
 90
        0
176
     1
290
     0
176
     1
 90
        5
176
     1
 40
0.0
176
     1
 90
        0
176
     1
290
     0
176
     1
290
     1
176
     1
290
     1
176
     1
290
     0
176
     1
290
     0
176
     1
290
     0
176
     1
290
     0
176
     1
290
     0
176
     1
290
     0
176
     1
 90
       50
176
     1
 40
0.0
176
     1
 40
1.0
176
     1
 90
        0
176
     1
 62
    18
420
        0
176
     1
 90
       50
176
     1
 90
        3
176
     1
 62
     5
420
      255
176
     1
290
     0
176
     1
 90
       50
176
     1
 90
       50
176
     1
 90
       50
176
     1
290
     0
176
     1
 90
       50
176
     1
 62
   256
176
     0
 40
1.0
176
     0
 90
        2
176
     1
  1
strokes_ogs.tif
176
     1
290
     0
176
     1
 40
1.0
176
     1
 40
1.0
176
     1
1001
ACAD
1000
AcDbSavedByObjectVersion
1070
     0
  0
VISUALSTYLE
  5
3D
102
{ACAD_REACTORS
330
29
102
}
330
29
100
AcDbVisualStyle
  2

 70
    26
177
     3
291
     0
 70
    58
 90
        2
176
     1
 90
        2
176
     1
 90
        1
176
     1
 90
        2
176
     1
 40
0.6
176
     1
 40
30.0
176
     1
 62
     7
176
     1
 90
        1
176
     1
 90
        2
176
     1
 62
     7
176
     1
 62
   257
176
     1
 90
        2
176
     1
 90
        1
176
     1
 40
1.0
176
     1
 90
        8
176
     1
 62
   257
176
     1
 40
1.0
176
     1
 90
        1
176
     1
 90
        6
176
     1
 90
        2
176
     1
 62
     7
176
     1
 90
        3
176
     1
 90
        0
176
     1
 90
        0
176
     1
290
     0
176
     1
 90
        5
176
     1
 40
0.0
176
     1
 90
        0
176
     1
290
     0
176
     1
290
     1
176
     1
290
     1
176
     1
290
     0
176
     1
290
     0
176
     1
290
     0
176
     1
290
     0
176
     1
290
     0
176
     1
290
     0
176
     1
 90
       50
176
     1
 40
0.0
176
     1
 40
1.0
176
     1
 90
        0
176
     1
 62
    18
420
        0
176
     1
 90
       50
176
     1
 90
        3
176
     1
 62
     5
420
      255
176
     1
290
     0
176
     1
 90
       50
176
     1
 90
       50
176
     1
 90
       50
176
     1
290
     0
176
     1
 90
       50
176
     1
 62
   256
176
     0
 40
1.0
176
     0
 90
        2
176
     1
  1
strokes_ogs.tif
176
     1
290
     0
176
     1
 40
1.0
176
     1
 40
1.0
176
     1
1001
ACAD
1000
AcDbSavedByObjectVersion
1070
     0
  0
VISUALSTYLE
  5
3A
102
{ACAD_REACTORS
330
29
102
}
330
29
100
AcDbVisualStyle
  2

 70
    23
177
     3
291
     0
 70
    58
 90
        2
176
     1
 90
        2
176
     1
 90
        3
176
     1
 90
        0
176
     1
 40
0.6
176
     1
 40
30.0
176
     1
 62
     7
176
     1
 90
        2
176
     1
 90
        2
176
     1
 62
     7
176
     1
 62
     7
176
     1
 90
        1
176
     1
 90
        1
176
     1
 40
40.0
176
     1
 90
        8
176
     1
 62
     7
176
     1
 40
1.0
176
     1
 90
        1
176
     1
 90
        6
176
     1
 90
        2
176
     1
 62
     7
176
     1
 90
        3
176
     1
 90
        0
176
     1
 90
        0
176
     1
290
     0
176
     1
 90
        1
176
     1
 40
0.0
176
     1
 90
        0
176
     1
290
     0
176
     1
290
     1
176
     1
290
     1
176
     1
290
     0
176
     1
290
     0
176
     1
290
     0
176
     1
290
     0
176
     1
290
     0
176
     1
290
     0
176
     1
 90
       50
176
     1
 40
0.0
176
     1
 40
1.0
176
     1
 90
        0
176
     1
 62
    18
420
        0
176
     1
 90
       50
176
     1
 90
        3
176
     1
 62
     5
420
      255
176
     1
290
     0
176
     1
 90
       50
176
     1
 90
       50
176
     1
 90
       50
176
     1
290
     0
176
     1
 90
       50
176
     1
 62
   256
176
     0
 40
1.0
176
     0
 90
        2
176
     1
  1
strokes_ogs.tif
176
     1
290
     0
176
     1
 40
1.0
176
     1
 40
1.0
176
     1
1001
ACAD
1000
AcDbSavedByObjectVersion
1070
     0
  0
VISUALSTYLE
  5
3B
102
{ACAD_REACTORS
330
29
102
}
330
29
100
AcDbVisualStyle
  2

 70
    24
177
     3
291
     0
 70
    58
 90
        1
176
     1
 90
        2
176
     1
 90
        2
176
     1
 90
        0
176
     1
 40
0.6
176
     1
 40
30.0
176
     1
 62
     7
176
     1
 90
        2
176
     1
 90
        2
176
     1
 62
     7
176
     1
 62
     7
176
     1
 90
        1
176
     1
 90
        1
176
     1
 40
40.0
176
     1
 90
       11
176
     1
 62
     7
176
     1
 40
1.0
176
     1
 90
        1
176
     1
 90
        6
176
     1
 90
        2
176
     1
 62
     7
176
     1
 90
        6
176
     1
 90
        0
176
     1
 90
        0
176
     1
290
     0
176
     1
 90
        1
176
     1
 40
0.0
176
     1
 90
        0
176
     1
290
     0
176
     1
290
     1
176
     1
290
     1
176
     1
290
     0
176
     1
290
     0
176
     1
290
     0
176
     1
290
     0
176
     1
290
     0
176
     1
290
     0
176
     1
 90
       50
176
     1
 40
0.0
176
     1
 40
1.0
176
     1
 90
        0
176
     1
 62
    18
420
        0
176
     1
 90
       50
176
     1
 90
        3
176
     1
 62
     5
420
      255
176
     1
290
     0
176
     1
 90
       50
176
     1
 90
       50
176
     1
 90
       50
176
     1
290
     0
176
     1
 90
       50
176
     1
 62
   256
176
     0
 40
1.0
176
     0
 90
        2
176
     1
  1
strokes_ogs.tif
176
     1
290
     0
176
     1
 40
1.0
176
     1
 40
1.0
176
     1
1001
ACAD
1000
AcDbSavedByObjectVersion
1070
     0
  0
VISUALSTYLE
  5
36
102
{ACAD_REACTORS
330
29
102
}
330
29
100
AcDbVisualStyle
  2

 70
    13
177
     3
291
     1
 70
    58
 90
        2
176
     1
 90
        2
176
     1
 90
        0
176
     1
 90
        0
176
     1
 40
0.6
176
     1
 40
30.0
176
     1
 62
     7
176
     1
 90
        1
176
     1
 90
        4
176
     1
 62
     7
176
     1
 62
   257
176
     1
 90
        1
176
     1
 90
        1
176
     1
 40
1.0
176
     1
 90
       12
176
     1
 62
     7
176
     1
 40
1.0
176
     1
 90
        1
176
     1
 90
        6
176
     1
 90
        2
176
     1
 62
     7
176
     1
 90
        5
176
     1
 90
        0
176
     1
 90
        0
176
     1
290
     0
176
     1
 90
        1
176
     1
 40
0.0
176
     1
 90
        0
176
     1
290
     0
176
     1
290
     1
176
     1
290
     1
176
     1
290
     0
176
     1
290
     0
176
     1
290
     0
176
     1
290
     0
176
     1
290
     0
176
     1
290
     0
176
     1
 90
       50
176
     1
 40
0.0
176
     1
 40
1.0
176
     1
 90
        0
176
     1
 62
    18
420
        0
176
     1
 90
       50
176
     1
 90
        3
176
     1
 62
     5
420
      255
176
     1
290
     0
176
     1
 90
       50
176
     1
 90
       50
176
     1
 90
       50
176
     1
290
     0
176
     1
 90
       50
176
     1
 62
   256
176
     0
 40
1.0
176
     0
 90
        2
176
     1
  1
strokes_ogs.tif
176
     1
290
     0
176
     1
 40
1.0
176
     1
 40
1.0
176
     1
1001
ACAD
1000
AcDbSavedByObjectVersion
1070
     0
  0
VISUALSTYLE
  5
30
102
{ACAD_REACTORS
330
29
102
}
330
29
100
AcDbVisualStyle
  2

 70
     5
177
     3
291
     0
 70
    58
 90
        0
176
     1
 90
        2
176
     1
 90
        0
176
     1
 90
        0
176
     1
 40
0.6
176
     1
 40
30.0
176
     1
 62
     7
176
     1
 90
        1
176
     1
 90
        4
176
     1
 62
     7
176
     1
 62
   257
176
     1
 90
        1
176
     1
 90
        1
176
     1
 40
1.0
176
     1
 90
        0
176
     1
 62
   257
176
     1
 40
1.0
176
     1
 90
        1
176
     1
 90
        6
176
     1
 90
        2
176
     1
 62
     7
176
     1
 90
        3
176
     1
 90
        0
176
     1
 90
        0
176
     1
290
     0
176
     1
 90
        1
176
     1
 40
0.0
176
     1
 90
        0
176
     1
290
     0
176
     1
290
     1
176
     1
290
     1
176
     1
290
     0
176
     1
290
     0
176
     1
290
     0
176
     1
290
     0
176
     1
290
     0
176
     1
290
     0
176
     1
 90
       50
176
     1
 40
0.0
176
     1
 40
1.0
176
     1
 90
        0
176
     1
 62
    18
420
        0
176
     1
 90
       50
176
     1
 90
        3
176
     1
 62
     5
420
      255
176
     1
290
     0
176
     1
 90
       50
176
     1
 90
       50
176
     1
 90
       50
176
     1
290
     0
176
     1
 90
       50
176
     1
 62
   256
176
     0
 40
1.0
176
     0
 90
        2
176
     1
  1
strokes_ogs.tif
176
     1
290
     0
176
     1
 40
1.0
176
     1
 40
1.0
176
     1
1001
ACAD
1000
AcDbSavedByObjectVersion
1070
     0
  0
VISUALSTYLE
  5
3C
102
{ACAD_REACTORS
330
29
102
}
330
29
100
AcDbVisualStyle
  2

 70
    25
177
     3
291
     0
 70
    58
 90
        2
176
     1
 90
        2
176
     1
 90
        1
176
     1
 90
        1
176
     1
 40
0.5
176
     1
 40
30.0
176
     1
 62
     7
176
     1
 90
        1
176
     1
 90
        0
176
     1
 62
     7
176
     1
 62
   257
176
     1
 90
        1
176
     1
 90
        1
176
     1
 40
1.0
176
     1
 90
        8
176
     1
 62
     7
176
     1
 40
1.0
176
     1
 90
        1
176
     1
 90
        6
176
     1
 90
        2
176
     1
 62
     7
176
     1
 90
        3
176
     1
 90
        0
176
     1
 90
        0
176
     1
290
     0
176
     1
 90
       13
176
     1
 40
0.0
176
     1
 90
        0
176
     1
290
     0
176
     1
290
     1
176
     1
290
     1
176
     1
290
     0
176
     1
290
     0
176
     1
290
     0
176
     1
290
     0
176
     1
290
     0
176
     1
290
     0
176
     1
 90
       50
176
     1
 40
0.0
176
     1
 40
1.0
176
     1
 90
        0
176
     1
 62
    18
420
        0
176
     1
 90
       50
176
     1
 90
        3
176
     1
 62
     5
420
      255
176
     1
290
     0
176
     1
 90
       50
176
     1
 90
       50
176
     1
 90
       50
176
     1
290
     0
176
     1
 90
       50
176
     1
 62
   256
176
     0
 40
1.0
176
     0
 90
        2
176
     1
  1
strokes_ogs.tif
176
     1
290
     0
176
     1
 40
1.0
176
     1
 40
1.0
176
     1
1001
ACAD
1000
AcDbSavedByObjectVersion
1070
     0
  0
DICTIONARYVAR
  5
69A
102
{ACAD_REACTORS
330
695
102
}
330
695
100
DictionaryVariables
280
     0
  1
1:1
  0
DICTIONARYVAR
  5
697
102
{ACAD_REACTORS
330
695
102
}
330
695
100
DictionaryVariables
280
     0
  1
STANDARD
  0
DICTIONARYVAR
  5
696
102
{ACAD_REACTORS
330
695
102
}
330
695
100
DictionaryVariables
280
     0
  1
STANDARD
  0
DICTIONARYVAR
  5
698
102
{ACAD_REACTORS
330
695
102
}
330
695
100
DictionaryVariables
280
     0
  1
Imperial24
  0
DICTIONARYVAR
  5
699
102
{ACAD_REACTORS
330
695
102
}
330
695
100
DictionaryVariables
280
     0
  1
Imperial24
  0
DICTIONARYVAR
  5
69D
102
{ACAD_REACTORS
330
695
102
}
330
695
100
DictionaryVariables
280
     0
  1
1
  0
DICTIONARYVAR
  5
69C
102
{ACAD_REACTORS
330
695
102
}
330
695
100
DictionaryVariables
280
     0
  1
0
  0
DICTIONARYVAR
  5
775
102
{ACAD_REACTORS
330
695
102
}
330
695
100
DictionaryVariables
280
     0
  1
1
  0
DICTIONARYVAR
  5
776
102
{ACAD_REACTORS
330
695
102
}
330
695
100
DictionaryVariables
280
     0
  1
15
  0
DICTIONARYVAR
  5
774
102
{ACAD_REACTORS
330
695
102
}
330
695
100
DictionaryVariables
280
     0
  1
0
  0
DICTIONARYVAR
  5
773
102
{ACAD_REACTORS
330
695
102
}
330
695
100
DictionaryVariables
280
     0
  1
0
  0
DICTIONARYVAR
  5
69B
102
{ACAD_REACTORS
330
695
102
}
330
695
100
DictionaryVariables
280
     0
  1
127
  0
DICTIONARY
  5
1A
330
19
100
AcDbDictionary
280
     1
281
     1
  3
ACAD_XREC_ROUNDTRIP
360
6A5
  3
BUMPTILE
360
1C
  3
DIFFUSETILE
360
1B
  3
OPACITYTILE
360
1F
  3
REFLECTIONTILE
360
1E
  3
REFRACTIONTILE
360
20
  3
SPECULARTILE
360
1D
  0
DICTIONARY
  5
12
330
11
100
AcDbDictionary
280
     1
281
     1
  3
ACAD_XREC_ROUNDTRIP
360
6A4
  3
BUMPTILE
360
14
  3
DIFFUSETILE
360
13
  3
OPACITYTILE
360
17
  3
REFLECTIONTILE
360
16
  3
REFRACTIONTILE
360
18
  3
SPECULARTILE
360
15
  0
DICTIONARY
  5
22
330
21
100
AcDbDictionary
280
     1
281
     1
  3
ACAD_XREC_ROUNDTRIP
360
6A6
  3
BUMPTILE
360
24
  3
DIFFUSETILE
360
23
  3
OPACITYTILE
360
27
  3
REFLECTIONTILE
360
26
  3
REFRACTIONTILE
360
28
  3
SPECULARTILE
360
25
  0
DICTIONARY
  5
6A0
330
64
100
AcDbDictionary
280
     1
281
     1
  3
ACAD_ROUNDTRIP_2008_TABLESTYLE_CELLSTYLEMAP
360
777
  0
XRECORD
  5
6A5
102
{ACAD_REACTORS
330
1A
102
}
330
1A
100
AcDbXrecord
280
     1
102
MATERIAL
148
0.0
149
0.0
149
0.0
 93
        0
 94
      127
282
     0
 72
     0
 77
     0
171
     0
175
     0
179
     0
273
     0
  0
XRECORD
  5
1C
102
{ACAD_REACTORS
330
1A
102
}
330
1A
100
AcDbXrecord
280
     1
270
     1
271
     1
  0
XRECORD
  5
1B
102
{ACAD_REACTORS
330
1A
102
}
330
1A
100
AcDbXrecord
280
     1
270
     1
271
     1
  0
XRECORD
  5
1F
102
{ACAD_REACTORS
330
1A
102
}
330
1A
100
AcDbXrecord
280
     1
270
     1
271
     1
  0
XRECORD
  5
1E
102
{ACAD_REACTORS
330
1A
102
}
330
1A
100
AcDbXrecord
280
     1
270
     1
271
     1
  0
XRECORD
  5
20
102
{ACAD_REACTORS
330
1A
102
}
330
1A
100
AcDbXrecord
280
     1
270
     1
271
     1
  0
XRECORD
  5
1D
102
{ACAD_REACTORS
330
1A
102
}
330
1A
100
AcDbXrecord
280
     1
270
     1
271
     1
  0
XRECORD
  5
6A4
102
{ACAD_REACTORS
330
12
102
}
330
12
100
AcDbXrecord
280
     1
102
MATERIAL
148
0.0
149
0.0
149
0.0
 93
        0
 94
      127
282
     0
 72
     0
 77
     0
171
     0
175
     0
179
     0
273
     0
  0
XRECORD
  5
14
102
{ACAD_REACTORS
330
12
102
}
330
12
100
AcDbXrecord
280
     1
270
     1
271
     1
  0
XRECORD
  5
13
102
{ACAD_REACTORS
330
12
102
}
330
12
100
AcDbXrecord
280
     1
270
     1
271
     1
  0
XRECORD
  5
17
102
{ACAD_REACTORS
330
12
102
}
330
12
100
AcDbXrecord
280
     1
270
     1
271
     1
  0
XRECORD
  5
16
102
{ACAD_REACTORS
330
12
102
}
330
12
100
AcDbXrecord
280
     1
270
     1
271
     1
  0
XRECORD
  5
18
102
{ACAD_REACTORS
330
12
102
}
330
12
100
AcDbXrecord
280
     1
270
     1
271
     1
  0
XRECORD
  5
15
102
{ACAD_REACTORS
330
12
102
}
330
12
100
AcDbXrecord
280
     1
270
     1
271
     1
  0
XRECORD
  5
6A6
102
{ACAD_REACTORS
330
22
102
}
330
22
100
AcDbXrecord
280
     1
102
MATERIAL
148
0.0
149
0.0
149
0.0
 93
        0
 94
      127
282
     0
 72
     0
 77
     0
171
     0
175
     0
179
     0
273
     0
  0
XRECORD
  5
24
102
{ACAD_REACTORS
330
22
102
}
330
22
100
AcDbXrecord
280
     1
270
     1
271
     1
  0
XRECORD
  5
23
102
{ACAD_REACTORS
330
22
102
}
330
22
100
AcDbXrecord
280
     1
270
     1
271
     1
  0
XRECORD
  5
27
102
{ACAD_REACTORS
330
22
102
}
330
22
100
AcDbXrecord
280
     1
270
     1
271
     1
  0
XRECORD
  5
26
102
{ACAD_REACTORS
330
22
102
}
330
22
100
AcDbXrecord
280
     1
270
     1
271
     1
  0
XRECORD
  5
28
102
{ACAD_REACTORS
330
22
102
}
330
22
100
AcDbXrecord
280
     1
270
     1
271
     1
  0
XRECORD
  5
25
102
{ACAD_REACTORS
330
22
102
}
330
22
100
AcDbXrecord
280
     1
270
     1
271
     1
  0
CELLSTYLEMAP
  5
777
102
{ACAD_REACTORS
330
6A0
102
}
330
6A0
100
AcDbCellStyleMap
 90
        3
300
CELLSTYLE
  1
TABLEFORMAT_BEGIN
 90
        5
170
     1
 91
        0
 92
    32768
 62
   257
 93
        1
300
CONTENTFORMAT
  1
CONTENTFORMAT_BEGIN
 90
        0
 91
        0
 92
      512
 93
        0
300

 40
0.0
140
1.0
 94
        5
 62
     0
340
55
144
0.25
309
CONTENTFORMAT_END
171
     1
301
MARGIN
  1
CELLMARGIN_BEGIN
 40
0.06
 40
0.06
 40
0.06
 40
0.06
 40
0.18
 40
0.18
309
CELLMARGIN_END
 94
        6
 95
        1
302
GRIDFORMAT
  1
GRIDFORMAT_BEGIN
 90
        0
 91
        1
 62
     0
 92
       -2
340
0
 93
        0
 40
0.045
309
GRIDFORMAT_END
 95
        2
302
GRIDFORMAT
  1
GRIDFORMAT_BEGIN
 90
        0
 91
        1
 62
     0
 92
       -2
340
0
 93
        0
 40
0.045
309
GRIDFORMAT_END
 95
        4
302
GRIDFORMAT
  1
GRIDFORMAT_BEGIN
 90
        0
 91
        1
 62
     0
 92
       -2
340
0
 93
        0
 40
0.045
309
GRIDFORMAT_END
 95
        8
302
GRIDFORMAT
  1
GRIDFORMAT_BEGIN
 90
        0
 91
        1
 62
     0
 92
       -2
340
0
 93
        0
 40
0.045
309
GRIDFORMAT_END
 95
       16
302
GRIDFORMAT
  1
GRIDFORMAT_BEGIN
 90
        0
 91
        1
 62
     0
 92
       -2
340
0
 93
        0
 40
0.045
309
GRIDFORMAT_END
 95
       32
302
GRIDFORMAT
  1
GRIDFORMAT_BEGIN
 90
        0
 91
        1
 62
     0
 92
       -2
340
0
 93
        0
 40
0.045
309
GRIDFORMAT_END
309
TABLEFORMAT_END
  1
CELLSTYLE_BEGIN
 90
        1
 91
        1
300
_TITLE
309
CELLSTYLE_END
300
CELLSTYLE
  1
TABLEFORMAT_BEGIN
 90
        5
170
     1
 91
        0
 92
        0
 62
   257
 93
        1
300
CONTENTFORMAT
  1
CONTENTFORMAT_BEGIN
 90
        0
 91
        0
 92
      512
 93
        0
300

 40
0.0
140
1.0
 94
        5
 62
     0
340
55
144
0.18
309
CONTENTFORMAT_END
171
     1
301
MARGIN
  1
CELLMARGIN_BEGIN
 40
0.06
 40
0.06
 40
0.06
 40
0.06
 40
0.18
 40
0.18
309
CELLMARGIN_END
 94
        6
 95
        1
302
GRIDFORMAT
  1
GRIDFORMAT_BEGIN
 90
        0
 91
        1
 62
     0
 92
       -2
340
0
 93
        0
 40
0.045
309
GRIDFORMAT_END
 95
        2
302
GRIDFORMAT
  1
GRIDFORMAT_BEGIN
 90
        0
 91
        1
 62
     0
 92
       -2
340
0
 93
        0
 40
0.045
309
GRIDFORMAT_END
 95
        4
302
GRIDFORMAT
  1
GRIDFORMAT_BEGIN
 90
        0
 91
        1
 62
     0
 92
       -2
340
0
 93
        0
 40
0.045
309
GRIDFORMAT_END
 95
        8
302
GRIDFORMAT
  1
GRIDFORMAT_BEGIN
 90
        0
 91
        1
 62
     0
 92
       -2
340
0
 93
        0
 40
0.045
309
GRIDFORMAT_END
 95
       16
302
GRIDFORMAT
  1
GRIDFORMAT_BEGIN
 90
        0
 91
        1
 62
     0
 92
       -2
340
0
 93
        0
 40
0.045
309
GRIDFORMAT_END
 95
       32
302
GRIDFORMAT
  1
GRIDFORMAT_BEGIN
 90
        0
 91
        1
 62
     0
 92
       -2
340
0
 93
        0
 40
0.045
309
GRIDFORMAT_END
309
TABLEFORMAT_END
  1
CELLSTYLE_BEGIN
 90
        2
 91
        1
300
_HEADER
309
CELLSTYLE_END
300
CELLSTYLE
  1
TABLEFORMAT_BEGIN
 90
        5
170
     1
 91
        0
 92
        0
 62
   257
 93
        1
300
CONTENTFORMAT
  1
CONTENTFORMAT_BEGIN
 90
        0
 91
        0
 92
      512
 93
        0
300

 40
0.0
140
1.0
 94
        2
 62
     0
340
55
144
0.18
309
CONTENTFORMAT_END
171
     1
301
MARGIN
  1
CELLMARGIN_BEGIN
 40
0.06
 40
0.06
 40
0.06
 40
0.06
 40
0.18
 40
0.18
309
CELLMARGIN_END
 94
        6
 95
        1
302
GRIDFORMAT
  1
GRIDFORMAT_BEGIN
 90
        0
 91
        1
 62
     0
 92
       -2
340
0
 93
        0
 40
0.045
309
GRIDFORMAT_END
 95
        2
302
GRIDFORMAT
  1
GRIDFORMAT_BEGIN
 90
        0
 91
        1
 62
     0
 92
       -2
340
0
 93
        0
 40
0.045
309
GRIDFORMAT_END
 95
        4
302
GRIDFORMAT
  1
GRIDFORMAT_BEGIN
 90
        0
 91
        1
 62
     0
 92
       -2
340
0
 93
        0
 40
0.045
309
GRIDFORMAT_END
 95
        8
302
GRIDFORMAT
  1
GRIDFORMAT_BEGIN
 90
        0
 91
        1
 62
     0
 92
       -2
340
0
 93
        0
 40
0.045
309
GRIDFORMAT_END
 95
       16
302
GRIDFORMAT
  1
GRIDFORMAT_BEGIN
 90
        0
 91
        1
 62
     0
 92
       -2
340
0
 93
        0
 40
0.045
309
GRIDFORMAT_END
 95
       32
302
GRIDFORMAT
  1
GRIDFORMAT_BEGIN
 90
        0
 91
        1
 62
     0
 92
       -2
340
0
 93
        0
 40
0.045
309
GRIDFORMAT_END
309
TABLEFORMAT_END
  1
CELLSTYLE_BEGIN
 90
        3
 91
        2
300
_DATA
309
CELLSTYLE_END
  0
ENDSEC
  0
EOF
