  0
SECTION
  2
HEADER
  9
$ACADVER
  1
AC1032
  9
$ACADMAINTVER
 90
      197
  9
$DWGCODEPAGE
  3
ANSI_932
  9
$LASTSAVEDBY
  1
hiro-ichiyama
  9
$REQUIREDVERSIONS
160
                 0
  9
$INSBASE
 10
0.0
 20
0.0
 30
0.0
  9
$EXTMIN
 10
33.25789717601344
 20
27.52034515181315
 30
0.0
  9
$EXTMAX
 10
793.5966754467925
 20
574.6750674359868
 30
0.0
  9
$LIMMIN
 10
0.0
 20
0.0
  9
$LIMMAX
 10
594.0
 20
841.0
  9
$ORTHOMODE
 70
     0
  9
$REGENMODE
 70
     1
  9
$FILLMODE
 70
     1
  9
$QTEXTMODE
 70
     0
  9
$MIRRTEXT
 70
     0
  9
$LTSCALE
 40
20.0
  9
$ATTMODE
 70
     1
  9
$TEXTSIZE
 40
4.0
  9
$TRACEWID
 40
0.05
  9
$TEXTSTYLE
  7
STANDARD
  9
$CLAYER
  8
0
  9
$CELTYPE
  6
CONTINUOUS
  9
$CECOLOR
 62
   256
  9
$CELTSCALE
 40
1.0
  9
$DISPSILH
 70
     0
  9
$DIMSCALE
 40
1.0
  9
$DIMASZ
 40
1.0
  9
$DIMEXO
 40
0.8
  9
$DIMDLI
 40
0.38
  9
$DIMRND
 40
0.0
  9
$DIMDLE
 40
0.0
  9
$DIMEXE
 40
2.0
  9
$DIMTP
 40
0.0
  9
$DIMTM
 40
0.0
  9
$DIMTXT
 40
3.1
  9
$DIMCEN
 40
0.09
  9
$DIMTSZ
 40
0.0
  9
$DIMTOL
 70
     0
  9
$DIMLIM
 70
     0
  9
$DIMTIH
 70
     0
  9
$DIMTOH
 70
     0
  9
$DIMSE1
 70
     0
  9
$DIMSE2
 70
     0
  9
$DIMTAD
 70
     1
  9
$DIMZIN
 70
     0
  9
$DIMBLK
  1

  9
$DIMASO
 70
     1
  9
$DIMSHO
 70
     1
  9
$DIMPOST
  1

  9
$DIMAPOST
  1

  9
$DIMALT
 70
     0
  9
$DIMALTD
 70
     2
  9
$DIMALTF
 40
25.4
  9
$DIMLFAC
 40
1.0
  9
$DIMTOFL
 70
     0
  9
$DIMTVP
 40
0.5
  9
$DIMTIX
 70
     0
  9
$DIMSOXD
 70
     0
  9
$DIMSAH
 70
     0
  9
$DIMBLK1
  1

  9
$DIMBLK2
  1

  9
$DIMSTYLE
  2
Standard
  9
$DIMCLRD
 70
     0
  9
$DIMCLRE
 70
     0
  9
$DIMCLRT
 70
     0
  9
$DIMTFAC
 40
1.0
  9
$DIMGAP
 40
0.09
  9
$DIMJUST
 70
     0
  9
$DIMSD1
 70
     0
  9
$DIMSD2
 70
     0
  9
$DIMTOLJ
 70
     1
  9
$DIMTZIN
 70
     0
  9
$DIMALTZ
 70
     0
  9
$DIMALTTZ
 70
     0
  9
$DIMUPT
 70
     0
  9
$DIMDEC
 70
     4
  9
$DIMTDEC
 70
     4
  9
$DIMALTU
 70
     2
  9
$DIMALTTD
 70
     2
  9
$DIMTXSTY
  7
STANDARD
  9
$DIMAUNIT
 70
     0
  9
$DIMADEC
 70
     0
  9
$DIMALTRND
 40
0.0
  9
$DIMAZIN
 70
     0
  9
$DIMDSEP
 70
    46
  9
$DIMATFIT
 70
     3
  9
$DIMFRAC
 70
     0
  9
$DIMLDRBLK
  1

  9
$DIMLUNIT
 70
     2
  9
$DIMLWD
 70
    -2
  9
$DIMLWE
 70
    -2
  9
$DIMTMOVE
 70
     0
  9
$DIMFXL
 40
1.0
  9
$DIMFXLON
 70
     0
  9
$DIMJOGANG
 40
0.7853981633974483
  9
$DIMTFILL
 70
     0
  9
$DIMTFILLCLR
 70
     0
  9
$DIMARCSYM
 70
     0
  9
$DIMLTYPE
  6

  9
$DIMLTEX1
  6

  9
$DIMLTEX2
  6

  9
$DIMTXTDIRECTION
 70
     0
  9
$LUNITS
 70
     2
  9
$LUPREC
 70
     4
  9
$SKETCHINC
 40
0.1
  9
$FILLETRAD
 40
0.0
  9
$AUNITS
 70
     0
  9
$AUPREC
 70
     0
  9
$MENU
  1
.
  9
$ELEVATION
 40
0.0
  9
$PELEVATION
 40
0.0
  9
$THICKNESS
 40
0.0
  9
$LIMCHECK
 70
     0
  9
$CHAMFERA
 40
0.0
  9
$CHAMFERB
 40
0.0
  9
$CHAMFERC
 40
0.0
  9
$CHAMFERD
 40
0.0
  9
$SKPOLY
 70
     0
  9
$TDCREATE
 40
2459010.395474537
  9
$TDUCREATE
 40
2459010.020474537
  9
$TDUPDATE
 40
2459991.670694444
  9
$TDUUPDATE
 40
2459991.295694444
  9
$TDINDWG
 40
0.0049189815
  9
$TDUSRTIMER
 40
0.0049189815
  9
$USRTIMER
 70
     1
  9
$ANGBASE
 50
0.0
  9
$ANGDIR
 70
     0
  9
$PDMODE
 70
     0
  9
$PDSIZE
 40
0.0
  9
$PLINEWID
 40
0.0
  9
$SPLFRAME
 70
     0
  9
$SPLINETYPE
 70
     6
  9
$SPLINESEGS
 70
     8
  9
$HANDSEED
  5
5AC
  9
$SURFTAB1
 70
     6
  9
$SURFTAB2
 70
     6
  9
$SURFTYPE
 70
     6
  9
$SURFU
 70
     6
  9
$SURFV
 70
     6
  9
$UCSBASE
  2

  9
$UCSNAME
  2

  9
$UCSORG
 10
0.0
 20
0.0
 30
0.0
  9
$UCSXDIR
 10
1.0
 20
0.0
 30
0.0
  9
$UCSYDIR
 10
0.0
 20
1.0
 30
0.0
  9
$UCSORTHOREF
  2

  9
$UCSORTHOVIEW
 70
     0
  9
$UCSORGTOP
 10
0.0
 20
0.0
 30
0.0
  9
$UCSORGBOTTOM
 10
0.0
 20
0.0
 30
0.0
  9
$UCSORGLEFT
 10
0.0
 20
0.0
 30
0.0
  9
$UCSORGRIGHT
 10
0.0
 20
0.0
 30
0.0
  9
$UCSORGFRONT
 10
0.0
 20
0.0
 30
0.0
  9
$UCSORGBACK
 10
0.0
 20
0.0
 30
0.0
  9
$PUCSBASE
  2

  9
$PUCSNAME
  2

  9
$PUCSORG
 10
0.0
 20
0.0
 30
0.0
  9
$PUCSXDIR
 10
1.0
 20
0.0
 30
0.0
  9
$PUCSYDIR
 10
0.0
 20
1.0
 30
0.0
  9
$PUCSORTHOREF
  2

  9
$PUCSORTHOVIEW
 70
     0
  9
$PUCSORGTOP
 10
0.0
 20
0.0
 30
0.0
  9
$PUCSORGBOTTOM
 10
0.0
 20
0.0
 30
0.0
  9
$PUCSORGLEFT
 10
0.0
 20
0.0
 30
0.0
  9
$PUCSORGRIGHT
 10
0.0
 20
0.0
 30
0.0
  9
$PUCSORGFRONT
 10
0.0
 20
0.0
 30
0.0
  9
$PUCSORGBACK
 10
0.0
 20
0.0
 30
0.0
  9
$USERI1
 70
     0
  9
$USERI2
 70
     0
  9
$USERI3
 70
     0
  9
$USERI4
 70
     0
  9
$USERI5
 70
     0
  9
$USERR1
 40
0.0
  9
$USERR2
 40
0.0
  9
$USERR3
 40
0.0
  9
$USERR4
 40
0.0
  9
$USERR5
 40
0.0
  9
$WORLDVIEW
 70
     1
  9
$SHADEDGE
 70
     3
  9
$SHADEDIF
 70
    70
  9
$TILEMODE
 70
     1
  9
$MAXACTVP
 70
    64
  9
$PINSBASE
 10
0.0
 20
0.0
 30
0.0
  9
$PLIMCHECK
 70
     0
  9
$PEXTMIN
 10
1.000000000000000E+20
 20
1.000000000000000E+20
 30
1.000000000000000E+20
  9
$PEXTMAX
 10
-1.000000000000000E+20
 20
-1.000000000000000E+20
 30
-1.000000000000000E+20
  9
$PLIMMIN
 10
0.0
 20
0.0
  9
$PLIMMAX
 10
12.0
 20
9.0
  9
$UNITMODE
 70
     0
  9
$VISRETAIN
 70
     1
  9
$PLINEGEN
 70
     0
  9
$PSLTSCALE
 70
     1
  9
$TREEDEPTH
 70
  3020
  9
$CMLSTYLE
  2
Standard
  9
$CMLJUST
 70
     0
  9
$CMLSCALE
 40
1.0
  9
$PROXYGRAPHICS
 70
     1
  9
$MEASUREMENT
 70
     1
  9
$CELWEIGHT
370
    -1
  9
$ENDCAPS
280
     0
  9
$JOINSTYLE
280
     0
  9
$LWDISPLAY
290
     0
  9
$INSUNITS
 70
     0
  9
$HYPERLINKBASE
  1

  9
$STYLESHEET
  1

  9
$XEDIT
290
     1
  9
$CEPSNTYPE
380
     0
  9
$PSTYLEMODE
290
     1
  9
$FINGERPRINTGUID
  2
{EE19E8DF-505F-4D4C-BDC9-BD2B1BA81F20}
  9
$VERSIONGUID
  2
{9A2B8655-67F5-1A43-9658-72B48EC92060}
  9
$EXTNAMES
290
     1
  9
$PSVPSCALE
 40
0.0
  9
$OLESTARTUP
290
     0
  9
$SORTENTS
280
   127
  9
$INDEXCTL
280
     0
  9
$HIDETEXT
280
     0
  9
$XCLIPFRAME
280
     2
  9
$HALOGAP
280
     0
  9
$OBSCOLOR
 70
   257
  9
$OBSLTYPE
280
     0
  9
$INTERSECTIONDISPLAY
280
     0
  9
$INTERSECTIONCOLOR
 70
   257
  9
$DIMASSOC
280
     1
  9
$PROJECTNAME
  1

  9
$CAMERADISPLAY
290
     0
  9
$LENSLENGTH
 40
50.0
  9
$CAMERAHEIGHT
 40
0.0
  9
$STEPSPERSEC
 40
2.0
  9
$STEPSIZE
 40
6.0
  9
$3DDWFPREC
 40
2.0
  9
$PSOLWIDTH
 40
0.25
  9
$PSOLHEIGHT
 40
4.0
  9
$LOFTANG1
 40
1.570796326794896
  9
$LOFTANG2
 40
1.570796326794896
  9
$LOFTMAG1
 40
0.0
  9
$LOFTMAG2
 40
0.0
  9
$LOFTPARAM
 70
     7
  9
$LOFTNORMALS
280
     1
  9
$LATITUDE
 40
37.795
  9
$LONGITUDE
 40
-122.394
  9
$NORTHDIRECTION
 40
0.0
  9
$TIMEZONE
 70
 -8000
  9
$LIGHTGLYPHDISPLAY
280
     1
  9
$TILEMODELIGHTSYNCH
280
     1
  9
$CMATERIAL
347
11
  9
$SOLIDHIST
280
     0
  9
$SHOWHIST
280
     1
  9
$DWFFRAME
280
     2
  9
$DGNFRAME
280
     0
  9
$REALWORLDSCALE
290
     1
  9
$INTERFERECOLOR
 62
     1
  9
$INTERFEREOBJVS
345
33
  9
$INTERFEREVPVS
346
30
  9
$CSHADOW
280
     0
  9
$SHADOWPLANELOCATION
 40
0.0
  0
ENDSEC
  0
SECTION
  2
CLASSES
  0
CLASS
  1
ACDBDICTIONARYWDFLT
  2
AcDbDictionaryWithDefault
  3
ObjectDBX Classes
 90
        0
 91
        1
280
     0
281
     0
  0
CLASS
  1
MATERIAL
  2
AcDbMaterial
  3
ObjectDBX Classes
 90
     1153
 91
        3
280
     0
281
     0
  0
CLASS
  1
VISUALSTYLE
  2
AcDbVisualStyle
  3
ObjectDBX Classes
 90
     4095
 91
       24
280
     0
281
     0
  0
CLASS
  1
SCALE
  2
AcDbScale
  3
ObjectDBX Classes
 90
     1153
 91
       17
280
     0
281
     0
  0
CLASS
  1
TABLESTYLE
  2
AcDbTableStyle
  3
ObjectDBX Classes
 90
     4095
 91
        1
280
     0
281
     0
  0
CLASS
  1
MLEADERSTYLE
  2
AcDbMLeaderStyle
  3
ACDB_MLEADERSTYLE_CLASS
 90
     4095
 91
        1
280
     0
281
     0
  0
CLASS
  1
ACDBSECTIONVIEWSTYLE
  2
AcDbSectionViewStyle
  3
ObjectDBX Classes
 90
     1025
 91
        2
280
     0
281
     0
  0
CLASS
  1
ACDBDETAILVIEWSTYLE
  2
AcDbDetailViewStyle
  3
ObjectDBX Classes
 90
     1025
 91
        2
280
     0
281
     0
  0
CLASS
  1
DICTIONARYVAR
  2
AcDbDictionaryVar
  3
ObjectDBX Classes
 90
        0
 91
       13
280
     0
281
     0
  0
CLASS
  1
CELLSTYLEMAP
  2
AcDbCellStyleMap
  3
ObjectDBX Classes
 90
     1152
 91
        2
280
     0
281
     0
  0
ENDSEC
  0
SECTION
  2
TABLES
  0
TABLE
  2
VPORT
  5
8
330
0
100
AcDbSymbolTable
 70
     1
  0
VPORT
  5
84
330
8
100
AcDbSymbolTableRecord
100
AcDbViewportTableRecord
  2
*Active
 70
     0
 10
0.0
 20
0.0
 11
1.0
 21
1.0
 12
452.6250500640148
 22
284.7509723029073
 13
0.0
 23
0.0
 14
1.0
 24
1.0
 15
0.0
 25
0.0
 16
0.0
 26
0.0
 36
1.0
 17
0.0
 27
0.0
 37
0.0
 40
596.1078891178313
 41
2.295757575757575
 42
50.0
 43
0.0
 44
0.0
 50
0.0
 51
0.0
 71
     0
 72
   100
 73
     1
 74
     0
 75
     1
 76
     0
 77
     0
 78
     0
281
     0
 65
     1
110
0.0
120
0.0
130
0.0
111
1.0
121
0.0
131
0.0
112
0.0
122
1.0
132
0.0
 79
     0
146
0.0
348
2F
 60
     3
 61
     5
292
     1
282
     1
141
0.0
142
0.0
 63
   250
421
  3355443
1001
ACAD_NAV_VCDISPLAY
1070
     3
  0
ENDTAB
  0
TABLE
  2
LTYPE
  5
5
330
0
100
AcDbSymbolTable
 70
     4
  0
LTYPE
  5
5A
330
5
100
AcDbSymbolTableRecord
100
AcDbLinetypeTableRecord
  2
ByBlock
 70
     0
  3

 72
    65
 73
     0
 40
0.0
  0
LTYPE
  5
5B
330
5
100
AcDbSymbolTableRecord
100
AcDbLinetypeTableRecord
  2
ByLayer
 70
     0
  3

 72
    65
 73
     0
 40
0.0
  0
LTYPE
  5
5C
330
5
100
AcDbSymbolTableRecord
100
AcDbLinetypeTableRecord
  2
CONTINUOUS
 70
     0
  3
Solid line (NEC CAE2D for Win R14.2 : 2018.11.21)
 72
    65
 73
     0
 40
0.0
  0
LTYPE
  5
73
330
5
100
AcDbSymbolTableRecord
100
AcDbLinetypeTableRecord
  2
HIDDEN
 70
     0
  3
__ __ __ __ __ __ __ __ __ __ __ __ __ __
 72
    65
 73
     2
 40
0.375
 49
0.25
 74
     0
 49
-0.125
 74
     0
  0
LTYPE
  5
74
330
5
100
AcDbSymbolTableRecord
100
AcDbLinetypeTableRecord
  2
CENTER
 70
     0
  3
____ _ ____ _ ____ _ ____ _ ____ _ ____
 72
    65
 73
     4
 40
2.0
 49
1.25
 74
     0
 49
-0.25
 74
     0
 49
0.25
 74
     0
 49
-0.25
 74
     0
  0
ENDTAB
  0
TABLE
  2
LAYER
  5
2
330
0
100
AcDbSymbolTable
 70
     8
  0
LAYER
  5
54
102
{ACAD_XDICTIONARY
360
53F
102
}
330
2
100
AcDbSymbolTableRecord
100
AcDbLayerTableRecord
  2
0
 70
     0
 62
     7
  6
CONTINUOUS
370
    -3
390
F
347
21
348
0
  0
LAYER
  5
76
102
{ACAD_XDICTIONARY
360
541
102
}
330
2
100
AcDbSymbolTableRecord
100
AcDbLayerTableRecord
  2
LOUVER
 70
     0
 62
     4
  6
CONTINUOUS
370
    -3
390
F
347
21
348
0
  0
LAYER
  5
77
102
{ACAD_XDICTIONARY
360
543
102
}
330
2
100
AcDbSymbolTableRecord
100
AcDbLayerTableRecord
  2
UKEZAI
 70
     0
 62
     5
  6
CONTINUOUS
370
    -3
390
F
347
21
348
0
  0
LAYER
  5
78
102
{ACAD_XDICTIONARY
360
545
102
}
330
2
100
AcDbSymbolTableRecord
100
AcDbLayerTableRecord
  2
ANCHOR
 70
     0
 62
     2
  6
CONTINUOUS
370
    -3
390
F
347
21
348
0
  0
LAYER
  5
79
102
{ACAD_XDICTIONARY
360
547
102
}
330
2
100
AcDbSymbolTableRecord
100
AcDbLayerTableRecord
  2
KUTAI
 70
     0
 62
     6
  6
CONTINUOUS
370
    -3
390
F
347
21
348
0
  0
LAYER
  5
7A
102
{ACAD_XDICTIONARY
360
549
102
}
330
2
100
AcDbSymbolTableRecord
100
AcDbLayerTableRecord
  2
WASHER
 70
     0
 62
     2
  6
CONTINUOUS
370
    -3
390
F
347
21
348
0
  0
LAYER
  5
7B
102
{ACAD_XDICTIONARY
360
54B
102
}
330
2
100
AcDbSymbolTableRecord
100
AcDbLayerTableRecord
  2
COMMENT
 70
     0
 62
     3
  6
CONTINUOUS
370
    -3
390
F
347
21
348
0
  0
LAYER
  5
7C
102
{ACAD_XDICTIONARY
360
54D
102
}
330
2
100
AcDbSymbolTableRecord
100
AcDbLayerTableRecord
  2
WAKU
 70
     0
 62
     1
  6
CONTINUOUS
370
    -3
390
F
347
21
348
0
  0
ENDTAB
  0
TABLE
  2
STYLE
  5
3
330
0
100
AcDbSymbolTable
 70
     5
  0
STYLE
  5
55
330
3
100
AcDbSymbolTableRecord
100
AcDbTextStyleTableRecord
  2
STANDARD
 70
     0
 40
0.0
 41
1.0
 50
0.0
 71
     0
 42
4.0
  3
TXT
  4

  0
STYLE
  5
59
330
3
100
AcDbSymbolTableRecord
100
AcDbTextStyleTableRecord
  2
Annotative
 70
     0
 40
0.0
 41
1.0
 50
0.0
 71
     0
 42
0.2
  3
txt
  4

1001
AcadAnnotative
1000
AnnotativeData
1002
{
1070
     1
1070
     1
1002
}
  0
STYLE
  5
7F
330
3
100
AcDbSymbolTableRecord
100
AcDbTextStyleTableRecord
  2
ANKTATE
 70
     4
 40
0.0
 41
1.0
 50
0.0
 71
     0
 42
4.0
  3
TXT
  4

  0
STYLE
  5
80
330
3
100
AcDbSymbolTableRecord
100
AcDbTextStyleTableRecord
  2
KNJYOKO
 70
     0
 40
0.0
 41
1.0
 50
0.0
 71
     0
 42
4.0
  3
TXT
  4
BIGFONT
  0
STYLE
  5
81
330
3
100
AcDbSymbolTableRecord
100
AcDbTextStyleTableRecord
  2
KNJTATE
 70
     4
 40
0.0
 41
1.0
 50
0.0
 71
     0
 42
4.0
  3
TXT
  4
BIGFONT
  0
ENDTAB
  0
TABLE
  2
VIEW
  5
6
330
0
100
AcDbSymbolTable
 70
     0
  0
ENDTAB
  0
TABLE
  2
UCS
  5
7
330
0
100
AcDbSymbolTable
 70
     0
  0
ENDTAB
  0
TABLE
  2
APPID
  5
9
330
0
100
AcDbSymbolTable
 70
     6
  0
APPID
  5
56
330
9
100
AcDbSymbolTableRecord
100
AcDbRegAppTableRecord
  2
ACAD
 70
     0
  0
APPID
  5
5D
330
9
100
AcDbSymbolTableRecord
100
AcDbRegAppTableRecord
  2
AcadAnnotative
 70
     0
  0
APPID
  5
53D
330
9
100
AcDbSymbolTableRecord
100
AcDbRegAppTableRecord
  2
ACAD_EXEMPT_FROM_CAD_STANDARDS
 70
     0
  0
APPID
  5
559
330
9
100
AcDbSymbolTableRecord
100
AcDbRegAppTableRecord
  2
ACAD_NAV_VCDISPLAY
 70
     0
  0
APPID
  5
592
330
9
100
AcDbSymbolTableRecord
100
AcDbRegAppTableRecord
  2
ACAD_MLEADERVER
 70
     0
  0
APPID
  5
5A4
330
9
100
AcDbSymbolTableRecord
100
AcDbRegAppTableRecord
  2
Acad_TC
 70
     0
  0
ENDTAB
  0
TABLE
  2
DIMSTYLE
  5
A
330
0
100
AcDbSymbolTable
 70
     2
100
AcDbDimStyleTable
 71
     1
340
57
  0
DIMSTYLE
105
57
330
A
100
AcDbSymbolTableRecord
100
AcDbDimStyleTableRecord
  2
Standard
 70
     0
340
55
  0
DIMSTYLE
105
58
330
A
100
AcDbSymbolTableRecord
100
AcDbDimStyleTableRecord
  2
Annotative
 70
     0
340
55
1001
AcadAnnotative
1000
AnnotativeData
1002
{
1070
     1
1070
     1
1002
}
  0
ENDTAB
  0
TABLE
  2
BLOCK_RECORD
  5
1
330
0
100
AcDbSymbolTable
 70
     1
  0
BLOCK_RECORD
  5
6F
330
1
100
AcDbSymbolTableRecord
100
AcDbBlockTableRecord
  2
*Model_Space
340
72
 70
     0
280
     1
281
     0
  0
BLOCK_RECORD
  5
6B
330
1
100
AcDbSymbolTableRecord
100
AcDbBlockTableRecord
  2
*Paper_Space
340
6E
 70
     0
280
     1
281
     0
  0
BLOCK_RECORD
  5
85
330
1
100
AcDbSymbolTableRecord
100
AcDbBlockTableRecord
  2
*X0
340
0
102
{BLKREFS
331
10E
102
}
 70
     0
280
     1
281
     0
  0
ENDTAB
  0
ENDSEC
  0
SECTION
  2
BLOCKS
  0
BLOCK
  5
70
330
6F
100
AcDbEntity
  8
0
100
AcDbBlockBegin
  2
*Model_Space
 70
     0
 10
0.0
 20
0.0
 30
0.0
  3
*Model_Space
  1

  0
ENDBLK
  5
71
330
6F
100
AcDbEntity
  8
0
100
AcDbBlockEnd
  0
BLOCK
  5
6C
330
6B
100
AcDbEntity
 67
     1
  8
0
100
AcDbBlockBegin
  2
*Paper_Space
 70
     0
 10
0.0
 20
0.0
 30
0.0
  3
*Paper_Space
  1

  0
ENDBLK
  5
6D
330
6B
100
AcDbEntity
 67
     1
  8
0
100
AcDbBlockEnd
  0
BLOCK
  5
86
330
85
100
AcDbEntity
  8
KUTAI
  6
ByBlock
 62
    12
100
AcDbBlockBegin
  2
*X0
 70
     1
 10
0.0
 20
0.0
 30
0.0
  3
*X0
  1

  0
LINE
  5
87
330
85
100
AcDbEntity
  8
KUTAI
  6
ByBlock
 62
     0
100
AcDbLine
 10
227.7273721234332
 20
97.33644960962564
 30
0.0
 11
229.3273721234318
 21
98.93644960962369
 31
0.0
  0
LINE
  5
88
330
85
100
AcDbEntity
  8
KUTAI
  6
ByBlock
 62
     0
100
AcDbLine
 10
228.0509278357716
 20
96.24579175751655
 30
0.0
 11
229.3908846518857
 21
97.58574857507472
 31
0.0
  0
LINE
  5
89
330
85
100
AcDbEntity
  8
KUTAI
  6
ByBlock
 62
     0
100
AcDbLine
 10
227.7273721234332
 20
118.549653045222
 30
0.0
 11
229.3273721234303
 21
120.1496530452196
 31
0.0
  0
LINE
  5
8A
330
85
100
AcDbEntity
  8
KUTAI
  6
ByBlock
 62
     0
100
AcDbLine
 10
256.1273721234334
 20
146.949653045222
 30
0.0
 11
257.7273721234319
 21
148.5496530452206
 31
0.0
  0
LINE
  5
8B
330
85
100
AcDbEntity
  8
KUTAI
  6
ByBlock
 62
     0
100
AcDbLine
 10
227.7273721234328
 20
117.1354394828478
 30
0.0
 11
229.3273721234318
 21
118.7354394828473
 31
0.0
  0
LINE
  5
8C
330
85
100
AcDbEntity
  8
KUTAI
  6
ByBlock
 62
     0
100
AcDbLine
 10
256.1273721234338
 20
145.5354394828493
 30
0.0
 11
257.7273721234333
 21
147.1354394828488
 31
0.0
  0
LINE
  5
8D
330
85
100
AcDbEntity
  8
KUTAI
  6
ByBlock
 62
     0
100
AcDbLine
 10
227.7273721234315
 20
139.7628564808165
 30
0.0
 11
229.3273721234309
 21
141.362856480816
 31
0.0
  0
LINE
  5
8E
330
85
100
AcDbEntity
  8
KUTAI
  6
ByBlock
 62
     0
100
AcDbLine
 10
241.7009652522406
 20
153.7364496096257
 30
0.0
 11
243.3009652522401
 21
155.3364496096252
 31
0.0
  0
LINE
  5
8F
330
85
100
AcDbEntity
  8
KUTAI
  6
ByBlock
 62
     0
100
AcDbLine
 10
227.7273721234324
 20
138.3486429184442
 30
0.0
 11
229.3273721234314
 21
139.9486429184427
 31
0.0
  0
LINE
  5
90
330
85
100
AcDbEntity
  8
KUTAI
  6
ByBlock
 62
     0
100
AcDbLine
 10
243.1151788146158
 20
153.7364496096271
 30
0.0
 11
244.7151788146125
 21
155.3364496096243
 31
0.0
  0
LINE
  5
91
330
85
100
AcDbEntity
  8
KUTAI
  6
ByBlock
 62
     0
100
AcDbLine
 10
246.9405755590291
 20
95.33644960962515
 30
0.0
 11
248.5405755590272
 21
96.93644960962277
 31
0.0
  0
LINE
  5
92
330
85
100
AcDbEntity
  8
KUTAI
  6
ByBlock
 62
     0
100
AcDbLine
 10
256.1273721234341
 20
104.5232461740302
 30
0.0
 11
256.9405755590264
 21
105.3364496096224
 31
0.0
  0
LINE
  5
93
330
85
100
AcDbEntity
  8
KUTAI
  6
ByBlock
 62
     0
100
AcDbLine
 10
248.3547891214028
 20
95.33644960962559
 30
0.0
 11
249.9547891214004
 21
96.93644960962316
 31
0.0
  0
LINE
  5
94
330
85
100
AcDbEntity
  8
KUTAI
  6
ByBlock
 62
     0
100
AcDbLine
 10
256.1273721234347
 20
103.109032611657
 30
0.0
 11
257.727372123431
 21
104.7090326116537
 31
0.0
  0
ENDBLK
  5
95
330
85
100
AcDbEntity
  8
KUTAI
  6
ByBlock
 62
    12
100
AcDbBlockEnd
  0
ENDSEC
  0
SECTION
  2
ENTITIES
  0
LINE
  5
96
330
6F
100
AcDbEntity
  8
KUTAI
  6
Continuous
100
AcDbLine
 10
517.4856009406731
 20
335.7555691123014
 30
0.0
 11
692.665189448772
 21
335.7555691123014
 31
0.0
  0
LINE
  5
97
330
6F
100
AcDbEntity
  8
WASHER
  6
HIDDEN
100
AcDbLine
 10
239.5273721234329
 20
422.2555691123014
 30
0.0
 11
239.5273721234329
 21
424.2555691122945
 31
0.0
  0
LINE
  5
98
330
6F
100
AcDbEntity
  8
WASHER
  6
HIDDEN
100
AcDbLine
 10
245.9273721234328
 20
422.2555691123014
 30
0.0
 11
245.9273721234328
 21
424.2555691123081
 31
0.0
  0
LINE
  5
99
330
6F
100
AcDbEntity
  8
KUTAI
  6
Continuous
100
AcDbLine
 10
284.0129803851768
 20
384.6987978358873
 30
0.0
 11
320.0697516615908
 21
420.7555691123013
 31
0.0
  0
LINE
  5
9A
330
6F
100
AcDbEntity
  8
KUTAI
  6
Continuous
100
AcDbLine
 10
276.941912573311
 20
384.698797835887
 30
0.0
 11
312.9986838497251
 21
420.7555691123012
 31
0.0
  0
LINE
  5
9B
330
6F
100
AcDbEntity
  8
KUTAI
  6
Continuous
100
AcDbLine
 10
269.8708447614457
 20
384.6987978358873
 30
0.0
 11
305.9276160378598
 21
420.7555691123014
 31
0.0
  0
LINE
  5
9C
330
6F
100
AcDbEntity
  8
KUTAI
  6
Continuous
100
AcDbLine
 10
148.4647851474592
 20
384.6987978358872
 30
0.0
 11
184.5215564238731
 21
420.755569112301
 31
0.0
  0
LINE
  5
9D
330
6F
100
AcDbEntity
  8
KUTAI
  6
Continuous
100
AcDbLine
 10
141.3937173355937
 20
384.6987978358873
 30
0.0
 11
177.4504886120079
 21
420.7555691123013
 31
0.0
  0
LINE
  5
9E
330
6F
100
AcDbEntity
  8
KUTAI
  6
Continuous
100
AcDbLine
 10
134.3226495237282
 20
384.6987978358872
 30
0.0
 11
170.3794208001424
 21
420.7555691123014
 31
0.0
  0
LINE
  5
9F
330
6F
100
AcDbEntity
  8
KUTAI
  6
Continuous
100
AcDbLine
 10
572.1209905521602
 20
335.7555691123015
 30
0.0
 11
672.1209905521599
 21
435.7555691123014
 31
0.0
  0
LINE
  5
A0
330
6F
100
AcDbEntity
  8
KUTAI
  6
Continuous
100
AcDbLine
 10
565.0499227402947
 20
335.7555691123015
 30
0.0
 11
665.0499227402946
 21
435.7555691123013
 31
0.0
  0
LINE
  5
A1
330
6F
100
AcDbEntity
  8
WASHER
  6
HIDDEN
100
AcDbLine
 10
610.9412277190032
 20
437.2555691123013
 30
0.0
 11
610.9412277190032
 21
439.2555691123079
 31
0.0
  0
LINE
  5
A2
330
6F
100
AcDbEntity
  8
WASHER
  6
HIDDEN
100
AcDbLine
 10
604.5412277190032
 20
437.2555691123013
 30
0.0
 11
604.5412277190032
 21
439.2555691122943
 31
0.0
  0
LINE
  5
A3
330
6F
100
AcDbEntity
  8
ANCHOR
  6
HIDDEN
100
AcDbLine
 10
604.7412277190032
 20
429.1158044133073
 30
0.0
 11
604.7412277190032
 21
439.2555691123014
 31
0.0
  0
LINE
  5
A4
330
6F
100
AcDbEntity
  8
ANCHOR
  6
HIDDEN
100
AcDbLine
 10
610.7412277190031
 20
429.1158044133073
 30
0.0
 11
610.7412277190031
 21
439.2555691123014
 31
0.0
  0
LINE
  5
A5
330
6F
100
AcDbEntity
  8
LOUVER
  6
CENTER
100
AcDbLine
 10
607.7412277190031
 20
114.6259139050352
 30
0.0
 11
607.7412277190031
 21
170.3068162692735
 31
0.0
  0
LINE
  5
A6
330
6F
100
AcDbEntity
  8
WASHER
  6
Continuous
100
AcDbLine
 10
592.7412277190032
 20
160.3364496096261
 30
0.0
 11
622.7412277190031
 21
160.3364496096261
 31
0.0
  0
LINE
  5
A7
330
6F
100
AcDbEntity
  8
WASHER
  6
Continuous
100
AcDbLine
 10
622.7412277190031
 20
158.3364496096261
 30
0.0
 11
622.7412277190031
 21
160.3364496096261
 31
0.0
  0
LINE
  5
A8
330
6F
100
AcDbEntity
  8
WASHER
  6
Continuous
100
AcDbLine
 10
592.7412277190032
 20
158.3364496096261
 30
0.0
 11
592.7412277190032
 21
160.3364496096261
 31
0.0
  0
LINE
  5
A9
330
6F
100
AcDbEntity
  8
LOUVER
  6
CENTER
100
AcDbLine
 10
601.801588655121
 20
166.8364496096096
 30
0.0
 11
583.352625794548
 21
166.8364496096312
 31
0.0
  0
LINE
  5
AA
330
6F
100
AcDbEntity
  8
ANCHOR
  6
HIDDEN
100
AcDbLine
 10
597.2412277204912
 20
168.8364496097355
 30
0.0
 11
587.7412277191625
 21
168.8364496097759
 31
0.0
  0
LINE
  5
AB
330
6F
100
AcDbEntity
  8
ANCHOR
  6
HIDDEN
100
AcDbLine
 10
597.2412277210462
 20
164.8364496097355
 30
0.0
 11
587.7412277191467
 21
164.8364496097759
 31
0.0
  0
LINE
  5
AC
330
6F
100
AcDbEntity
  8
ANCHOR
  6
HIDDEN
100
AcDbLine
 10
600.1638774512562
 20
167.8364496097441
 30
0.0
 11
598.2412277205018
 21
167.8364496097402
 31
0.0
  0
LINE
  5
AD
330
6F
100
AcDbEntity
  8
ANCHOR
  6
HIDDEN
100
AcDbLine
 10
600.1638774514522
 20
165.8364496097441
 30
0.0
 11
598.2412277210397
 21
165.8364496097402
 31
0.0
  0
LINE
  5
AE
330
6F
100
AcDbEntity
  8
ANCHOR
  6
HIDDEN
100
AcDbLine
 10
600.7412277205443
 20
166.8364496095841
 30
0.0
 11
600.1638774512566
 21
167.8364496097448
 31
0.0
  0
LINE
  5
AF
330
6F
100
AcDbEntity
  8
ANCHOR
  6
HIDDEN
100
AcDbLine
 10
600.1638774514531
 20
165.8364496097452
 30
0.0
 11
600.7412277205449
 21
166.8364496095841
 31
0.0
  0
ARC
  5
B0
330
6F
100
AcDbEntity
  8
ANCHOR
  6
HIDDEN
100
AcDbCircle
 10
598.741227721049
 20
166.8364496097425
 30
0.0
 40
0.5
100
AcDbArc
 50
97.20679386168658
 51
262.7932061387912
  0
LINE
  5
B1
330
6F
100
AcDbEntity
  8
ANCHOR
  6
HIDDEN
100
AcDbLine
 10
598.6785022845841
 20
166.3403996932815
 30
0.0
 11
600.1638774514522
 21
165.8364496097437
 31
0.0
  0
LINE
  5
B2
330
6F
100
AcDbEntity
  8
ANCHOR
  6
HIDDEN
100
AcDbLine
 10
598.6785022845808
 20
167.3324995262023
 30
0.0
 11
600.1638774512562
 21
167.8364496097443
 31
0.0
  0
LINE
  5
B3
330
6F
100
AcDbEntity
  8
ANCHOR
  6
HIDDEN
100
AcDbLine
 10
598.2412277205002
 20
167.8364496097398
 30
0.0
 11
597.2412277204909
 21
168.8364496097371
 31
0.0
  0
LINE
  5
B4
330
6F
100
AcDbEntity
  8
ANCHOR
  6
HIDDEN
100
AcDbLine
 10
597.2412277210462
 20
164.8364496097389
 30
0.0
 11
598.2412277210387
 21
165.836449609739
 31
0.0
  0
LINE
  5
B5
330
6F
100
AcDbEntity
  8
ANCHOR
  6
HIDDEN
100
AcDbLine
 10
597.2412277207777
 20
164.8364496097379
 30
0.0
 11
597.2412277207628
 21
168.8364496097379
 31
0.0
  0
LINE
  5
B6
330
6F
100
AcDbEntity
  8
ANCHOR
  6
HIDDEN
100
AcDbLine
 10
598.2412277205432
 20
165.8364496097379
 30
0.0
 11
598.2412277205337
 21
167.8364496097379
 31
0.0
  0
LINE
  5
B7
330
6F
100
AcDbEntity
  8
ANCHOR
  6
HIDDEN
100
AcDbLine
 10
598.0412277210414
 20
165.6364496097384
 30
0.0
 11
587.7412277191507
 21
165.6364496097795
 31
0.0
  0
LINE
  5
B8
330
6F
100
AcDbEntity
  8
ANCHOR
  6
HIDDEN
100
AcDbLine
 10
598.0412277205003
 20
168.036449609738
 30
0.0
 11
587.7412277191598
 21
168.0364496097791
 31
0.0
  0
LINE
  5
B9
330
6F
100
AcDbEntity
  8
ANCHOR
  6
Continuous
100
AcDbLine
 10
585.7189171380127
 20
167.3346478573683
 30
0.0
 11
585.7189171380131
 21
166.3382513618861
 31
0.0
  0
LINE
  5
BA
330
6F
100
AcDbEntity
  8
ANCHOR
  6
Continuous
100
AcDbLine
 10
585.7189171380124
 20
167.3346478573685
 30
0.0
 11
585.2412277193381
 21
167.3346478573685
 31
0.0
  0
LINE
  5
BB
330
6F
100
AcDbEntity
  8
ANCHOR
  6
Continuous
100
AcDbLine
 10
585.7189171380127
 20
166.3382513618863
 30
0.0
 11
585.2412277193385
 21
166.3382513618863
 31
0.0
  0
LINE
  5
BC
330
6F
100
AcDbEntity
  8
ANCHOR
  6
Continuous
100
AcDbLine
 10
587.2412277193547
 20
162.1364496096253
 30
0.0
 11
587.7412277193548
 21
162.1364496096257
 31
0.0
  0
ARC
  5
BD
330
6F
100
AcDbEntity
  8
ANCHOR
  6
Continuous
100
AcDbCircle
 10
591.3326931136611
 20
166.66081817631
 30
0.0
 40
6.099999999999998
100
AcDbArc
 50
183.0312034848472
 51
227.876411461438
  0
LINE
  5
BE
330
6F
100
AcDbEntity
  8
ANCHOR
  6
Continuous
100
AcDbLine
 10
587.2412277193212
 20
171.5364496096272
 30
0.0
 11
587.2412277193557
 21
162.1364496096256
 31
0.0
  0
ARC
  5
BF
330
6F
100
AcDbEntity
  8
ANCHOR
  6
Continuous
100
AcDbCircle
 10
591.3326931136611
 20
167.0120810429476
 30
0.0
 40
6.099999999999998
100
AcDbArc
 50
132.1235885386251
 51
176.9687965152159
  0
LINE
  5
C0
330
6F
100
AcDbEntity
  8
ANCHOR
  6
Continuous
100
AcDbLine
 10
587.7412277193217
 20
171.5364496096285
 30
0.0
 11
587.7412277193561
 21
162.1364496096271
 31
0.0
  0
LINE
  5
C1
330
6F
100
AcDbEntity
  8
ANCHOR
  6
Continuous
100
AcDbLine
 10
587.2412277193507
 20
171.5364496096269
 30
0.0
 11
587.7412277193506
 21
171.5364496096273
 31
0.0
  0
LINE
  5
C2
330
6F
100
AcDbEntity
  8
WASHER
  6
Continuous
100
AcDbLine
 10
592.7412277190032
 20
158.3364496096261
 30
0.0
 11
622.7412277190031
 21
158.3364496096261
 31
0.0
  0
LINE
  5
C3
330
6F
100
AcDbEntity
  8
WASHER
  6
HIDDEN
100
AcDbLine
 10
610.9412277190032
 20
158.336449609626
 30
0.0
 11
610.9412277190032
 21
160.3364496096327
 31
0.0
  0
LINE
  5
C4
330
6F
100
AcDbEntity
  8
WASHER
  6
HIDDEN
100
AcDbLine
 10
604.5412277190032
 20
158.336449609626
 30
0.0
 11
604.5412277190032
 21
160.3364496096191
 31
0.0
  0
LINE
  5
C5
330
6F
100
AcDbEntity
  8
KUTAI
  6
Continuous
100
AcDbLine
 10
132.4720475945935
 20
158.336449609626
 30
0.0
 11
334.6456117066339
 21
158.336449609626
 31
0.0
  0
LINE
  5
C6
330
6F
100
AcDbEntity
  8
LOUVER
  6
CENTER
100
AcDbLine
 10
242.7273721234328
 20
111.766394050431
 30
0.0
 11
242.7273721234328
 21
171.8068162692732
 31
0.0
  0
LINE
  5
C7
330
6F
100
AcDbEntity
  8
WASHER
  6
Continuous
100
AcDbLine
 10
227.7273721234328
 20
161.8364496096258
 30
0.0
 11
257.7273721234328
 21
161.8364496096258
 31
0.0
  0
LINE
  5
C8
330
6F
100
AcDbEntity
  8
WASHER
  6
Continuous
100
AcDbLine
 10
257.7273721234328
 20
159.8364496096258
 30
0.0
 11
257.7273721234328
 21
161.8364496096258
 31
0.0
  0
LINE
  5
C9
330
6F
100
AcDbEntity
  8
WASHER
  6
Continuous
100
AcDbLine
 10
227.7273721234328
 20
159.8364496096258
 30
0.0
 11
227.7273721234328
 21
161.8364496096258
 31
0.0
  0
LINE
  5
CA
330
6F
100
AcDbEntity
  8
LOUVER
  6
CENTER
100
AcDbLine
 10
236.7877330595507
 20
168.3364496096092
 30
0.0
 11
218.3387701989777
 21
168.3364496096309
 31
0.0
  0
LINE
  5
CB
330
6F
100
AcDbEntity
  8
ANCHOR
  6
HIDDEN
100
AcDbLine
 10
232.2273721249208
 20
170.3364496097352
 30
0.0
 11
222.727372123592
 21
170.3364496097755
 31
0.0
  0
LINE
  5
CC
330
6F
100
AcDbEntity
  8
ANCHOR
  6
HIDDEN
100
AcDbLine
 10
232.2273721254759
 20
166.3364496097352
 30
0.0
 11
222.7273721235764
 21
166.3364496097755
 31
0.0
  0
LINE
  5
CD
330
6F
100
AcDbEntity
  8
ANCHOR
  6
HIDDEN
100
AcDbLine
 10
235.150021855686
 20
169.3364496097436
 30
0.0
 11
233.2273721249314
 21
169.3364496097398
 31
0.0
  0
LINE
  5
CE
330
6F
100
AcDbEntity
  8
ANCHOR
  6
HIDDEN
100
AcDbLine
 10
235.1500218558819
 20
167.3364496097437
 30
0.0
 11
233.2273721254694
 21
167.3364496097398
 31
0.0
  0
LINE
  5
CF
330
6F
100
AcDbEntity
  8
ANCHOR
  6
HIDDEN
100
AcDbLine
 10
235.7273721249738
 20
168.3364496095836
 30
0.0
 11
235.1500218556863
 21
169.3364496097443
 31
0.0
  0
LINE
  5
D0
330
6F
100
AcDbEntity
  8
ANCHOR
  6
HIDDEN
100
AcDbLine
 10
235.1500218558826
 20
167.336449609745
 30
0.0
 11
235.7273721249743
 21
168.3364496095839
 31
0.0
  0
ARC
  5
D1
330
6F
100
AcDbEntity
  8
ANCHOR
  6
HIDDEN
100
AcDbCircle
 10
233.7273721254787
 20
168.3364496097421
 30
0.0
 40
0.5
100
AcDbArc
 50
97.20679386168658
 51
262.7932061387912
  0
LINE
  5
D2
330
6F
100
AcDbEntity
  8
ANCHOR
  6
HIDDEN
100
AcDbLine
 10
233.6646466890138
 20
167.840399693281
 30
0.0
 11
235.150021855882
 21
167.3364496097432
 31
0.0
  0
LINE
  5
D3
330
6F
100
AcDbEntity
  8
ANCHOR
  6
HIDDEN
100
AcDbLine
 10
233.6646466890101
 20
168.8324995262019
 30
0.0
 11
235.1500218556859
 21
169.3364496097439
 31
0.0
  0
LINE
  5
D4
330
6F
100
AcDbEntity
  8
ANCHOR
  6
HIDDEN
100
AcDbLine
 10
233.2273721249297
 20
169.3364496097394
 30
0.0
 11
232.2273721249204
 21
170.3364496097367
 31
0.0
  0
LINE
  5
D5
330
6F
100
AcDbEntity
  8
ANCHOR
  6
HIDDEN
100
AcDbLine
 10
232.2273721254759
 20
166.3364496097385
 30
0.0
 11
233.2273721254686
 21
167.3364496097387
 31
0.0
  0
LINE
  5
D6
330
6F
100
AcDbEntity
  8
ANCHOR
  6
HIDDEN
100
AcDbLine
 10
232.2273721252073
 20
166.3364496097375
 30
0.0
 11
232.2273721251925
 21
170.3364496097375
 31
0.0
  0
LINE
  5
D7
330
6F
100
AcDbEntity
  8
ANCHOR
  6
HIDDEN
100
AcDbLine
 10
233.2273721249726
 20
167.3364496097376
 30
0.0
 11
233.2273721249634
 21
169.3364496097376
 31
0.0
  0
LINE
  5
D8
330
6F
100
AcDbEntity
  8
ANCHOR
  6
HIDDEN
100
AcDbLine
 10
233.0273721254709
 20
167.136449609738
 30
0.0
 11
222.7273721235803
 21
167.1364496097791
 31
0.0
  0
LINE
  5
D9
330
6F
100
AcDbEntity
  8
ANCHOR
  6
HIDDEN
100
AcDbLine
 10
233.0273721249297
 20
169.5364496097376
 30
0.0
 11
222.7273721235894
 21
169.5364496097787
 31
0.0
  0
LINE
  5
DA
330
6F
100
AcDbEntity
  8
ANCHOR
  6
Continuous
100
AcDbLine
 10
220.7050615424424
 20
168.8346478573679
 30
0.0
 11
220.7050615424429
 21
167.8382513618856
 31
0.0
  0
LINE
  5
DB
330
6F
100
AcDbEntity
  8
ANCHOR
  6
Continuous
100
AcDbLine
 10
220.7050615424421
 20
168.8346478573681
 30
0.0
 11
220.2273721237678
 21
168.8346478573681
 31
0.0
  0
LINE
  5
DC
330
6F
100
AcDbEntity
  8
ANCHOR
  6
Continuous
100
AcDbLine
 10
220.7050615424426
 20
167.8382513618859
 30
0.0
 11
220.2273721237682
 21
167.8382513618859
 31
0.0
  0
LINE
  5
DD
330
6F
100
AcDbEntity
  8
ANCHOR
  6
Continuous
100
AcDbLine
 10
222.2273721237846
 20
163.6364496096248
 30
0.0
 11
222.7273721237846
 21
163.6364496096252
 31
0.0
  0
ARC
  5
DE
330
6F
100
AcDbEntity
  8
ANCHOR
  6
Continuous
100
AcDbCircle
 10
226.3188375180907
 20
168.1608181763096
 30
0.0
 40
6.099999999999998
100
AcDbArc
 50
183.0312034848472
 51
227.876411461438
  0
LINE
  5
DF
330
6F
100
AcDbEntity
  8
ANCHOR
  6
Continuous
100
AcDbLine
 10
222.2273721237506
 20
173.0364496096268
 30
0.0
 11
222.2273721237854
 21
163.6364496096252
 31
0.0
  0
ARC
  5
E0
330
6F
100
AcDbEntity
  8
ANCHOR
  6
Continuous
100
AcDbCircle
 10
226.3188375180907
 20
168.5120810429472
 30
0.0
 40
6.099999999999998
100
AcDbArc
 50
132.1235885386251
 51
176.9687965152159
  0
LINE
  5
E1
330
6F
100
AcDbEntity
  8
ANCHOR
  6
Continuous
100
AcDbLine
 10
222.7273721237515
 20
173.0364496096282
 30
0.0
 11
222.7273721237862
 21
163.6364496096267
 31
0.0
  0
LINE
  5
E2
330
6F
100
AcDbEntity
  8
ANCHOR
  6
Continuous
100
AcDbLine
 10
222.2273721237803
 20
173.0364496096265
 30
0.0
 11
222.7273721237803
 21
173.0364496096269
 31
0.0
  0
LINE
  5
E3
330
6F
100
AcDbEntity
  8
WASHER
  6
Continuous
100
AcDbLine
 10
227.7273721234328
 20
159.8364496096258
 30
0.0
 11
257.7273721234328
 21
159.8364496096258
 31
0.0
  0
LINE
  5
E4
330
6F
100
AcDbEntity
  8
WASHER
  6
HIDDEN
100
AcDbLine
 10
245.9273721234329
 20
159.8364496096256
 30
0.0
 11
245.9273721234329
 21
161.8364496096323
 31
0.0
  0
LINE
  5
E5
330
6F
100
AcDbEntity
  8
WASHER
  6
HIDDEN
100
AcDbLine
 10
239.527372123433
 20
159.8364496096256
 30
0.0
 11
239.527372123433
 21
161.8364496096188
 31
0.0
  0
LINE
  5
E6
330
6F
100
AcDbEntity
  8
ANCHOR
  6
Continuous
100
AcDbLine
 10
248.2273721234651
 20
161.8364496096299
 30
0.0
 11
237.2273721234651
 21
161.8364496096218
 31
0.0
  0
LINE
  5
E7
330
6F
100
AcDbEntity
  8
ANCHOR
  6
Continuous
100
AcDbLine
 10
248.2273721234645
 20
161.8364496096304
 30
0.0
 11
248.2273721234648
 21
162.6364496096301
 31
0.0
  0
LINE
  5
E8
330
6F
100
AcDbEntity
  8
ANCHOR
  6
Continuous
100
AcDbLine
 10
237.2273721234645
 20
161.8364496096219
 30
0.0
 11
237.2273721234648
 21
162.6364496096221
 31
0.0
  0
LINE
  5
E9
330
6F
100
AcDbEntity
  8
ANCHOR
  6
Continuous
100
AcDbLine
 10
248.2273721234645
 20
162.6364496096301
 30
0.0
 11
237.2273721234645
 21
162.636449609622
 31
0.0
  0
ARC
  5
EA
330
6F
100
AcDbEntity
  8
ANCHOR
  6
Continuous
100
AcDbCircle
 10
242.7273721234668
 20
158.7805672566849
 30
0.0
 40
5.555882352941173
100
AcDbArc
 50
43.94901598298635
 51
136.0509840170985
  0
LINE
  5
EB
330
6F
100
AcDbEntity
  8
ANCHOR
  6
HIDDEN
100
AcDbLine
 10
240.7273721233263
 20
125.3364496096783
 30
0.0
 11
240.7273721232859
 21
161.8364496098018
 31
0.0
  0
LINE
  5
EC
330
6F
100
AcDbEntity
  8
ANCHOR
  6
HIDDEN
100
AcDbLine
 10
244.7273721233263
 20
125.3364496091232
 30
0.0
 11
244.7273721232859
 21
161.8364496098174
 31
0.0
  0
LINE
  5
ED
330
6F
100
AcDbEntity
  8
ANCHOR
  6
HIDDEN
100
AcDbLine
 10
241.7273721233181
 20
122.4137998789131
 30
0.0
 11
241.727372123322
 21
124.3364496096676
 31
0.0
  0
LINE
  5
EE
330
6F
100
AcDbEntity
  8
ANCHOR
  6
HIDDEN
100
AcDbLine
 10
243.7273721233181
 20
122.4137998787172
 30
0.0
 11
243.727372123322
 21
124.3364496091297
 31
0.0
  0
LINE
  5
EF
330
6F
100
AcDbEntity
  8
ANCHOR
  6
HIDDEN
100
AcDbLine
 10
242.7273721234784
 20
121.836449609625
 30
0.0
 11
241.7273721233177
 21
122.4137998789124
 31
0.0
  0
LINE
  5
F0
330
6F
100
AcDbEntity
  8
ANCHOR
  6
HIDDEN
100
AcDbLine
 10
243.727372123317
 20
122.4137998787168
 30
0.0
 11
242.7273721234781
 21
121.836449609625
 31
0.0
  0
ARC
  5
F1
330
6F
100
AcDbEntity
  8
ANCHOR
  6
HIDDEN
100
AcDbCircle
 10
242.7273721233194
 20
123.8364496091199
 30
0.0
 40
0.5
100
AcDbArc
 50
7.206793861208892
 51
172.7932061383134
  0
LINE
  5
F2
330
6F
100
AcDbEntity
  8
ANCHOR
  6
HIDDEN
100
AcDbLine
 10
243.2234220397804
 20
123.8991750455848
 30
0.0
 11
243.7273721233182
 21
122.4137998787164
 31
0.0
  0
LINE
  5
F3
330
6F
100
AcDbEntity
  8
ANCHOR
  6
HIDDEN
100
AcDbLine
 10
242.2313222068599
 20
123.8991750455883
 30
0.0
 11
241.7273721233178
 21
122.4137998789128
 31
0.0
  0
LINE
  5
F4
330
6F
100
AcDbEntity
  8
ANCHOR
  6
HIDDEN
100
AcDbLine
 10
241.7273721233227
 20
124.3364496096696
 30
0.0
 11
240.7273721233254
 21
125.336449609679
 31
0.0
  0
LINE
  5
F5
330
6F
100
AcDbEntity
  8
ANCHOR
  6
HIDDEN
100
AcDbLine
 10
244.7273721233234
 20
125.3364496091232
 30
0.0
 11
243.7273721233232
 21
124.3364496091307
 31
0.0
  0
LINE
  5
F6
330
6F
100
AcDbEntity
  8
ANCHOR
  6
HIDDEN
100
AcDbLine
 10
244.727372123324
 20
125.3364496093916
 30
0.0
 11
240.727372123324
 21
125.3364496094064
 31
0.0
  0
LINE
  5
F7
330
6F
100
AcDbEntity
  8
ANCHOR
  6
HIDDEN
100
AcDbLine
 10
243.7273721233241
 20
124.3364496096263
 30
0.0
 11
241.7273721233241
 21
124.3364496096355
 31
0.0
  0
LINE
  5
F8
330
6F
100
AcDbEntity
  8
ANCHOR
  6
HIDDEN
100
AcDbLine
 10
243.9273721233238
 20
124.5364496091281
 30
0.0
 11
243.9273721232827
 21
161.8364496098135
 31
0.0
  0
LINE
  5
F9
330
6F
100
AcDbEntity
  8
ANCHOR
  6
HIDDEN
100
AcDbLine
 10
241.5273721233242
 20
124.5364496096693
 30
0.0
 11
241.5273721232831
 21
161.8364496098043
 31
0.0
  0
LINE
  5
FA
330
6F
100
AcDbEntity
  8
KUTAI
  6
Continuous
100
AcDbLine
 10
227.7273721234328
 20
97.33644960962593
 30
0.0
 11
227.7273721234328
 21
153.336449609626
 31
0.0
  0
LINE
  5
FB
330
6F
100
AcDbEntity
  8
KUTAI
  6
Continuous
100
AcDbLine
 10
229.7273721234328
 20
95.33644960962595
 30
0.0
 11
255.7273721234328
 21
95.33644960962595
 31
0.0
  0
LINE
  5
FC
330
6F
100
AcDbEntity
  8
KUTAI
  6
Continuous
100
AcDbLine
 10
230.3273721234328
 20
153.736449609626
 30
0.0
 11
255.1273721234328
 21
153.736449609626
 31
0.0
  0
LINE
  5
FD
330
6F
100
AcDbEntity
  8
KUTAI
  6
Continuous
100
AcDbLine
 10
229.3273721234328
 20
97.93644960962595
 30
0.0
 11
229.3273721234328
 21
152.736449609626
 31
0.0
  0
LINE
  5
FE
330
6F
100
AcDbEntity
  8
KUTAI
  6
Continuous
100
AcDbLine
 10
230.3273721234328
 20
96.93644960962595
 30
0.0
 11
255.1273721234329
 21
96.93644960962595
 31
0.0
  0
LINE
  5
FF
330
6F
100
AcDbEntity
  8
KUTAI
  6
Continuous
100
AcDbLine
 10
256.1273721234328
 20
145.336449609626
 30
0.0
 11
257.7273721234328
 21
145.336449609626
 31
0.0
  0
LINE
  5
100
330
6F
100
AcDbEntity
  8
KUTAI
  6
Continuous
100
AcDbLine
 10
256.1273721234328
 20
105.336449609626
 30
0.0
 11
257.7273721234328
 21
105.336449609626
 31
0.0
  0
LINE
  5
101
330
6F
100
AcDbEntity
  8
KUTAI
  6
Continuous
100
AcDbLine
 10
256.1273721234328
 20
97.93644960962595
 30
0.0
 11
256.1273721234328
 21
105.336449609626
 31
0.0
  0
LINE
  5
102
330
6F
100
AcDbEntity
  8
KUTAI
  6
Continuous
100
AcDbLine
 10
256.1273721234328
 20
145.336449609626
 30
0.0
 11
256.1273721234328
 21
152.736449609626
 31
0.0
  0
LINE
  5
103
330
6F
100
AcDbEntity
  8
KUTAI
  6
Continuous
100
AcDbLine
 10
257.7273721234328
 20
97.33644960962593
 30
0.0
 11
257.7273721234328
 21
105.336449609626
 31
0.0
  0
LINE
  5
104
330
6F
100
AcDbEntity
  8
KUTAI
  6
Continuous
100
AcDbLine
 10
257.7273721234328
 20
145.336449609626
 30
0.0
 11
257.7273721234328
 21
153.336449609626
 31
0.0
  0
ARC
  5
105
330
6F
100
AcDbEntity
  8
KUTAI
  6
Continuous
100
AcDbCircle
 10
255.7273721234328
 20
153.336449609626
 30
0.0
 40
2.0
100
AcDbArc
 50
0.0
 51
90.0
  0
ARC
  5
106
330
6F
100
AcDbEntity
  8
KUTAI
  6
Continuous
100
AcDbCircle
 10
229.7273721234328
 20
153.336449609626
 30
0.0
 40
2.0
100
AcDbArc
 50
90.0
 51
180.0
  0
ARC
  5
107
330
6F
100
AcDbEntity
  8
KUTAI
  6
Continuous
100
AcDbCircle
 10
229.7273721234328
 20
97.33644960962593
 30
0.0
 40
2.0
100
AcDbArc
 50
180.0
 51
270.0
  0
ARC
  5
108
330
6F
100
AcDbEntity
  8
KUTAI
  6
Continuous
100
AcDbCircle
 10
255.7273721234328
 20
97.33644960962593
 30
0.0
 40
2.0
100
AcDbArc
 50
270.0
 51
0.0
  0
ARC
  5
109
330
6F
100
AcDbEntity
  8
KUTAI
  6
Continuous
100
AcDbCircle
 10
255.1273721234329
 20
97.93644960962595
 30
0.0
 40
1.0
100
AcDbArc
 50
270.0
 51
0.0
  0
ARC
  5
10A
330
6F
100
AcDbEntity
  8
KUTAI
  6
Continuous
100
AcDbCircle
 10
255.1273721234328
 20
152.736449609626
 30
0.0
 40
1.0
100
AcDbArc
 50
0.0
 51
90.0
  0
ARC
  5
10B
330
6F
100
AcDbEntity
  8
KUTAI
  6
Continuous
100
AcDbCircle
 10
230.3273721234328
 20
152.736449609626
 30
0.0
 40
1.0
100
AcDbArc
 50
90.0
 51
180.0
  0
ARC
  5
10C
330
6F
100
AcDbEntity
  8
KUTAI
  6
Continuous
100
AcDbCircle
 10
230.3273721234328
 20
97.93644960962595
 30
0.0
 40
1.0
100
AcDbArc
 50
180.0
 51
270.0
  0
LINE
  5
10D
330
6F
100
AcDbEntity
  8
KUTAI
  6
Continuous
100
AcDbLine
 10
132.4720475945935
 20
155.336449609626
 30
0.0
 11
334.6456117066339
 21
155.336449609626
 31
0.0
  0
INSERT
  5
10E
330
6F
100
AcDbEntity
  8
KUTAI
  6
Continuous
100
AcDbBlockReference
  2
*X0
 10
0.0
 20
0.0
 30
0.0
  0
TEXT
  5
10F
330
6F
100
AcDbEntity
  8
COMMENT
  6
Continuous
100
AcDbText
 10
349.9418172490461
 20
322.2594101746117
 30
0.0
 40
6.0
  1
RC納まり図
  7
KNJYOKO
100
AcDbText
  0
LINE
  5
110
330
6F
100
AcDbEntity
  8
COMMENT
  6
Continuous
100
AcDbLine
 10
343.7194436660042
 20
316.0977062953458
 30
0.0
 11
393.4272863119038
 21
316.0977062953458
 31
0.0
  0
LINE
  5
111
330
6F
100
AcDbEntity
  8
COMMENT
  6
Continuous
100
AcDbLine
 10
393.4272863119038
 20
316.0977062953458
 30
0.0
 11
393.4272863119038
 21
332.4572886387153
 31
0.0
  0
LINE
  5
112
330
6F
100
AcDbEntity
  8
COMMENT
  6
Continuous
100
AcDbLine
 10
393.4272863119038
 20
332.4572886387153
 30
0.0
 11
343.7194436660042
 21
332.4572886387153
 31
0.0
  0
LINE
  5
113
330
6F
100
AcDbEntity
  8
COMMENT
  6
Continuous
100
AcDbLine
 10
343.7194436660042
 20
332.4572886387153
 30
0.0
 11
343.7194436660042
 21
316.0977062953458
 31
0.0
  0
TEXT
  5
114
330
6F
100
AcDbEntity
  8
COMMENT
  6
Continuous
100
AcDbText
 10
727.6557351031136
 20
321.7013496810606
 30
0.0
 40
6.0
  1
ALC納まり図
  7
KNJYOKO
100
AcDbText
  0
LINE
  5
115
330
6F
100
AcDbEntity
  8
COMMENT
  6
Continuous
100
AcDbLine
 10
723.8888328008928
 20
316.0977062953458
 30
0.0
 11
773.5966754467924
 21
316.0977062953458
 31
0.0
  0
LINE
  5
116
330
6F
100
AcDbEntity
  8
COMMENT
  6
Continuous
100
AcDbLine
 10
773.5966754467924
 20
316.0977062953458
 30
0.0
 11
773.5966754467924
 21
332.4572886387153
 31
0.0
  0
LINE
  5
117
330
6F
100
AcDbEntity
  8
COMMENT
  6
Continuous
100
AcDbLine
 10
773.5966754467924
 20
332.4572886387153
 30
0.0
 11
723.8888328008928
 21
332.4572886387153
 31
0.0
  0
LINE
  5
118
330
6F
100
AcDbEntity
  8
COMMENT
  6
Continuous
100
AcDbLine
 10
723.8888328008928
 20
332.4572886387153
 30
0.0
 11
723.8888328008928
 21
316.0977062953458
 31
0.0
  0
TEXT
  5
119
330
6F
100
AcDbEntity
  8
COMMENT
  6
Continuous
100
AcDbText
 10
727.6696757584102
 20
53.68204903107908
 30
0.0
 40
6.0
  1
ECP納まり図
  7
KNJYOKO
100
AcDbText
  0
LINE
  5
11A
330
6F
100
AcDbEntity
  8
COMMENT
  6
Continuous
100
AcDbLine
 10
723.8888328008928
 20
47.52034515181314
 30
0.0
 11
773.5966754467924
 21
47.52034515181314
 31
0.0
  0
LINE
  5
11B
330
6F
100
AcDbEntity
  8
COMMENT
  6
Continuous
100
AcDbLine
 10
773.5966754467924
 20
47.52034515181314
 30
0.0
 11
773.5966754467924
 21
63.87992749518264
 31
0.0
  0
LINE
  5
11C
330
6F
100
AcDbEntity
  8
COMMENT
  6
Continuous
100
AcDbLine
 10
773.5966754467924
 20
63.87992749518264
 30
0.0
 11
723.8888328008928
 21
63.87992749518264
 31
0.0
  0
LINE
  5
11D
330
6F
100
AcDbEntity
  8
COMMENT
  6
Continuous
100
AcDbLine
 10
723.8888328008928
 20
63.87992749518264
 30
0.0
 11
723.8888328008928
 21
47.52034515181314
 31
0.0
  0
TEXT
  5
11E
330
6F
100
AcDbEntity
  8
COMMENT
  6
Continuous
100
AcDbText
 10
349.941817249046
 20
53.68204903107908
 30
0.0
 40
6.0
  1
鉄骨納まり図
  7
KNJYOKO
100
AcDbText
  0
LINE
  5
11F
330
6F
100
AcDbEntity
  8
COMMENT
  6
Continuous
100
AcDbLine
 10
343.7194436660041
 20
47.52034515181314
 30
0.0
 11
393.4272863119038
 21
47.52034515181314
 31
0.0
  0
LINE
  5
120
330
6F
100
AcDbEntity
  8
COMMENT
  6
Continuous
100
AcDbLine
 10
393.4272863119038
 20
47.52034515181314
 30
0.0
 11
393.4272863119038
 21
63.87992749518264
 31
0.0
  0
LINE
  5
121
330
6F
100
AcDbEntity
  8
COMMENT
  6
Continuous
100
AcDbLine
 10
393.4272863119038
 20
63.87992749518264
 30
0.0
 11
343.7194436660041
 21
63.87992749518264
 31
0.0
  0
LINE
  5
122
330
6F
100
AcDbEntity
  8
COMMENT
  6
Continuous
100
AcDbLine
 10
343.7194436660041
 20
63.87992749518264
 30
0.0
 11
343.7194436660041
 21
47.52034515181314
 31
0.0
  0
LINE
  5
123
330
6F
100
AcDbEntity
  8
WAKU
  6
Continuous
100
AcDbLine
 10
33.25789717601344
 20
27.52034515181316
 30
0.0
 11
793.5966754467925
 21
27.52034515181316
 31
0.0
  0
LINE
  5
124
330
6F
100
AcDbEntity
  8
WAKU
  6
Continuous
100
AcDbLine
 10
793.5966754467925
 20
27.52034515181316
 30
0.0
 11
793.5966754467925
 21
574.6750674359868
 31
0.0
  0
LINE
  5
125
330
6F
100
AcDbEntity
  8
WAKU
  6
Continuous
100
AcDbLine
 10
33.25789717601344
 20
574.6750674359868
 30
0.0
 11
33.25789717601344
 21
27.52034515181316
 31
0.0
  0
LINE
  5
126
330
6F
100
AcDbEntity
  8
WAKU
  6
Continuous
100
AcDbLine
 10
793.5966754467925
 20
296.0977062953458
 30
0.0
 11
33.25789717601344
 21
296.0977062953458
 31
0.0
  0
LINE
  5
127
330
6F
100
AcDbEntity
  8
WAKU
  6
Continuous
100
AcDbLine
 10
413.4272863119038
 20
27.52034515181315
 30
0.0
 11
413.4272863119038
 21
549.6750674359868
 31
0.0
  0
LINE
  5
128
330
6F
100
AcDbEntity
  8
WAKU
  6
Continuous
100
AcDbLine
 10
793.5966754467925
 20
574.6750674359868
 30
0.0
 11
33.25789717601344
 21
574.6750674359868
 31
0.0
  0
LINE
  5
129
330
6F
100
AcDbEntity
  8
WAKU
  6
Continuous
100
AcDbLine
 10
793.5966754467925
 20
549.6750674359868
 30
0.0
 11
33.25789717601344
 21
549.6750674359868
 31
0.0
  0
LINE
  5
12A
330
6F
100
AcDbEntity
  8
UKEZAI
  6
Continuous
100
AcDbLine
 10
624.4412277201014
 20
159.8364496096264
 30
0.0
 11
624.4412277201014
 21
166.8364496096264
 31
0.0
  0
LINE
  5
12B
330
6F
100
AcDbEntity
  8
UKEZAI
  6
Continuous
100
AcDbLine
 10
625.9412277201533
 20
156.8364496096262
 30
0.0
 11
625.9412277201554
 21
158.8364496093394
 31
0.0
  0
LINE
  5
12C
330
6F
100
AcDbEntity
  8
UKEZAI
  6
Continuous
100
AcDbLine
 10
622.9412277201014
 20
158.3364496096264
 30
0.0
 11
622.9412277201014
 21
171.0864496096264
 31
0.0
  0
LINE
  5
12D
330
6F
100
AcDbEntity
  8
UKEZAI
  6
Continuous
100
AcDbLine
 10
624.4412277201014
 20
166.8364496095808
 30
0.0
 11
625.7412277193703
 21
166.8364496095818
 31
0.0
  0
LINE
  5
12E
330
6F
100
AcDbEntity
  8
UKEZAI
  6
Continuous
100
AcDbLine
 10
624.4412277201014
 20
159.8364496096264
 30
0.0
 11
625.7412277201567
 21
159.8364496096264
 31
0.0
  0
LINE
  5
12F
330
6F
100
AcDbEntity
  8
UKEZAI
  6
Continuous
100
AcDbLine
 10
591.0412277201015
 20
159.8364496096264
 30
0.0
 11
591.0412277201015
 21
166.8364496096264
 31
0.0
  0
LINE
  5
130
330
6F
100
AcDbEntity
  8
UKEZAI
  6
Continuous
100
AcDbLine
 10
589.5412277200496
 20
156.8364496096263
 30
0.0
 11
589.5412277200472
 21
158.8364496093363
 31
0.0
  0
LINE
  5
131
330
6F
100
AcDbEntity
  8
UKEZAI
  6
Continuous
100
AcDbLine
 10
592.5412277201014
 20
158.3364496096264
 30
0.0
 11
592.5412277201014
 21
171.0864496096264
 31
0.0
  0
ARC
  5
132
330
6F
100
AcDbEntity
  8
UKEZAI
  6
Continuous
100
AcDbCircle
 10
591.7912277201016
 20
171.0864496096264
 30
0.0
 40
0.75
100
AcDbArc
 50
0.0
 51
160.1120357041571
  0
LINE
  5
133
330
6F
100
AcDbEntity
  8
UKEZAI
  6
Continuous
100
AcDbLine
 10
591.0412277201015
 20
166.836449609581
 30
0.0
 11
589.7412277208323
 21
166.836449609582
 31
0.0
  0
LINE
  5
134
330
6F
100
AcDbEntity
  8
UKEZAI
  6
Continuous
100
AcDbLine
 10
591.0412277201015
 20
159.8364496096264
 30
0.0
 11
589.7412277200462
 21
159.8364496096264
 31
0.0
  0
LINE
  5
135
330
6F
100
AcDbEntity
  8
UKEZAI
  6
Continuous
100
AcDbLine
 10
589.5412277200502
 20
156.8364496096264
 30
0.0
 11
625.9412277201533
 21
156.8364496096264
 31
0.0
  0
ARC
  5
136
330
6F
100
AcDbEntity
  8
UKEZAI
  6
Continuous
100
AcDbCircle
 10
607.7412277201013
 20
158.3364496096264
 30
0.0
 40
0.3
100
AcDbArc
 50
180.0
 51
0.0
  0
ARC
  5
137
330
6F
100
AcDbEntity
  8
UKEZAI
  6
Continuous
100
AcDbCircle
 10
623.6912277201014
 20
171.0864496096264
 30
0.0
 40
0.75
100
AcDbArc
 50
19.8879642958426
 51
180.0
  0
LINE
  5
138
330
6F
100
AcDbEntity
  8
UKEZAI
  6
Continuous
100
AcDbLine
 10
625.9412277201552
 20
158.8364496093394
 30
0.0
 11
625.7412277201563
 21
159.8364496096263
 31
0.0
  0
LINE
  5
139
330
6F
100
AcDbEntity
  8
UKEZAI
  6
Continuous
100
AcDbLine
 10
589.5412277200476
 20
158.8364496093392
 30
0.0
 11
589.7412277200465
 21
159.8364496096262
 31
0.0
  0
ARC
  5
13A
330
6F
100
AcDbEntity
  8
UKEZAI
  6
Continuous
100
AcDbCircle
 10
589.7412277208326
 20
167.036449609582
 30
0.0
 40
0.2
100
AcDbArc
 50
160.1120357041559
 51
270.0
  0
LINE
  5
13B
330
6F
100
AcDbEntity
  8
UKEZAI
  6
Continuous
100
AcDbLine
 10
589.5531557993725
 20
167.104486014237
 30
0.0
 11
591.0859580146262
 21
171.3415861270824
 31
0.0
  0
ARC
  5
13C
330
6F
100
AcDbEntity
  8
UKEZAI
  6
Continuous
100
AcDbCircle
 10
625.7412277193703
 20
167.036449609582
 30
0.0
 40
0.2
100
AcDbArc
 50
270.0
 51
19.88796429584412
  0
LINE
  5
13D
330
6F
100
AcDbEntity
  8
UKEZAI
  6
Continuous
100
AcDbLine
 10
625.9292996408301
 20
167.104486014237
 30
0.0
 11
624.3964974255764
 21
171.3415861270823
 31
0.0
  0
ARC
  5
13E
330
6F
100
AcDbEntity
  8
UKEZAI
  6
Continuous
100
AcDbCircle
 10
609.7412277201014
 20
158.3364496096264
 30
0.0
 40
0.3
100
AcDbArc
 50
0.0
 51
180.0
  0
LINE
  5
13F
330
6F
100
AcDbEntity
  8
UKEZAI
  6
Continuous
100
AcDbLine
 10
608.0412277201014
 20
158.3364496096264
 30
0.0
 11
609.4412277201017
 21
158.3364496096264
 31
0.0
  0
LINE
  5
140
330
6F
100
AcDbEntity
  8
UKEZAI
  6
Continuous
100
AcDbLine
 10
610.0412277201016
 20
158.3364496096264
 30
0.0
 11
622.9412277201014
 21
158.3364496096264
 31
0.0
  0
ARC
  5
141
330
6F
100
AcDbEntity
  8
UKEZAI
  6
Continuous
100
AcDbCircle
 10
605.7412277201014
 20
158.3364496096264
 30
0.0
 40
0.3
100
AcDbArc
 50
0.0
 51
180.0
  0
LINE
  5
142
330
6F
100
AcDbEntity
  8
UKEZAI
  6
Continuous
100
AcDbLine
 10
592.5412277201014
 20
158.3364496096264
 30
0.0
 11
605.4412277201017
 21
158.3364496096264
 31
0.0
  0
LINE
  5
143
330
6F
100
AcDbEntity
  8
UKEZAI
  6
Continuous
100
AcDbLine
 10
606.0412277201016
 20
158.3364496096264
 30
0.0
 11
607.4412277201018
 21
158.3364496096264
 31
0.0
  0
LINE
  5
144
330
6F
100
AcDbEntity
  8
UKEZAI
  6
Continuous
100
AcDbLine
 10
259.4273721245311
 20
161.336449609626
 30
0.0
 11
259.4273721245311
 21
168.336449609626
 31
0.0
  0
LINE
  5
145
330
6F
100
AcDbEntity
  8
UKEZAI
  6
Continuous
100
AcDbLine
 10
260.9273721245829
 20
158.3364496096258
 30
0.0
 11
260.9273721245851
 21
160.336449609339
 31
0.0
  0
LINE
  5
146
330
6F
100
AcDbEntity
  8
UKEZAI
  6
Continuous
100
AcDbLine
 10
257.9273721245311
 20
159.836449609626
 30
0.0
 11
257.9273721245311
 21
172.586449609626
 31
0.0
  0
LINE
  5
147
330
6F
100
AcDbEntity
  8
UKEZAI
  6
Continuous
100
AcDbLine
 10
259.4273721245311
 20
168.3364496095804
 30
0.0
 11
260.7273721238
 21
168.3364496095815
 31
0.0
  0
LINE
  5
148
330
6F
100
AcDbEntity
  8
UKEZAI
  6
Continuous
100
AcDbLine
 10
259.4273721245311
 20
161.336449609626
 30
0.0
 11
260.7273721245863
 21
161.336449609626
 31
0.0
  0
LINE
  5
149
330
6F
100
AcDbEntity
  8
UKEZAI
  6
Continuous
100
AcDbLine
 10
226.0273721245312
 20
161.336449609626
 30
0.0
 11
226.0273721245312
 21
168.336449609626
 31
0.0
  0
LINE
  5
14A
330
6F
100
AcDbEntity
  8
UKEZAI
  6
Continuous
100
AcDbLine
 10
224.5273721244793
 20
158.336449609626
 30
0.0
 11
224.527372124477
 21
160.336449609336
 31
0.0
  0
LINE
  5
14B
330
6F
100
AcDbEntity
  8
UKEZAI
  6
Continuous
100
AcDbLine
 10
227.5273721245312
 20
159.836449609626
 30
0.0
 11
227.5273721245312
 21
172.586449609626
 31
0.0
  0
ARC
  5
14C
330
6F
100
AcDbEntity
  8
UKEZAI
  6
Continuous
100
AcDbCircle
 10
226.7773721245312
 20
172.586449609626
 30
0.0
 40
0.75
100
AcDbArc
 50
0.0
 51
160.1120357041571
  0
LINE
  5
14D
330
6F
100
AcDbEntity
  8
UKEZAI
  6
Continuous
100
AcDbLine
 10
226.0273721245311
 20
168.3364496095807
 30
0.0
 11
224.7273721252621
 21
168.3364496095816
 31
0.0
  0
LINE
  5
14E
330
6F
100
AcDbEntity
  8
UKEZAI
  6
Continuous
100
AcDbLine
 10
226.0273721245312
 20
161.336449609626
 30
0.0
 11
224.727372124476
 21
161.336449609626
 31
0.0
  0
LINE
  5
14F
330
6F
100
AcDbEntity
  8
UKEZAI
  6
Continuous
100
AcDbLine
 10
224.5273721244798
 20
158.336449609626
 30
0.0
 11
260.9273721245829
 21
158.336449609626
 31
0.0
  0
ARC
  5
150
330
6F
100
AcDbEntity
  8
UKEZAI
  6
Continuous
100
AcDbCircle
 10
242.727372124531
 20
159.836449609626
 30
0.0
 40
0.3
100
AcDbArc
 50
180.0
 51
0.0
  0
ARC
  5
151
330
6F
100
AcDbEntity
  8
UKEZAI
  6
Continuous
100
AcDbCircle
 10
258.6773721245311
 20
172.586449609626
 30
0.0
 40
0.75
100
AcDbArc
 50
19.8879642958426
 51
180.0
  0
LINE
  5
152
330
6F
100
AcDbEntity
  8
UKEZAI
  6
Continuous
100
AcDbLine
 10
260.927372124585
 20
160.336449609339
 30
0.0
 11
260.7273721245861
 21
161.336449609626
 31
0.0
  0
LINE
  5
153
330
6F
100
AcDbEntity
  8
UKEZAI
  6
Continuous
100
AcDbLine
 10
224.5273721244772
 20
160.3364496093389
 30
0.0
 11
224.727372124476
 21
161.3364496096258
 31
0.0
  0
ARC
  5
154
330
6F
100
AcDbEntity
  8
UKEZAI
  6
Continuous
100
AcDbCircle
 10
224.7273721252623
 20
168.5364496095816
 30
0.0
 40
0.2
100
AcDbArc
 50
160.1120357041559
 51
270.0
  0
LINE
  5
155
330
6F
100
AcDbEntity
  8
UKEZAI
  6
Continuous
100
AcDbLine
 10
224.5393002038023
 20
168.6044860142366
 30
0.0
 11
226.0721024190563
 21
172.841586127082
 31
0.0
  0
ARC
  5
156
330
6F
100
AcDbEntity
  8
UKEZAI
  6
Continuous
100
AcDbCircle
 10
260.7273721238
 20
168.5364496095816
 30
0.0
 40
0.2
100
AcDbArc
 50
270.0
 51
19.88796429584412
  0
LINE
  5
157
330
6F
100
AcDbEntity
  8
UKEZAI
  6
Continuous
100
AcDbLine
 10
260.91544404526
 20
168.6044860142366
 30
0.0
 11
259.382641830006
 21
172.8415861270819
 31
0.0
  0
ARC
  5
158
330
6F
100
AcDbEntity
  8
UKEZAI
  6
Continuous
100
AcDbCircle
 10
244.727372124531
 20
159.836449609626
 30
0.0
 40
0.3
100
AcDbArc
 50
0.0
 51
180.0
  0
LINE
  5
159
330
6F
100
AcDbEntity
  8
UKEZAI
  6
Continuous
100
AcDbLine
 10
243.0273721245312
 20
159.836449609626
 30
0.0
 11
244.4273721245313
 21
159.836449609626
 31
0.0
  0
LINE
  5
15A
330
6F
100
AcDbEntity
  8
UKEZAI
  6
Continuous
100
AcDbLine
 10
245.0273721245312
 20
159.836449609626
 30
0.0
 11
257.9273721245311
 21
159.836449609626
 31
0.0
  0
ARC
  5
15B
330
6F
100
AcDbEntity
  8
UKEZAI
  6
Continuous
100
AcDbCircle
 10
240.727372124531
 20
159.836449609626
 30
0.0
 40
0.3
100
AcDbArc
 50
0.0
 51
180.0
  0
LINE
  5
15C
330
6F
100
AcDbEntity
  8
UKEZAI
  6
Continuous
100
AcDbLine
 10
227.5273721245312
 20
159.836449609626
 30
0.0
 11
240.4273721245314
 21
159.836449609626
 31
0.0
  0
LINE
  5
15D
330
6F
100
AcDbEntity
  8
UKEZAI
  6
Continuous
100
AcDbLine
 10
241.0273721245312
 20
159.836449609626
 30
0.0
 11
242.4273721245313
 21
159.836449609626
 31
0.0
  0
LINE
  5
15E
330
6F
100
AcDbEntity
  8
UKEZAI
  6
Continuous
100
AcDbLine
 10
259.4273721245311
 20
423.7555691123014
 30
0.0
 11
259.4273721245311
 21
430.7555691123014
 31
0.0
  0
LINE
  5
15F
330
6F
100
AcDbEntity
  8
UKEZAI
  6
Continuous
100
AcDbLine
 10
260.9273721245829
 20
420.7555691123012
 30
0.0
 11
260.9273721245851
 21
422.7555691120143
 31
0.0
  0
LINE
  5
160
330
6F
100
AcDbEntity
  8
UKEZAI
  6
Continuous
100
AcDbLine
 10
257.9273721245311
 20
422.2555691123014
 30
0.0
 11
257.9273721245311
 21
435.0055691123014
 31
0.0
  0
LINE
  5
161
330
6F
100
AcDbEntity
  8
UKEZAI
  6
Continuous
100
AcDbLine
 10
259.4273721245311
 20
430.7555691122558
 30
0.0
 11
260.7273721238
 21
430.7555691122566
 31
0.0
  0
LINE
  5
162
330
6F
100
AcDbEntity
  8
UKEZAI
  6
Continuous
100
AcDbLine
 10
259.4273721245311
 20
423.7555691123014
 30
0.0
 11
260.7273721245863
 21
423.7555691123014
 31
0.0
  0
LINE
  5
163
330
6F
100
AcDbEntity
  8
UKEZAI
  6
Continuous
100
AcDbLine
 10
226.0273721245312
 20
423.7555691123014
 30
0.0
 11
226.0273721245312
 21
430.7555691123014
 31
0.0
  0
LINE
  5
164
330
6F
100
AcDbEntity
  8
UKEZAI
  6
Continuous
100
AcDbLine
 10
224.5273721244793
 20
420.7555691123013
 30
0.0
 11
224.527372124477
 21
422.7555691120113
 31
0.0
  0
LINE
  5
165
330
6F
100
AcDbEntity
  8
UKEZAI
  6
Continuous
100
AcDbLine
 10
227.5273721245312
 20
422.2555691123014
 30
0.0
 11
227.5273721245312
 21
435.0055691123014
 31
0.0
  0
ARC
  5
166
330
6F
100
AcDbEntity
  8
UKEZAI
  6
Continuous
100
AcDbCircle
 10
226.7773721245312
 20
435.0055691123014
 30
0.0
 40
0.75
100
AcDbArc
 50
0.0
 51
160.1120357041571
  0
LINE
  5
167
330
6F
100
AcDbEntity
  8
UKEZAI
  6
Continuous
100
AcDbLine
 10
226.0273721245311
 20
430.7555691122559
 30
0.0
 11
224.7273721252622
 21
430.7555691122568
 31
0.0
  0
LINE
  5
168
330
6F
100
AcDbEntity
  8
UKEZAI
  6
Continuous
100
AcDbLine
 10
226.0273721245312
 20
423.7555691123014
 30
0.0
 11
224.727372124476
 21
423.7555691123014
 31
0.0
  0
LINE
  5
169
330
6F
100
AcDbEntity
  8
UKEZAI
  6
Continuous
100
AcDbLine
 10
224.5273721244798
 20
420.7555691123014
 30
0.0
 11
260.9273721245829
 21
420.7555691123014
 31
0.0
  0
ARC
  5
16A
330
6F
100
AcDbEntity
  8
UKEZAI
  6
Continuous
100
AcDbCircle
 10
242.727372124531
 20
422.2555691123014
 30
0.0
 40
0.3
100
AcDbArc
 50
180.0
 51
0.0
  0
ARC
  5
16B
330
6F
100
AcDbEntity
  8
UKEZAI
  6
Continuous
100
AcDbCircle
 10
258.6773721245311
 20
435.0055691123014
 30
0.0
 40
0.75
100
AcDbArc
 50
19.8879642958426
 51
180.0
  0
LINE
  5
16C
330
6F
100
AcDbEntity
  8
UKEZAI
  6
Continuous
100
AcDbLine
 10
260.9273721245849
 20
422.7555691120143
 30
0.0
 11
260.7273721245861
 21
423.7555691123013
 31
0.0
  0
LINE
  5
16D
330
6F
100
AcDbEntity
  8
UKEZAI
  6
Continuous
100
AcDbLine
 10
224.5273721244771
 20
422.7555691120141
 30
0.0
 11
224.727372124476
 21
423.755569112301
 31
0.0
  0
ARC
  5
16E
330
6F
100
AcDbEntity
  8
UKEZAI
  6
Continuous
100
AcDbCircle
 10
224.7273721252623
 20
430.955569112257
 30
0.0
 40
0.2
100
AcDbArc
 50
160.1120357041559
 51
270.0
  0
LINE
  5
16F
330
6F
100
AcDbEntity
  8
UKEZAI
  6
Continuous
100
AcDbLine
 10
224.5393002038022
 20
431.0236055169117
 30
0.0
 11
226.0721024190562
 21
435.260705629757
 31
0.0
  0
ARC
  5
170
330
6F
100
AcDbEntity
  8
UKEZAI
  6
Continuous
100
AcDbCircle
 10
260.7273721238
 20
430.955569112257
 30
0.0
 40
0.2
100
AcDbArc
 50
270.0
 51
19.88796429584412
  0
LINE
  5
171
330
6F
100
AcDbEntity
  8
UKEZAI
  6
Continuous
100
AcDbLine
 10
260.91544404526
 20
431.023605516912
 30
0.0
 11
259.382641830006
 21
435.2607056297571
 31
0.0
  0
ARC
  5
172
330
6F
100
AcDbEntity
  8
UKEZAI
  6
Continuous
100
AcDbCircle
 10
244.727372124531
 20
422.2555691123014
 30
0.0
 40
0.3
100
AcDbArc
 50
0.0
 51
180.0
  0
LINE
  5
173
330
6F
100
AcDbEntity
  8
UKEZAI
  6
Continuous
100
AcDbLine
 10
243.0273721245312
 20
422.2555691123014
 30
0.0
 11
244.4273721245313
 21
422.2555691123014
 31
0.0
  0
LINE
  5
174
330
6F
100
AcDbEntity
  8
UKEZAI
  6
Continuous
100
AcDbLine
 10
245.0273721245312
 20
422.2555691123014
 30
0.0
 11
257.9273721245311
 21
422.2555691123014
 31
0.0
  0
ARC
  5
175
330
6F
100
AcDbEntity
  8
UKEZAI
  6
Continuous
100
AcDbCircle
 10
240.727372124531
 20
422.2555691123014
 30
0.0
 40
0.3
100
AcDbArc
 50
0.0
 51
180.0
  0
LINE
  5
176
330
6F
100
AcDbEntity
  8
UKEZAI
  6
Continuous
100
AcDbLine
 10
227.5273721245312
 20
422.2555691123014
 30
0.0
 11
240.4273721245314
 21
422.2555691123014
 31
0.0
  0
LINE
  5
177
330
6F
100
AcDbEntity
  8
UKEZAI
  6
Continuous
100
AcDbLine
 10
241.0273721245312
 20
422.2555691123014
 30
0.0
 11
242.4273721245313
 21
422.2555691123014
 31
0.0
  0
LINE
  5
178
330
6F
100
AcDbEntity
  8
COMMENT
  6
Continuous
100
AcDbLine
 10
587.7412277201053
 20
478.146768632147
 30
0.0
 11
587.7412277201053
 21
494.7555691123015
 31
0.0
  0
LINE
  5
179
330
6F
100
AcDbEntity
  8
COMMENT
  6
Continuous
100
AcDbLine
 10
587.7412277201053
 20
493.7555691123015
 30
0.0
 11
627.7412277201054
 21
493.7555691123015
 31
0.0
  0
CIRCLE
  5
17A
330
6F
100
AcDbEntity
  8
COMMENT
  6
Continuous
100
AcDbCircle
 10
587.7412277201053
 20
493.7555691123015
 30
0.0
 40
0.5
  0
CIRCLE
  5
17B
330
6F
100
AcDbEntity
  8
COMMENT
  6
Continuous
100
AcDbCircle
 10
627.7412277201054
 20
493.7555691123015
 30
0.0
 40
0.5
  0
TEXT
  5
17C
330
6F
100
AcDbEntity
  8
COMMENT
  6
Continuous
100
AcDbText
 10
605.141227636659
 20
494.2555691123015
 30
0.0
 40
3.099999904632568
  1
40
100
AcDbText
  0
LINE
  5
17D
330
6F
100
AcDbEntity
  8
COMMENT
  6
Continuous
100
AcDbLine
 10
627.7412277201054
 20
478.146768632147
 30
0.0
 11
627.7412277201054
 21
494.7555691123015
 31
0.0
  0
LINE
  5
17E
330
6F
100
AcDbEntity
  8
COMMENT
  6
Continuous
100
AcDbLine
 10
627.7412277201054
 20
198.0121825968363
 30
0.0
 11
627.7412277201054
 21
217.0364496096264
 31
0.0
  0
LINE
  5
17F
330
6F
100
AcDbEntity
  8
COMMENT
  6
Continuous
100
AcDbLine
 10
627.7412277201054
 20
216.0364496096264
 30
0.0
 11
587.7412277201053
 21
216.0364496096264
 31
0.0
  0
CIRCLE
  5
180
330
6F
100
AcDbEntity
  8
COMMENT
  6
Continuous
100
AcDbCircle
 10
627.7412277201054
 20
216.0364496096264
 30
0.0
 40
0.5
  0
CIRCLE
  5
181
330
6F
100
AcDbEntity
  8
COMMENT
  6
Continuous
100
AcDbCircle
 10
587.7412277201053
 20
216.0364496096264
 30
0.0
 40
0.5
  0
TEXT
  5
182
330
6F
100
AcDbEntity
  8
COMMENT
  6
Continuous
100
AcDbText
 10
605.141227636659
 20
216.5364496096264
 30
0.0
 40
3.099999904632568
  1
40
100
AcDbText
  0
LINE
  5
183
330
6F
100
AcDbEntity
  8
COMMENT
  6
Continuous
100
AcDbLine
 10
587.7412277201053
 20
198.0121825968363
 30
0.0
 11
587.7412277201053
 21
217.0364496096264
 31
0.0
  0
LINE
  5
184
330
6F
100
AcDbEntity
  8
COMMENT
  6
Continuous
100
AcDbLine
 10
262.7273721245351
 20
201.0121825968352
 30
0.0
 11
262.7273721245351
 21
218.5364496096258
 31
0.0
  0
LINE
  5
185
330
6F
100
AcDbEntity
  8
COMMENT
  6
Continuous
100
AcDbLine
 10
262.7273721245351
 20
217.5364496096258
 30
0.0
 11
222.7273721245351
 21
217.5364496096258
 31
0.0
  0
CIRCLE
  5
186
330
6F
100
AcDbEntity
  8
COMMENT
  6
Continuous
100
AcDbCircle
 10
262.7273721245351
 20
217.5364496096258
 30
0.0
 40
0.5
  0
CIRCLE
  5
187
330
6F
100
AcDbEntity
  8
COMMENT
  6
Continuous
100
AcDbCircle
 10
222.7273721245351
 20
217.5364496096258
 30
0.0
 40
0.5
  0
TEXT
  5
188
330
6F
100
AcDbEntity
  8
COMMENT
  6
Continuous
100
AcDbText
 10
240.1273720410886
 20
218.0364496096258
 30
0.0
 40
3.099999904632568
  1
40
100
AcDbText
  0
LINE
  5
189
330
6F
100
AcDbEntity
  8
COMMENT
  6
Continuous
100
AcDbLine
 10
222.7273721245351
 20
201.0121825968352
 30
0.0
 11
222.7273721245351
 21
218.5364496096258
 31
0.0
  0
LINE
  5
18A
330
6F
100
AcDbEntity
  8
COMMENT
  6
Continuous
100
AcDbLine
 10
262.7273721245351
 20
461.6017657177841
 30
0.0
 11
262.7273721245351
 21
480.9555691123014
 31
0.0
  0
LINE
  5
18B
330
6F
100
AcDbEntity
  8
COMMENT
  6
Continuous
100
AcDbLine
 10
262.7273721245351
 20
479.9555691123014
 30
0.0
 11
222.7273721245351
 21
479.9555691123014
 31
0.0
  0
CIRCLE
  5
18C
330
6F
100
AcDbEntity
  8
COMMENT
  6
Continuous
100
AcDbCircle
 10
262.7273721245351
 20
479.9555691123014
 30
0.0
 40
0.5
  0
CIRCLE
  5
18D
330
6F
100
AcDbEntity
  8
COMMENT
  6
Continuous
100
AcDbCircle
 10
222.7273721245351
 20
479.9555691123014
 30
0.0
 40
0.5
  0
TEXT
  5
18E
330
6F
100
AcDbEntity
  8
COMMENT
  6
Continuous
100
AcDbText
 10
240.1273720410886
 20
480.4555691123014
 30
0.0
 40
3.099999904632568
  1
40
100
AcDbText
  0
LINE
  5
18F
330
6F
100
AcDbEntity
  8
COMMENT
  6
Continuous
100
AcDbLine
 10
222.7273721245351
 20
461.6017657177841
 30
0.0
 11
222.7273721245351
 21
480.9555691123014
 31
0.0
  0
LINE
  5
190
330
6F
100
AcDbEntity
  8
COMMENT
  6
Continuous
100
AcDbLine
 10
586.9412277081846
 20
475.7555691123151
 30
0.0
 11
560.9032915279706
 21
475.7555691123151
 31
0.0
  0
LINE
  5
191
330
6F
100
AcDbEntity
  8
COMMENT
  6
Continuous
100
AcDbLine
 10
561.9032915279706
 20
475.7555691123151
 30
0.0
 11
561.9032915279706
 21
435.7555691123014
 31
0.0
  0
CIRCLE
  5
192
330
6F
100
AcDbEntity
  8
COMMENT
  6
Continuous
100
AcDbCircle
 10
561.9032915279706
 20
475.7555691123151
 30
0.0
 40
0.5
  0
CIRCLE
  5
193
330
6F
100
AcDbEntity
  8
COMMENT
  6
Continuous
100
AcDbCircle
 10
561.9032915279706
 20
435.7555691123014
 30
0.0
 40
0.5
  0
TEXT
  5
194
330
6F
100
AcDbEntity
  8
COMMENT
  6
Continuous
100
AcDbText
 10
561.4032915279706
 20
453.1555690288617
 30
0.0
 40
3.099999904632568
  1
40
 50
90.0
100
AcDbText
  0
LINE
  5
195
330
6F
100
AcDbEntity
  8
COMMENT
  6
Continuous
100
AcDbLine
 10
221.9273721126142
 20
460.755569112315
 30
0.0
 11
194.3142080451761
 21
460.755569112315
 31
0.0
  0
LINE
  5
196
330
6F
100
AcDbEntity
  8
COMMENT
  6
Continuous
100
AcDbLine
 10
195.3142080451761
 20
460.755569112315
 30
0.0
 11
195.3142080451761
 21
420.7555691123014
 31
0.0
  0
CIRCLE
  5
197
330
6F
100
AcDbEntity
  8
COMMENT
  6
Continuous
100
AcDbCircle
 10
195.3142080451761
 20
460.755569112315
 30
0.0
 40
0.5
  0
CIRCLE
  5
198
330
6F
100
AcDbEntity
  8
COMMENT
  6
Continuous
100
AcDbCircle
 10
195.3142080451761
 20
420.7555691123014
 30
0.0
 40
0.5
  0
TEXT
  5
199
330
6F
100
AcDbEntity
  8
COMMENT
  6
Continuous
100
AcDbText
 10
194.8142080451761
 20
438.1555690288617
 30
0.0
 40
3.099999904632568
  1
40
 50
90.0
100
AcDbText
  0
LINE
  5
19A
330
6F
100
AcDbEntity
  8
COMMENT
  6
Continuous
100
AcDbLine
 10
586.9412277081846
 20
196.83644960964
 30
0.0
 11
558.9007365706098
 21
196.83644960964
 31
0.0
  0
LINE
  5
19B
330
6F
100
AcDbEntity
  8
COMMENT
  6
Continuous
100
AcDbLine
 10
559.9007365706098
 20
196.83644960964
 30
0.0
 11
559.9007365706098
 21
156.8364496096263
 31
0.0
  0
CIRCLE
  5
19C
330
6F
100
AcDbEntity
  8
COMMENT
  6
Continuous
100
AcDbCircle
 10
559.9007365706098
 20
196.83644960964
 30
0.0
 40
0.5
  0
CIRCLE
  5
19D
330
6F
100
AcDbEntity
  8
COMMENT
  6
Continuous
100
AcDbCircle
 10
559.9007365706098
 20
156.8364496096263
 30
0.0
 40
0.5
  0
TEXT
  5
19E
330
6F
100
AcDbEntity
  8
COMMENT
  6
Continuous
100
AcDbText
 10
559.4007365706098
 20
174.2364495261867
 30
0.0
 40
3.099999904632568
  1
40
 50
90.0
100
AcDbText
  0
LINE
  5
19F
330
6F
100
AcDbEntity
  8
COMMENT
  6
Continuous
100
AcDbLine
 10
221.9273721126142
 20
198.3364496096397
 30
0.0
 11
193.5482670750466
 21
198.3364496096397
 31
0.0
  0
LINE
  5
1A0
330
6F
100
AcDbEntity
  8
COMMENT
  6
Continuous
100
AcDbLine
 10
194.5482670750465
 20
198.3364496096397
 30
0.0
 11
194.5482670750465
 21
158.336449609626
 31
0.0
  0
CIRCLE
  5
1A1
330
6F
100
AcDbEntity
  8
COMMENT
  6
Continuous
100
AcDbCircle
 10
194.5482670750465
 20
198.3364496096397
 30
0.0
 40
0.5
  0
CIRCLE
  5
1A2
330
6F
100
AcDbEntity
  8
COMMENT
  6
Continuous
100
AcDbCircle
 10
194.5482670750465
 20
158.336449609626
 30
0.0
 40
0.5
  0
TEXT
  5
1A3
330
6F
100
AcDbEntity
  8
COMMENT
  6
Continuous
100
AcDbText
 10
194.0482670750465
 20
175.7364495261863
 30
0.0
 40
3.099999904632568
  1
40
 50
90.0
100
AcDbText
  0
LINE
  5
1A4
330
6F
100
AcDbEntity
  8
COMMENT
  6
Continuous
100
AcDbLine
 10
582.5526257826271
 20
445.7555691123046
 30
0.0
 11
573.0691716296142
 21
445.7555691122824
 31
0.0
  0
LINE
  5
1A5
330
6F
100
AcDbEntity
  8
COMMENT
  6
Continuous
100
AcDbLine
 10
574.0691716296143
 20
445.7555691122847
 30
0.0
 11
574.0691716296143
 21
435.7555691123014
 31
0.0
  0
CIRCLE
  5
1A6
330
6F
100
AcDbEntity
  8
COMMENT
  6
Continuous
100
AcDbCircle
 10
574.0691716296143
 20
445.7555691122847
 30
0.0
 40
0.5
  0
CIRCLE
  5
1A7
330
6F
100
AcDbEntity
  8
COMMENT
  6
Continuous
100
AcDbCircle
 10
574.0691716296143
 20
435.7555691123014
 30
0.0
 40
0.5
  0
TEXT
  5
1A8
330
6F
100
AcDbEntity
  8
COMMENT
  6
Continuous
100
AcDbText
 10
573.5691716296143
 20
438.1555690288466
 30
0.0
 40
3.099999904632568
  1
10
 50
90.0
100
AcDbText
  0
LINE
  5
1A9
330
6F
100
AcDbEntity
  8
COMMENT
  6
Continuous
100
AcDbLine
 10
588.7412277081292
 20
435.7555691123014
 30
0.0
 11
573.0691716296142
 21
435.7555691123014
 31
0.0
  0
LINE
  5
1AA
330
6F
100
AcDbEntity
  8
COMMENT
  6
Continuous
100
AcDbLine
 10
586.9412277081813
 20
436.7555691123138
 30
0.0
 11
580.6895603646681
 21
436.7555691123138
 31
0.0
  0
LINE
  5
1AB
330
6F
100
AcDbEntity
  8
COMMENT
  6
Continuous
100
AcDbLine
 10
581.6895603646679
 20
441.3399301886688
 30
0.0
 11
581.6895603646679
 21
435.7555691123014
 31
0.0
  0
CIRCLE
  5
1AC
330
6F
100
AcDbEntity
  8
COMMENT
  6
Continuous
100
AcDbCircle
 10
581.6895603646679
 20
436.7555691123138
 30
0.0
 40
0.5
  0
CIRCLE
  5
1AD
330
6F
100
AcDbEntity
  8
COMMENT
  6
Continuous
100
AcDbCircle
 10
581.6895603646679
 20
435.7555691123014
 30
0.0
 40
0.5
  0
TEXT
  5
1AE
330
6F
100
AcDbEntity
  8
COMMENT
  6
Continuous
100
AcDbText
 10
581.189560364668
 20
438.7399300970203
 30
0.0
 40
3.099999904632568
  1
1
 50
90.0
100
AcDbText
  0
LINE
  5
1AF
330
6F
100
AcDbEntity
  8
COMMENT
  6
Continuous
100
AcDbLine
 10
588.7412277081292
 20
435.7555691123014
 30
0.0
 11
580.6895603646681
 21
435.7555691123014
 31
0.0
  0
LINE
  5
1B0
330
6F
100
AcDbEntity
  8
COMMENT
  6
Continuous
100
AcDbLine
 10
217.5387701870565
 20
430.7555691123051
 30
0.0
 11
205.3158592603857
 21
430.7555691122828
 31
0.0
  0
LINE
  5
1B1
330
6F
100
AcDbEntity
  8
COMMENT
  6
Continuous
100
AcDbLine
 10
206.3158592603857
 20
430.7555691122847
 30
0.0
 11
206.3158592603857
 21
420.7555691123014
 31
0.0
  0
CIRCLE
  5
1B2
330
6F
100
AcDbEntity
  8
COMMENT
  6
Continuous
100
AcDbCircle
 10
206.3158592603857
 20
430.7555691122847
 30
0.0
 40
0.5
  0
CIRCLE
  5
1B3
330
6F
100
AcDbEntity
  8
COMMENT
  6
Continuous
100
AcDbCircle
 10
206.3158592603857
 20
420.7555691123014
 30
0.0
 40
0.5
  0
TEXT
  5
1B4
330
6F
100
AcDbEntity
  8
COMMENT
  6
Continuous
100
AcDbText
 10
205.8158592603857
 20
423.1555690288464
 30
0.0
 40
3.099999904632568
  1
10
 50
90.0
100
AcDbText
  0
LINE
  5
1B5
330
6F
100
AcDbEntity
  8
COMMENT
  6
Continuous
100
AcDbLine
 10
221.9273721126106
 20
421.7555691123159
 30
0.0
 11
214.6600535063528
 21
421.7555691123159
 31
0.0
  0
LINE
  5
1B6
330
6F
100
AcDbEntity
  8
COMMENT
  6
Continuous
100
AcDbLine
 10
215.6600535063528
 20
425.9026628852041
 30
0.0
 11
215.6600535063528
 21
420.7555691123014
 31
0.0
  0
CIRCLE
  5
1B7
330
6F
100
AcDbEntity
  8
COMMENT
  6
Continuous
100
AcDbCircle
 10
215.6600535063528
 20
421.7555691123159
 30
0.0
 40
0.5
  0
CIRCLE
  5
1B8
330
6F
100
AcDbEntity
  8
COMMENT
  6
Continuous
100
AcDbCircle
 10
215.6600535063528
 20
420.7555691123014
 30
0.0
 40
0.5
  0
TEXT
  5
1B9
330
6F
100
AcDbEntity
  8
COMMENT
  6
Continuous
100
AcDbText
 10
215.1600535063528
 20
423.3026628949307
 30
0.0
 40
3.099999904632568
  1
1
 50
90.0
100
AcDbText
  0
LINE
  5
1BA
330
6F
100
AcDbEntity
  8
COMMENT
  6
Continuous
100
AcDbLine
 10
217.5387701870568
 20
168.3364496096294
 30
0.0
 11
205.5159255313686
 21
168.3364496096074
 31
0.0
  0
LINE
  5
1BB
330
6F
100
AcDbEntity
  8
COMMENT
  6
Continuous
100
AcDbLine
 10
206.5159255313686
 20
168.3364496096092
 30
0.0
 11
206.5159255313686
 21
158.336449609626
 31
0.0
  0
CIRCLE
  5
1BC
330
6F
100
AcDbEntity
  8
COMMENT
  6
Continuous
100
AcDbCircle
 10
206.5159255313686
 20
168.3364496096092
 30
0.0
 40
0.5
  0
CIRCLE
  5
1BD
330
6F
100
AcDbEntity
  8
COMMENT
  6
Continuous
100
AcDbCircle
 10
206.5159255313686
 20
158.336449609626
 30
0.0
 40
0.5
  0
TEXT
  5
1BE
330
6F
100
AcDbEntity
  8
COMMENT
  6
Continuous
100
AcDbText
 10
206.0159255313686
 20
160.7364495261711
 30
0.0
 40
3.099999904632568
  1
10
 50
90.0
100
AcDbText
  0
LINE
  5
1BF
330
6F
100
AcDbEntity
  8
COMMENT
  6
Continuous
100
AcDbLine
 10
223.7273721125589
 20
158.336449609626
 30
0.0
 11
205.5159255313686
 21
158.336449609626
 31
0.0
  0
LINE
  5
1C0
330
6F
100
AcDbEntity
  8
COMMENT
  6
Continuous
100
AcDbLine
 10
221.9273721126108
 20
159.3364496096385
 30
0.0
 11
214.8538725858647
 21
159.3364496096385
 31
0.0
  0
LINE
  5
1C1
330
6F
100
AcDbEntity
  8
COMMENT
  6
Continuous
100
AcDbLine
 10
215.8538725858647
 20
163.5875506266368
 30
0.0
 11
215.8538725858647
 21
158.336449609626
 31
0.0
  0
CIRCLE
  5
1C2
330
6F
100
AcDbEntity
  8
COMMENT
  6
Continuous
100
AcDbCircle
 10
215.8538725858647
 20
159.3364496096385
 30
0.0
 40
0.5
  0
CIRCLE
  5
1C3
330
6F
100
AcDbEntity
  8
COMMENT
  6
Continuous
100
AcDbCircle
 10
215.8538725858647
 20
158.336449609626
 30
0.0
 40
0.5
  0
TEXT
  5
1C4
330
6F
100
AcDbEntity
  8
COMMENT
  6
Continuous
100
AcDbText
 10
215.3538725858647
 20
160.9875506121348
 30
0.0
 40
3.099999904632568
  1
1
 50
90.0
100
AcDbText
  0
LINE
  5
1C5
330
6F
100
AcDbEntity
  8
COMMENT
  6
Continuous
100
AcDbLine
 10
223.7273721125589
 20
158.336449609626
 30
0.0
 11
214.8538725858647
 21
158.336449609626
 31
0.0
  0
LINE
  5
1C6
330
6F
100
AcDbEntity
  8
COMMENT
  6
Continuous
100
AcDbLine
 10
582.5526257826273
 20
166.8364496096312
 30
0.0
 11
570.9621447636712
 21
166.8364496096312
 31
0.0
  0
LINE
  5
1C7
330
6F
100
AcDbEntity
  8
COMMENT
  6
Continuous
100
AcDbLine
 10
571.9621447636712
 20
166.8364496096312
 30
0.0
 11
571.9621447636712
 21
156.8364496096263
 31
0.0
  0
CIRCLE
  5
1C8
330
6F
100
AcDbEntity
  8
COMMENT
  6
Continuous
100
AcDbCircle
 10
571.9621447636712
 20
166.8364496096312
 30
0.0
 40
0.5
  0
CIRCLE
  5
1C9
330
6F
100
AcDbEntity
  8
COMMENT
  6
Continuous
100
AcDbCircle
 10
571.9621447636712
 20
156.8364496096263
 30
0.0
 40
0.5
  0
TEXT
  5
1CA
330
6F
100
AcDbEntity
  8
COMMENT
  6
Continuous
100
AcDbText
 10
571.4621447636712
 20
159.2364495261823
 30
0.0
 40
3.099999904632568
  1
10
 50
90.0
100
AcDbText
  0
LINE
  5
1CB
330
6F
100
AcDbEntity
  8
COMMENT
  6
Continuous
100
AcDbLine
 10
586.9412277081807
 20
157.8364496096409
 30
0.0
 11
579.4951540857566
 21
157.8364496096409
 31
0.0
  0
LINE
  5
1CC
330
6F
100
AcDbEntity
  8
COMMENT
  6
Continuous
100
AcDbLine
 10
580.4951540857565
 20
161.9637722834385
 30
0.0
 11
580.4951540857565
 21
156.8364496096263
 31
0.0
  0
CIRCLE
  5
1CD
330
6F
100
AcDbEntity
  8
COMMENT
  6
Continuous
100
AcDbCircle
 10
580.4951540857565
 20
157.8364496096409
 30
0.0
 40
0.5
  0
CIRCLE
  5
1CE
330
6F
100
AcDbEntity
  8
COMMENT
  6
Continuous
100
AcDbCircle
 10
580.4951540857565
 20
156.8364496096263
 30
0.0
 40
0.5
  0
TEXT
  5
1CF
330
6F
100
AcDbEntity
  8
COMMENT
  6
Continuous
100
AcDbText
 10
579.9951540857565
 20
159.3637721998884
 30
0.0
 40
3.099999904632568
  1
1
 50
90.0
100
AcDbText
  0
LINE
  5
1D0
330
6F
100
AcDbEntity
  8
COMMENT
  6
Continuous
100
AcDbLine
 10
222.7273721245317
 20
420.955569100393
 30
0.0
 11
222.7273721245317
 21
360.2634290956092
 31
0.0
  0
LINE
  5
1D1
330
6F
100
AcDbEntity
  8
COMMENT
  6
Continuous
100
AcDbLine
 10
222.7273721245317
 20
361.2634290956092
 30
0.0
 11
242.7273721234328
 21
361.2634290956092
 31
0.0
  0
CIRCLE
  5
1D2
330
6F
100
AcDbEntity
  8
COMMENT
  6
Continuous
100
AcDbCircle
 10
222.7273721245317
 20
361.2634290956092
 30
0.0
 40
0.5
  0
CIRCLE
  5
1D3
330
6F
100
AcDbEntity
  8
COMMENT
  6
Continuous
100
AcDbCircle
 10
242.7273721234328
 20
361.2634290956092
 30
0.0
 40
0.5
  0
TEXT
  5
1D4
330
6F
100
AcDbEntity
  8
COMMENT
  6
Continuous
100
AcDbText
 10
230.1273720405358
 20
361.7634290956092
 30
0.0
 40
3.099999904632568
  1
20
100
AcDbText
  0
LINE
  5
1D5
330
6F
100
AcDbEntity
  8
COMMENT
  6
Continuous
100
AcDbLine
 10
242.7273721234328
 20
361.2634290956092
 30
0.0
 11
262.7273721245309
 21
361.2634290956092
 31
0.0
  0
CIRCLE
  5
1D6
330
6F
100
AcDbEntity
  8
COMMENT
  6
Continuous
100
AcDbCircle
 10
242.7273721234328
 20
361.2634290956092
 30
0.0
 40
0.5
  0
CIRCLE
  5
1D7
330
6F
100
AcDbEntity
  8
COMMENT
  6
Continuous
100
AcDbCircle
 10
262.7273721245309
 20
361.2634290956092
 30
0.0
 40
0.5
  0
TEXT
  5
1D8
330
6F
100
AcDbEntity
  8
COMMENT
  6
Continuous
100
AcDbText
 10
250.1273720405354
 20
361.7634290956092
 30
0.0
 40
3.099999904632568
  1
20
100
AcDbText
  0
LINE
  5
1D9
330
6F
100
AcDbEntity
  8
COMMENT
  6
Continuous
100
AcDbLine
 10
262.7273721245309
 20
420.9555691003776
 30
0.0
 11
262.7273721245309
 21
360.2634290956092
 31
0.0
  0
LINE
  5
1DA
330
6F
100
AcDbEntity
  8
COMMENT
  6
Continuous
100
AcDbLine
 10
222.7273721245317
 20
158.5364495977175
 30
0.0
 11
222.7273721245317
 21
112.9690970986311
 31
0.0
  0
LINE
  5
1DB
330
6F
100
AcDbEntity
  8
COMMENT
  6
Continuous
100
AcDbLine
 10
222.7273721245317
 20
113.9690970986311
 30
0.0
 11
242.7273721234328
 21
113.9690970986311
 31
0.0
  0
CIRCLE
  5
1DC
330
6F
100
AcDbEntity
  8
COMMENT
  6
Continuous
100
AcDbCircle
 10
222.7273721245317
 20
113.9690970986311
 30
0.0
 40
0.5
  0
CIRCLE
  5
1DD
330
6F
100
AcDbEntity
  8
COMMENT
  6
Continuous
100
AcDbCircle
 10
242.7273721234328
 20
113.9690970986311
 30
0.0
 40
0.5
  0
TEXT
  5
1DE
330
6F
100
AcDbEntity
  8
COMMENT
  6
Continuous
100
AcDbText
 10
230.1273720405358
 20
114.4690970986311
 30
0.0
 40
3.099999904632568
  1
20
100
AcDbText
  0
LINE
  5
1DF
330
6F
100
AcDbEntity
  8
COMMENT
  6
Continuous
100
AcDbLine
 10
242.7273721234328
 20
113.9690970986311
 30
0.0
 11
262.7273721245309
 21
113.9690970986311
 31
0.0
  0
CIRCLE
  5
1E0
330
6F
100
AcDbEntity
  8
COMMENT
  6
Continuous
100
AcDbCircle
 10
242.7273721234328
 20
113.9690970986311
 30
0.0
 40
0.5
  0
CIRCLE
  5
1E1
330
6F
100
AcDbEntity
  8
COMMENT
  6
Continuous
100
AcDbCircle
 10
262.7273721245309
 20
113.9690970986311
 30
0.0
 40
0.5
  0
TEXT
  5
1E2
330
6F
100
AcDbEntity
  8
COMMENT
  6
Continuous
100
AcDbText
 10
250.1273720405353
 20
114.4690970986311
 30
0.0
 40
3.099999904632568
  1
20
100
AcDbText
  0
LINE
  5
1E3
330
6F
100
AcDbEntity
  8
COMMENT
  6
Continuous
100
AcDbLine
 10
262.7273721245309
 20
158.5364495977022
 30
0.0
 11
262.7273721245309
 21
112.9690970986311
 31
0.0
  0
LINE
  5
1E4
330
6F
100
AcDbEntity
  8
COMMENT
  6
Continuous
100
AcDbLine
 10
587.7412277201021
 20
435.9555691003928
 30
0.0
 11
587.7412277201021
 21
369.0960253646421
 31
0.0
  0
LINE
  5
1E5
330
6F
100
AcDbEntity
  8
COMMENT
  6
Continuous
100
AcDbLine
 10
587.7412277201021
 20
370.0960253646421
 30
0.0
 11
607.7412277190031
 21
370.0960253646421
 31
0.0
  0
CIRCLE
  5
1E6
330
6F
100
AcDbEntity
  8
COMMENT
  6
Continuous
100
AcDbCircle
 10
587.7412277201021
 20
370.0960253646421
 30
0.0
 40
0.5
  0
CIRCLE
  5
1E7
330
6F
100
AcDbEntity
  8
COMMENT
  6
Continuous
100
AcDbCircle
 10
607.7412277190031
 20
370.0960253646421
 30
0.0
 40
0.5
  0
TEXT
  5
1E8
330
6F
100
AcDbEntity
  8
COMMENT
  6
Continuous
100
AcDbText
 10
595.1412276361061
 20
370.5960253646421
 30
0.0
 40
3.099999904632568
  1
20
100
AcDbText
  0
LINE
  5
1E9
330
6F
100
AcDbEntity
  8
COMMENT
  6
Continuous
100
AcDbLine
 10
607.7412277190031
 20
373.7441334421001
 30
0.0
 11
607.7412277190031
 21
369.0960253646421
 31
0.0
  0
LINE
  5
1EA
330
6F
100
AcDbEntity
  8
COMMENT
  6
Continuous
100
AcDbLine
 10
607.7412277190031
 20
370.0960253646421
 30
0.0
 11
627.7412277201013
 21
370.0960253646421
 31
0.0
  0
CIRCLE
  5
1EB
330
6F
100
AcDbEntity
  8
COMMENT
  6
Continuous
100
AcDbCircle
 10
607.7412277190031
 20
370.0960253646421
 30
0.0
 40
0.5
  0
CIRCLE
  5
1EC
330
6F
100
AcDbEntity
  8
COMMENT
  6
Continuous
100
AcDbCircle
 10
627.7412277201013
 20
370.0960253646421
 30
0.0
 40
0.5
  0
TEXT
  5
1ED
330
6F
100
AcDbEntity
  8
COMMENT
  6
Continuous
100
AcDbText
 10
615.1412276361058
 20
370.5960253646421
 30
0.0
 40
3.099999904632568
  1
20
100
AcDbText
  0
LINE
  5
1EE
330
6F
100
AcDbEntity
  8
COMMENT
  6
Continuous
100
AcDbLine
 10
627.7412277201013
 20
435.9555691003776
 30
0.0
 11
627.7412277201013
 21
369.0960253646421
 31
0.0
  0
LINE
  5
1EF
330
6F
100
AcDbEntity
  8
COMMENT
  6
Continuous
100
AcDbLine
 10
587.7412277201021
 20
157.0364495977179
 30
0.0
 11
587.7412277201021
 21
115.5937287199209
 31
0.0
  0
LINE
  5
1F0
330
6F
100
AcDbEntity
  8
COMMENT
  6
Continuous
100
AcDbLine
 10
587.7412277201021
 20
116.5937287199209
 30
0.0
 11
607.7412277190031
 21
116.5937287199209
 31
0.0
  0
CIRCLE
  5
1F1
330
6F
100
AcDbEntity
  8
COMMENT
  6
Continuous
100
AcDbCircle
 10
587.7412277201021
 20
116.5937287199209
 30
0.0
 40
0.5
  0
CIRCLE
  5
1F2
330
6F
100
AcDbEntity
  8
COMMENT
  6
Continuous
100
AcDbCircle
 10
607.7412277190031
 20
116.5937287199209
 30
0.0
 40
0.5
  0
TEXT
  5
1F3
330
6F
100
AcDbEntity
  8
COMMENT
  6
Continuous
100
AcDbText
 10
595.1412276361061
 20
117.0937287199209
 30
0.0
 40
3.099999904632568
  1
20
100
AcDbText
  0
LINE
  5
1F4
330
6F
100
AcDbEntity
  8
COMMENT
  6
Continuous
100
AcDbLine
 10
607.7412277190031
 20
116.5937287199209
 30
0.0
 11
627.7412277201013
 21
116.5937287199209
 31
0.0
  0
CIRCLE
  5
1F5
330
6F
100
AcDbEntity
  8
COMMENT
  6
Continuous
100
AcDbCircle
 10
607.7412277190031
 20
116.5937287199209
 30
0.0
 40
0.5
  0
CIRCLE
  5
1F6
330
6F
100
AcDbEntity
  8
COMMENT
  6
Continuous
100
AcDbCircle
 10
627.7412277201013
 20
116.5937287199209
 30
0.0
 40
0.5
  0
TEXT
  5
1F7
330
6F
100
AcDbEntity
  8
COMMENT
  6
Continuous
100
AcDbText
 10
615.1412276361058
 20
117.0937287199209
 30
0.0
 40
3.099999904632568
  1
20
100
AcDbText
  0
LINE
  5
1F8
330
6F
100
AcDbEntity
  8
COMMENT
  6
Continuous
100
AcDbLine
 10
627.7412277201013
 20
157.0364495977026
 30
0.0
 11
627.7412277201013
 21
115.5937287199209
 31
0.0
  0
LINE
  5
1F9
330
6F
100
AcDbEntity
  8
LOUVER
  6
CENTER
100
AcDbLine
 10
607.7412277190031
 20
374.5441334540211
 30
0.0
 11
607.7412277190031
 21
453.3511387659603
 31
0.0
  0
LINE
  5
1FA
330
6F
100
AcDbEntity
  8
WASHER
  6
Continuous
100
AcDbLine
 10
592.7412277190032
 20
439.2555691123014
 30
0.0
 11
622.7412277190031
 21
439.2555691123014
 31
0.0
  0
LINE
  5
1FB
330
6F
100
AcDbEntity
  8
WASHER
  6
Continuous
100
AcDbLine
 10
622.7412277190031
 20
437.2555691123014
 30
0.0
 11
622.7412277190031
 21
439.2555691123014
 31
0.0
  0
LINE
  5
1FC
330
6F
100
AcDbEntity
  8
WASHER
  6
Continuous
100
AcDbLine
 10
592.7412277190032
 20
437.2555691123014
 30
0.0
 11
592.7412277190032
 21
439.2555691123014
 31
0.0
  0
LINE
  5
1FD
330
6F
100
AcDbEntity
  8
ANCHOR
  6
Continuous
100
AcDbLine
 10
602.7412277189593
 20
443.2555691123011
 30
0.0
 11
612.7412277189592
 21
443.2555691123011
 31
0.0
  0
LINE
  5
1FE
330
6F
100
AcDbEntity
  8
ANCHOR
  6
Continuous
100
AcDbLine
 10
613.5147304108556
 20
442.8089871249161
 30
0.0
 11
613.5147304108556
 21
439.2555691123014
 31
0.0
  0
LINE
  5
1FF
330
6F
100
AcDbEntity
  8
ANCHOR
  6
Continuous
100
AcDbLine
 10
601.9677250270631
 20
442.8089871249161
 30
0.0
 11
601.9677250270631
 21
439.2555691123014
 31
0.0
  0
LINE
  5
200
330
6F
100
AcDbEntity
  8
ANCHOR
  6
Continuous
100
AcDbLine
 10
604.8544763730108
 20
442.7040143486999
 30
0.0
 11
604.8544763730108
 21
439.2555691123014
 31
0.0
  0
LINE
  5
201
330
6F
100
AcDbEntity
  8
ANCHOR
  6
Continuous
100
AcDbLine
 10
610.6279790649071
 20
442.7040143486999
 30
0.0
 11
610.6279790649071
 21
439.2555691123014
 31
0.0
  0
LINE
  5
202
330
6F
100
AcDbEntity
  8
ANCHOR
  6
Continuous
100
AcDbLine
 10
613.5147304108555
 20
442.8089871249165
 30
0.0
 11
612.7412277189587
 21
443.2555691123018
 31
0.0
  0
LINE
  5
203
330
6F
100
AcDbEntity
  8
ANCHOR
  6
Continuous
100
AcDbLine
 10
601.9677250270627
 20
442.8089871249158
 30
0.0
 11
602.7412277189593
 21
443.2555691123011
 31
0.0
  0
ARC
  5
204
330
6F
100
AcDbEntity
  8
ANCHOR
  6
Continuous
100
AcDbCircle
 10
607.7412277189588
 20
435.4253892638076
 30
0.0
 40
7.830179848493714
100
AcDbArc
 50
68.36639223264487
 51
111.6336077673514
  0
ARC
  5
205
330
6F
100
AcDbEntity
  8
ANCHOR
  6
Continuous
100
AcDbCircle
 10
603.4111007000368
 20
441.0911911138279
 30
0.0
 40
2.164377998473439
100
AcDbArc
 50
48.17345191046694
 51
89.9999999994255
  0
ARC
  5
206
330
6F
100
AcDbEntity
  8
ANCHOR
  6
Continuous
100
AcDbCircle
 10
612.0713547378812
 20
441.0911911138265
 30
0.0
 40
2.16437799847471
100
AcDbArc
 50
89.9999999994255
 51
131.8265480895158
  0
LINE
  5
207
330
6F
100
AcDbEntity
  8
ANCHOR
  6
Continuous
100
AcDbLine
 10
601.9677250270631
 20
439.2555691123014
 30
0.0
 11
613.5147304108556
 21
439.2555691123014
 31
0.0
  0
LINE
  5
208
330
6F
100
AcDbEntity
  8
KUTAI
  6
Continuous
100
AcDbLine
 10
517.4856009406731
 20
435.7555691123014
 30
0.0
 11
692.665189448772
 21
435.7555691123014
 31
0.0
  0
ARC
  5
209
330
6F
100
AcDbEntity
  8
ANCHOR
  6
HIDDEN
100
AcDbCircle
 10
615.1912277190031
 20
435.3555691123011
 30
0.0
 40
0.3
100
AcDbArc
 50
270.0
 51
0.0
  0
LINE
  5
20A
330
6F
100
AcDbEntity
  8
ANCHOR
  6
HIDDEN
100
AcDbLine
 10
615.4912277190027
 20
435.3555691123013
 30
0.0
 11
615.4912277190027
 21
435.7555691123014
 31
0.0
  0
LINE
  5
20B
330
6F
100
AcDbEntity
  8
ANCHOR
  6
HIDDEN
100
AcDbLine
 10
618.2412277190027
 20
435.7555691123014
 30
0.0
 11
618.2412277190027
 21
427.7555691123014
 31
0.0
  0
LINE
  5
20C
330
6F
100
AcDbEntity
  8
ANCHOR
  6
HIDDEN
100
AcDbLine
 10
606.835506704211
 20
434.0555691123021
 30
0.0
 11
607.7412277190031
 21
427.7555691123021
 31
0.0
  0
LINE
  5
20D
330
6F
100
AcDbEntity
  8
ANCHOR
  6
HIDDEN
100
AcDbLine
 10
607.7412277190031
 20
435.0555691123011
 30
0.0
 11
607.7412277190027
 21
427.7555691123046
 31
0.0
  0
ARC
  5
20E
330
6F
100
AcDbEntity
  8
ANCHOR
  6
HIDDEN
100
AcDbCircle
 10
607.4652741066792
 20
433.8954668481942
 30
0.0
 40
1.192471240466957
100
AcDbArc
 50
7.715883603285383
 51
76.61971166401229
  0
LINE
  5
20F
330
6F
100
AcDbEntity
  8
ANCHOR
  6
HIDDEN
100
AcDbLine
 10
608.6469487337948
 20
434.0555691123007
 30
0.0
 11
607.7412277190022
 21
427.755569112301
 31
0.0
  0
ARC
  5
210
330
6F
100
AcDbEntity
  8
ANCHOR
  6
HIDDEN
100
AcDbCircle
 10
608.0171813313262
 20
433.8954668481942
 30
0.0
 40
1.192471240466957
100
AcDbArc
 50
103.3802883359746
 51
172.2841163967017
  0
LINE
  5
211
330
6F
100
AcDbEntity
  8
ANCHOR
  6
HIDDEN
100
AcDbLine
 10
608.6469487337948
 20
434.0555691123013
 30
0.0
 11
613.7412277190027
 21
434.0555691123003
 31
0.0
  0
LINE
  5
212
330
6F
100
AcDbEntity
  8
ANCHOR
  6
HIDDEN
100
AcDbLine
 10
599.9912277190027
 20
435.3555691123013
 30
0.0
 11
599.9912277190027
 21
435.7555691123014
 31
0.0
  0
ARC
  5
213
330
6F
100
AcDbEntity
  8
ANCHOR
  6
HIDDEN
100
AcDbCircle
 10
600.7412277190027
 20
434.0555691123013
 30
0.0
 40
1.0
100
AcDbArc
 50
0.0
 51
90.0
  0
LINE
  5
214
330
6F
100
AcDbEntity
  8
ANCHOR
  6
HIDDEN
100
AcDbLine
 10
597.2412277190036
 20
435.7555691123013
 30
0.0
 11
597.2412277190027
 21
427.7555691123013
 31
0.0
  0
ARC
  5
215
330
6F
100
AcDbEntity
  8
ANCHOR
  6
HIDDEN
100
AcDbCircle
 10
600.291227719003
 20
435.3555691123011
 30
0.0
 40
0.3
100
AcDbArc
 50
180.0
 51
270.0
  0
LINE
  5
216
330
6F
100
AcDbEntity
  8
ANCHOR
  6
HIDDEN
100
AcDbLine
 10
606.8355067042106
 20
434.0555691123011
 30
0.0
 11
601.7412277190027
 21
434.0555691123011
 31
0.0
  0
LINE
  5
217
330
6F
100
AcDbEntity
  8
ANCHOR
  6
HIDDEN
100
AcDbLine
 10
597.2412277190036
 20
435.7555691123014
 30
0.0
 11
618.2412277190027
 21
435.7555691123014
 31
0.0
  0
ARC
  5
218
330
6F
100
AcDbEntity
  8
ANCHOR
  6
HIDDEN
100
AcDbCircle
 10
614.7412277190027
 20
434.0555691123013
 30
0.0
 40
1.0
100
AcDbArc
 50
90.0
 51
180.0
  0
LINE
  5
219
330
6F
100
AcDbEntity
  8
ANCHOR
  6
HIDDEN
100
AcDbLine
 10
600.291227719003
 20
435.055569112302
 30
0.0
 11
615.1912277190031
 21
435.0555691123001
 31
0.0
  0
LINE
  5
21A
330
6F
100
AcDbEntity
  8
ANCHOR
  6
HIDDEN
100
AcDbLine
 10
613.9805777024335
 20
395.8623028133494
 30
0.0
 11
617.0805777024336
 21
390.4929453098862
 31
0.0
  0
LINE
  5
21B
330
6F
100
AcDbEntity
  8
ANCHOR
  6
HIDDEN
100
AcDbLine
 10
616.0421196708518
 20
389.8933912858097
 30
0.0
 11
617.080577702433
 21
390.4929453098856
 31
0.0
  0
LINE
  5
21C
330
6F
100
AcDbEntity
  8
ANCHOR
  6
HIDDEN
100
AcDbLine
 10
617.1027041099626
 20
411.0340409989897
 30
0.0
 11
614.2851055676681
 21
405.3201175062492
 31
0.0
  0
ARC
  5
21D
330
6F
100
AcDbEntity
  8
ANCHOR
  6
HIDDEN
100
AcDbCircle
 10
600.3627507548399
 20
424.991693621243
 30
0.0
 40
14.09781378264538
100
AcDbArc
 50
261.9139567489959
 51
286.0860432509978
  0
LINE
  5
21E
330
6F
100
AcDbEntity
  8
ANCHOR
  6
HIDDEN
100
AcDbLine
 10
611.340038142834
 20
389.8933912858098
 30
0.0
 11
611.340038142834
 21
395.9555691123011
 31
0.0
  0
LINE
  5
21F
330
6F
100
AcDbEntity
  8
ANCHOR
  6
HIDDEN
100
AcDbLine
 10
604.1424172951714
 20
389.8933912858098
 30
0.0
 11
604.1424172951714
 21
395.9555691123011
 31
0.0
  0
LINE
  5
220
330
6F
100
AcDbEntity
  8
ANCHOR
  6
HIDDEN
100
AcDbLine
 10
602.2412277190027
 20
391.7555691123013
 30
0.0
 11
604.1424172951714
 21
391.7555691123013
 31
0.0
  0
LINE
  5
221
330
6F
100
AcDbEntity
  8
ANCHOR
  6
HIDDEN
100
AcDbLine
 10
613.2412277190027
 20
391.7555691123013
 30
0.0
 11
611.340038142834
 21
391.7555691123013
 31
0.0
  0
LINE
  5
222
330
6F
100
AcDbEntity
  8
ANCHOR
  6
HIDDEN
100
AcDbLine
 10
604.1424172951714
 20
395.9555691123011
 30
0.0
 11
602.9403357671542
 21
395.9555691123011
 31
0.0
  0
LINE
  5
223
330
6F
100
AcDbEntity
  8
ANCHOR
  6
HIDDEN
100
AcDbLine
 10
602.2412277190037
 20
405.0634744676818
 30
0.0
 11
602.2412277190031
 21
404.2555691123017
 31
0.0
  0
LINE
  5
224
330
6F
100
AcDbEntity
  8
ANCHOR
  6
HIDDEN
100
AcDbLine
 10
612.9452349220048
 20
396.6555691123007
 30
0.0
 11
613.5475650005412
 21
395.6123028133487
 31
0.0
  0
LINE
  5
225
330
6F
100
AcDbEntity
  8
ANCHOR
  6
HIDDEN
100
AcDbLine
 10
613.2412277190027
 20
405.0634744676816
 30
0.0
 11
613.2412277190027
 21
404.2555691123014
 31
0.0
  0
LINE
  5
226
330
6F
100
AcDbEntity
  8
ANCHOR
  6
HIDDEN
100
AcDbLine
 10
613.7412277190027
 20
404.2555691123014
 30
0.0
 11
613.7412277190027
 21
396.655569112301
 31
0.0
  0
LINE
  5
227
330
6F
100
AcDbEntity
  8
ANCHOR
  6
HIDDEN
100
AcDbLine
 10
606.8912277190035
 20
404.9555691123014
 30
0.0
 11
608.5912277190032
 21
404.9555691123014
 31
0.0
  0
LINE
  5
228
330
6F
100
AcDbEntity
  8
ANCHOR
  6
HIDDEN
100
AcDbLine
 10
611.340038142834
 20
395.9555691123011
 30
0.0
 11
612.5421196708511
 21
395.9555691123011
 31
0.0
  0
LINE
  5
229
330
6F
100
AcDbEntity
  8
ANCHOR
  6
HIDDEN
100
AcDbLine
 10
604.1424172951717
 20
395.862302813349
 30
0.0
 11
611.340038142834
 21
395.862302813349
 31
0.0
  0
LINE
  5
22A
330
6F
100
AcDbEntity
  8
ANCHOR
  6
HIDDEN
100
AcDbLine
 10
604.1424172951714
 20
389.8933912858098
 30
0.0
 11
611.340038142834
 21
389.8933912858098
 31
0.0
  0
LINE
  5
22B
330
6F
100
AcDbEntity
  8
ANCHOR
  6
HIDDEN
100
AcDbLine
 10
601.5018777355726
 20
395.8623028133494
 30
0.0
 11
598.4018777355727
 21
390.4929453098862
 31
0.0
  0
LINE
  5
22C
330
6F
100
AcDbEntity
  8
ANCHOR
  6
HIDDEN
100
AcDbLine
 10
599.4403357671552
 20
389.8933912858103
 30
0.0
 11
598.4018777355733
 21
390.4929453098861
 31
0.0
  0
LINE
  5
22D
330
6F
100
AcDbEntity
  8
ANCHOR
  6
HIDDEN
100
AcDbLine
 10
600.8324523097509
 20
390.7864447411873
 30
0.0
 11
599.4403357671544
 21
389.8933912858094
 31
0.0
  0
LINE
  5
22E
330
6F
100
AcDbEntity
  8
ANCHOR
  6
HIDDEN
100
AcDbLine
 10
601.7412277190027
 20
404.2555691123014
 30
0.0
 11
601.7412277190027
 21
396.655569112301
 31
0.0
  0
LINE
  5
22F
330
6F
100
AcDbEntity
  8
ANCHOR
  6
HIDDEN
100
AcDbLine
 10
600.8324523097512
 20
390.7864447411879
 30
0.0
 11
603.8168476568877
 21
395.9555691123006
 31
0.0
  0
LINE
  5
230
330
6F
100
AcDbEntity
  8
ANCHOR
  6
HIDDEN
100
AcDbLine
 10
599.4403357671548
 20
389.89339128581
 30
0.0
 11
602.9403357671546
 21
395.9555691123011
 31
0.0
  0
ARC
  5
231
330
6F
100
AcDbEntity
  8
ANCHOR
  6
HIDDEN
100
AcDbCircle
 10
603.4300332413833
 20
412.1501309669956
 30
0.0
 40
7.185677345199168
100
AcDbArc
 50
251.8977955235752
 51
296.102204476418
  0
LINE
  5
232
330
6F
100
AcDbEntity
  8
ANCHOR
  6
HIDDEN
100
AcDbLine
 10
602.5403357671542
 20
395.2627487892734
 30
0.0
 11
601.5018777355723
 21
395.8623028133492
 31
0.0
  0
LINE
  5
233
330
6F
100
AcDbEntity
  8
ANCHOR
  6
HIDDEN
100
AcDbLine
 10
602.5372205160011
 20
396.6555691123018
 30
0.0
 11
601.9348904374651
 21
395.6123028133495
 31
0.0
  0
LINE
  5
234
330
6F
100
AcDbEntity
  8
ANCHOR
  6
HIDDEN
100
AcDbLine
 10
601.7412277190027
 20
396.655569112301
 30
0.0
 11
613.7412277190027
 21
396.655569112301
 31
0.0
  0
LINE
  5
235
330
6F
100
AcDbEntity
  8
ANCHOR
  6
HIDDEN
100
AcDbLine
 10
601.7412277190032
 20
404.2555691123017
 30
0.0
 11
613.7412277190032
 21
404.2555691123017
 31
0.0
  0
LINE
  5
236
330
6F
100
AcDbEntity
  8
ANCHOR
  6
HIDDEN
100
AcDbLine
 10
604.2689815650918
 20
411.4458560942687
 30
0.0
 11
606.8912277190032
 21
404.9555691123014
 31
0.0
  0
LINE
  5
237
330
6F
100
AcDbEntity
  8
ANCHOR
  6
HIDDEN
100
AcDbLine
 10
611.213473872915
 20
411.4458560942696
 30
0.0
 11
608.5912277190034
 21
404.9555691123023
 31
0.0
  0
LINE
  5
238
330
6F
100
AcDbEntity
  8
ANCHOR
  6
HIDDEN
100
AcDbLine
 10
598.3797513280424
 20
411.0340409989906
 30
0.0
 11
601.1973498703375
 21
405.32011750625
 31
0.0
  0
ARC
  5
239
330
6F
100
AcDbEntity
  8
ANCHOR
  6
HIDDEN
100
AcDbCircle
 10
615.1197046831661
 20
424.991693621243
 30
0.0
 40
14.09781378264538
100
AcDbArc
 50
253.9139567490022
 51
278.086043251004
  0
LINE
  5
23A
330
6F
100
AcDbEntity
  8
ANCHOR
  6
HIDDEN
100
AcDbLine
 10
616.0421196708518
 20
389.8933912858105
 30
0.0
 11
612.5421196708513
 21
395.9555691123018
 31
0.0
  0
LINE
  5
23B
330
6F
100
AcDbEntity
  8
ANCHOR
  6
HIDDEN
100
AcDbLine
 10
612.9421196708504
 20
395.2627487892739
 30
0.0
 11
613.9805777024322
 21
395.8623028133495
 31
0.0
  0
ARC
  5
23C
330
6F
100
AcDbEntity
  8
ANCHOR
  6
HIDDEN
100
AcDbCircle
 10
612.0524221966234
 20
412.1501309669956
 30
0.0
 40
7.185677345199168
100
AcDbArc
 50
243.897795523582
 51
288.1022044764124
  0
LINE
  5
23D
330
6F
100
AcDbEntity
  8
ANCHOR
  6
HIDDEN
100
AcDbLine
 10
614.7465357453567
 20
410.8988195923592
 30
0.0
 11
618.2412277190027
 21
427.7555691123017
 31
0.0
  0
LINE
  5
23E
330
6F
100
AcDbEntity
  8
ANCHOR
  6
HIDDEN
100
AcDbLine
 10
613.7412277190027
 20
434.0555691123011
 30
0.0
 11
613.7412277190027
 21
410.9614350808802
 31
0.0
  0
LINE
  5
23F
330
6F
100
AcDbEntity
  8
ANCHOR
  6
HIDDEN
100
AcDbLine
 10
600.7359196926497
 20
410.8988195923586
 30
0.0
 11
597.2412277190032
 21
427.7555691123015
 31
0.0
  0
LINE
  5
240
330
6F
100
AcDbEntity
  8
ANCHOR
  6
HIDDEN
100
AcDbLine
 10
601.7412277190027
 20
434.0555691123011
 30
0.0
 11
601.7412277190027
 21
410.9614350808802
 31
0.0
  0
ARC
  5
241
330
6F
100
AcDbEntity
  8
ANCHOR
  6
HIDDEN
100
AcDbCircle
 10
602.2412277190027
 20
392.2555691123017
 30
0.0
 40
0.5
100
AcDbArc
 50
180.0
 51
270.0
  0
ARC
  5
242
330
6F
100
AcDbEntity
  8
ANCHOR
  6
HIDDEN
100
AcDbCircle
 10
613.2412277190027
 20
392.2555691123017
 30
0.0
 40
0.5
100
AcDbArc
 50
270.0
 51
0.0
  0
LINE
  5
243
330
6F
100
AcDbEntity
  8
ANCHOR
  6
HIDDEN
100
AcDbLine
 10
614.6500031282547
 20
390.7864447411879
 30
0.0
 11
611.6656077811179
 21
395.9555691123015
 31
0.0
  0
LINE
  5
244
330
6F
100
AcDbEntity
  8
ANCHOR
  6
HIDDEN
100
AcDbLine
 10
614.6500031282546
 20
390.7864447411877
 30
0.0
 11
616.0421196708512
 21
389.8933912858098
 31
0.0
  0
LINE
  5
245
330
6F
100
AcDbEntity
  8
WASHER
  6
Continuous
100
AcDbLine
 10
592.7412277190032
 20
437.2555691123014
 30
0.0
 11
622.7412277190031
 21
437.2555691123014
 31
0.0
  0
TEXT
  5
246
330
6F
100
AcDbEntity
  8
WAKU
  6
Continuous
100
AcDbText
 10
38.64675006063919
 20
555.4024753726626
 30
0.0
 40
12.0
  1
直付タイプ
  7
KNJYOKO
100
AcDbText
  0
LINE
  5
247
330
6F
100
AcDbEntity
  8
LOUVER
  6
CENTER
100
AcDbLine
 10
242.7273721234328
 20
359.5441334540212
 30
0.0
 11
242.7273721234328
 21
434.1898308268228
 31
0.0
  0
LINE
  5
248
330
6F
100
AcDbEntity
  8
WASHER
  6
Continuous
100
AcDbLine
 10
227.7273721234328
 20
424.2555691123016
 30
0.0
 11
257.7273721234328
 21
424.2555691123016
 31
0.0
  0
LINE
  5
249
330
6F
100
AcDbEntity
  8
WASHER
  6
Continuous
100
AcDbLine
 10
257.7273721234328
 20
422.2555691123016
 30
0.0
 11
257.7273721234328
 21
424.2555691123016
 31
0.0
  0
LINE
  5
24A
330
6F
100
AcDbEntity
  8
WASHER
  6
Continuous
100
AcDbLine
 10
227.7273721234328
 20
422.2555691123016
 30
0.0
 11
227.7273721234328
 21
424.2555691123016
 31
0.0
  0
LINE
  5
24B
330
6F
100
AcDbEntity
  8
KUTAI
  6
Continuous
100
AcDbLine
 10
335.1307796053935
 20
420.7555691123014
 30
0.0
 11
132.957215493353
 21
420.7555691123014
 31
0.0
  0
LINE
  5
24C
330
6F
100
AcDbEntity
  8
LOUVER
  6
CENTER
100
AcDbLine
 10
236.7877330595503
 20
430.7555691122847
 30
0.0
 11
218.3387701989774
 21
430.7555691123065
 31
0.0
  0
LINE
  5
24D
330
6F
100
AcDbEntity
  8
ANCHOR
  6
HIDDEN
100
AcDbLine
 10
232.2273721249207
 20
432.7555691124106
 30
0.0
 11
222.7273721235919
 21
432.755569112451
 31
0.0
  0
LINE
  5
24E
330
6F
100
AcDbEntity
  8
ANCHOR
  6
HIDDEN
100
AcDbLine
 10
232.2273721254757
 20
428.7555691124106
 30
0.0
 11
222.7273721235763
 21
428.755569112451
 31
0.0
  0
LINE
  5
24F
330
6F
100
AcDbEntity
  8
ANCHOR
  6
HIDDEN
100
AcDbLine
 10
235.1500218556861
 20
431.7555691124193
 30
0.0
 11
233.2273721249313
 21
431.7555691124153
 31
0.0
  0
LINE
  5
250
330
6F
100
AcDbEntity
  8
ANCHOR
  6
HIDDEN
100
AcDbLine
 10
235.150021855882
 20
429.7555691124194
 30
0.0
 11
233.2273721254693
 21
429.7555691124154
 31
0.0
  0
LINE
  5
251
330
6F
100
AcDbEntity
  8
ANCHOR
  6
HIDDEN
100
AcDbLine
 10
235.7273721249735
 20
430.7555691122591
 30
0.0
 11
235.150021855686
 21
431.7555691124199
 31
0.0
  0
LINE
  5
252
330
6F
100
AcDbEntity
  8
ANCHOR
  6
HIDDEN
100
AcDbLine
 10
235.1500218558827
 20
429.755569112421
 30
0.0
 11
235.7273721249744
 21
430.7555691122598
 31
0.0
  0
ARC
  5
253
330
6F
100
AcDbEntity
  8
ANCHOR
  6
HIDDEN
100
AcDbCircle
 10
233.7273721254787
 20
430.7555691124179
 30
0.0
 40
0.5
100
AcDbArc
 50
97.20679386168658
 51
262.7932061387912
  0
LINE
  5
254
330
6F
100
AcDbEntity
  8
ANCHOR
  6
HIDDEN
100
AcDbLine
 10
233.6646466890137
 20
430.2595191959569
 30
0.0
 11
235.150021855882
 21
429.7555691124192
 31
0.0
  0
LINE
  5
255
330
6F
100
AcDbEntity
  8
ANCHOR
  6
HIDDEN
100
AcDbLine
 10
233.6646466890102
 20
431.2516190288781
 30
0.0
 11
235.1500218556859
 21
431.7555691124201
 31
0.0
  0
LINE
  5
256
330
6F
100
AcDbEntity
  8
ANCHOR
  6
HIDDEN
100
AcDbLine
 10
233.2273721249298
 20
431.7555691124147
 30
0.0
 11
232.2273721249204
 21
432.7555691124123
 31
0.0
  0
LINE
  5
257
330
6F
100
AcDbEntity
  8
ANCHOR
  6
HIDDEN
100
AcDbLine
 10
232.2273721254762
 20
428.7555691124146
 30
0.0
 11
233.2273721254686
 21
429.7555691124147
 31
0.0
  0
LINE
  5
258
330
6F
100
AcDbEntity
  8
ANCHOR
  6
HIDDEN
100
AcDbLine
 10
232.2273721252072
 20
428.7555691124132
 30
0.0
 11
232.2273721251924
 21
432.7555691124131
 31
0.0
  0
LINE
  5
259
330
6F
100
AcDbEntity
  8
ANCHOR
  6
HIDDEN
100
AcDbLine
 10
233.2273721249732
 20
429.7555691124133
 30
0.0
 11
233.2273721249639
 21
431.7555691124134
 31
0.0
  0
LINE
  5
25A
330
6F
100
AcDbEntity
  8
ANCHOR
  6
HIDDEN
100
AcDbLine
 10
233.0273721254709
 20
429.5555691124135
 30
0.0
 11
222.7273721235803
 21
429.5555691124546
 31
0.0
  0
LINE
  5
25B
330
6F
100
AcDbEntity
  8
ANCHOR
  6
HIDDEN
100
AcDbLine
 10
233.0273721249297
 20
431.9555691124131
 30
0.0
 11
222.7273721235894
 21
431.9555691124543
 31
0.0
  0
LINE
  5
25C
330
6F
100
AcDbEntity
  8
ANCHOR
  6
Continuous
100
AcDbLine
 10
220.7050615424423
 20
431.2537673600436
 30
0.0
 11
220.7050615424428
 21
430.2573708645613
 31
0.0
  0
LINE
  5
25D
330
6F
100
AcDbEntity
  8
ANCHOR
  6
Continuous
100
AcDbLine
 10
220.7050615424421
 20
431.2537673600438
 30
0.0
 11
220.2273721237677
 21
431.2537673600438
 31
0.0
  0
LINE
  5
25E
330
6F
100
AcDbEntity
  8
ANCHOR
  6
Continuous
100
AcDbLine
 10
220.7050615424425
 20
430.2573708645616
 30
0.0
 11
220.2273721237682
 21
430.2573708645616
 31
0.0
  0
LINE
  5
25F
330
6F
100
AcDbEntity
  8
ANCHOR
  6
Continuous
100
AcDbLine
 10
222.2273721237847
 20
426.0555691123006
 30
0.0
 11
222.7273721237847
 21
426.055569112301
 31
0.0
  0
ARC
  5
260
330
6F
100
AcDbEntity
  8
ANCHOR
  6
Continuous
100
AcDbCircle
 10
226.3188375180907
 20
430.5799376789855
 30
0.0
 40
6.099999999999998
100
AcDbArc
 50
183.0312034848472
 51
227.876411461438
  0
LINE
  5
261
330
6F
100
AcDbEntity
  8
ANCHOR
  6
Continuous
100
AcDbLine
 10
222.2273721237507
 20
435.4555691123024
 30
0.0
 11
222.2273721237855
 21
426.0555691123011
 31
0.0
  0
ARC
  5
262
330
6F
100
AcDbEntity
  8
ANCHOR
  6
Continuous
100
AcDbCircle
 10
226.3188375180907
 20
430.9312005456231
 30
0.0
 40
6.099999999999998
100
AcDbArc
 50
132.1235885386251
 51
176.9687965152159
  0
LINE
  5
263
330
6F
100
AcDbEntity
  8
ANCHOR
  6
Continuous
100
AcDbLine
 10
222.7273721237513
 20
435.455569112304
 30
0.0
 11
222.727372123786
 21
426.0555691123023
 31
0.0
  0
LINE
  5
264
330
6F
100
AcDbEntity
  8
ANCHOR
  6
Continuous
100
AcDbLine
 10
222.2273721237802
 20
435.4555691123023
 30
0.0
 11
222.7273721237802
 21
435.4555691123027
 31
0.0
  0
LINE
  5
265
330
6F
100
AcDbEntity
  8
WASHER
  6
Continuous
100
AcDbLine
 10
227.7273721234328
 20
422.2555691123016
 30
0.0
 11
257.7273721234328
 21
422.2555691123016
 31
0.0
  0
LINE
  5
266
330
6F
100
AcDbEntity
  8
ANCHOR
  6
HIDDEN
100
AcDbLine
 10
242.7273721234749
 20
413.7555691123123
 30
0.0
 11
243.0273721234833
 21
413.7555691123123
 31
0.0
  0
LINE
  5
267
330
6F
100
AcDbEntity
  8
ANCHOR
  6
HIDDEN
100
AcDbLine
 10
243.0273721235101
 20
388.2555691123124
 30
0.0
 11
243.0273721234819
 21
413.7555691123126
 31
0.0
  0
LINE
  5
268
330
6F
100
AcDbEntity
  8
ANCHOR
  6
HIDDEN
100
AcDbLine
 10
241.0689159441696
 20
380.4272652920454
 30
0.0
 11
238.6982166493243
 21
380.6863360534823
 31
0.0
  0
LINE
  5
269
330
6F
100
AcDbEntity
  8
ANCHOR
  6
HIDDEN
100
AcDbLine
 10
238.7273721234807
 20
415.7555691123032
 30
0.0
 11
238.0273721234752
 21
420.7555691123014
 31
0.0
  0
LINE
  5
26A
330
6F
100
AcDbEntity
  8
ANCHOR
  6
HIDDEN
100
AcDbLine
 10
242.7273721234893
 20
413.7555691123115
 30
0.0
 11
242.4273721234827
 21
413.7555691123107
 31
0.0
  0
LINE
  5
26B
330
6F
100
AcDbEntity
  8
ANCHOR
  6
HIDDEN
100
AcDbLine
 10
242.4273721235109
 20
388.2555691123109
 30
0.0
 11
242.4273721234825
 21
413.7555691123114
 31
0.0
  0
LINE
  5
26C
330
6F
100
AcDbEntity
  8
ANCHOR
  6
HIDDEN
100
AcDbLine
 10
238.7273721234866
 20
410.2555691123031
 30
0.0
 11
239.7273721234866
 21
409.7555691123057
 31
0.0
  0
LINE
  5
26D
330
6F
100
AcDbEntity
  8
ANCHOR
  6
HIDDEN
100
AcDbLine
 10
239.7273721234872
 20
409.7555691123059
 30
0.0
 11
239.9773721234958
 21
401.7555691123066
 31
0.0
  0
LINE
  5
26E
330
6F
100
AcDbEntity
  8
ANCHOR
  6
HIDDEN
100
AcDbLine
 10
238.7273721234875
 20
410.2555691123034
 30
0.0
 11
238.7273721234759
 21
420.7555691123033
 31
0.0
  0
LINE
  5
26F
330
6F
100
AcDbEntity
  8
ANCHOR
  6
HIDDEN
100
AcDbLine
 10
241.8918576058291
 20
383.3551940858354
 30
0.0
 11
237.6324027755069
 21
383.8206686437424
 31
0.0
  0
LINE
  5
270
330
6F
100
AcDbEntity
  8
ANCHOR
  6
HIDDEN
100
AcDbLine
 10
242.0004911829198
 20
384.3492759466138
 30
0.0
 11
238.3871895621033
 21
384.7441386794126
 31
0.0
  0
LINE
  5
271
330
6F
100
AcDbEntity
  8
ANCHOR
  6
HIDDEN
100
AcDbLine
 10
238.6982166493257
 20
380.6863360534813
 30
0.0
 11
237.6324027755076
 21
383.8206686437419
 31
0.0
  0
LINE
  5
272
330
6F
100
AcDbEntity
  8
ANCHOR
  6
HIDDEN
100
AcDbLine
 10
237.6324027755062
 20
383.8206686437413
 30
0.0
 11
238.3871895621033
 21
384.7441386794122
 31
0.0
  0
LINE
  5
273
330
6F
100
AcDbEntity
  8
ANCHOR
  6
HIDDEN
100
AcDbLine
 10
242.1091247600114
 20
385.3433578073914
 30
0.0
 11
237.8496699296875
 21
385.8088323652984
 31
0.0
  0
LINE
  5
274
330
6F
100
AcDbEntity
  8
ANCHOR
  6
HIDDEN
100
AcDbLine
 10
238.387189562104
 20
384.7441386794113
 30
0.0
 11
237.8496699296887
 21
385.8088323652977
 31
0.0
  0
LINE
  5
275
330
6F
100
AcDbEntity
  8
ANCHOR
  6
HIDDEN
100
AcDbLine
 10
242.2720751256486
 20
386.8344805985589
 30
0.0
 11
238.0126202953246
 21
387.299955156466
 31
0.0
  0
LINE
  5
276
330
6F
100
AcDbEntity
  8
ANCHOR
  6
HIDDEN
100
AcDbLine
 10
237.8496699296879
 20
385.8088323652983
 30
0.0
 11
238.0126202953238
 21
387.2999551564657
 31
0.0
  0
LINE
  5
277
330
6F
100
AcDbEntity
  8
ANCHOR
  6
HIDDEN
100
AcDbLine
 10
238.1918656975243
 20
388.9401902267449
 30
0.0
 11
238.4471546036877
 21
391.2762825995788
 31
0.0
  0
LINE
  5
278
330
6F
100
AcDbEntity
  8
ANCHOR
  6
HIDDEN
100
AcDbLine
 10
242.3263919141914
 20
387.3315215289492
 30
0.0
 11
238.7130902933712
 21
387.7263842617482
 31
0.0
  0
LINE
  5
279
330
6F
100
AcDbEntity
  8
ANCHOR
  6
HIDDEN
100
AcDbLine
 10
242.3807087027381
 20
387.8285624593377
 30
0.0
 11
238.7674070819162
 21
388.2234251921369
 31
0.0
  0
LINE
  5
27A
330
6F
100
AcDbEntity
  8
ANCHOR
  6
HIDDEN
100
AcDbLine
 10
238.713090293372
 20
387.7263842617474
 30
0.0
 11
238.0126202953234
 21
387.2999551564657
 31
0.0
  0
LINE
  5
27B
330
6F
100
AcDbEntity
  8
ANCHOR
  6
HIDDEN
100
AcDbLine
 10
238.7130902933732
 20
387.726384261747
 30
0.0
 11
238.7674070819173
 21
388.2234251921363
 31
0.0
  0
LINE
  5
27C
330
6F
100
AcDbEntity
  8
ANCHOR
  6
HIDDEN
100
AcDbLine
 10
238.7674070819151
 20
388.223425192137
 30
0.0
 11
238.1918656975218
 21
388.9401902267455
 31
0.0
  0
LINE
  5
27D
330
6F
100
AcDbEntity
  8
ANCHOR
  6
HIDDEN
100
AcDbLine
 10
242.0258493024886
 20
390.8852017220569
 30
0.0
 11
238.4471546036859
 21
391.2762825995792
 31
0.0
  0
LINE
  5
27E
330
6F
100
AcDbEntity
  8
ANCHOR
  6
HIDDEN
100
AcDbLine
 10
239.0933078131907
 20
391.2056707744712
 30
0.0
 11
239.1476246017349
 21
391.7027117048602
 31
0.0
  0
LINE
  5
27F
330
6F
100
AcDbEntity
  8
ANCHOR
  6
HIDDEN
100
AcDbLine
 10
242.0801660910341
 20
391.3822426524466
 30
0.0
 11
239.1476246017333
 21
391.7027117048613
 31
0.0
  0
LINE
  5
280
330
6F
100
AcDbEntity
  8
ANCHOR
  6
HIDDEN
100
AcDbLine
 10
239.1476246017321
 20
391.702711704859
 30
0.0
 11
238.5720832173386
 21
392.4194767394674
 31
0.0
  0
LINE
  5
281
330
6F
100
AcDbEntity
  8
ANCHOR
  6
HIDDEN
100
AcDbLine
 10
238.8273721235076
 20
392.4055691122989
 30
0.0
 11
238.8273721235049
 21
394.7555691123039
 31
0.0
  0
LINE
  5
282
330
6F
100
AcDbEntity
  8
ANCHOR
  6
HIDDEN
100
AcDbLine
 10
242.4273721235044
 20
394.7555691123111
 30
0.0
 11
238.8273721235041
 21
394.7555691123032
 31
0.0
  0
LINE
  5
283
330
6F
100
AcDbEntity
  8
ANCHOR
  6
HIDDEN
100
AcDbLine
 10
239.4773721234997
 20
394.7555691123043
 30
0.0
 11
239.477372123498
 21
395.2555691123043
 31
0.0
  0
LINE
  5
284
330
6F
100
AcDbEntity
  8
ANCHOR
  6
HIDDEN
100
AcDbLine
 10
242.4273721235045
 20
395.2555691123116
 30
0.0
 11
239.4773721234983
 21
395.255569112305
 31
0.0
  0
LINE
  5
285
330
6F
100
AcDbEntity
  8
ANCHOR
  6
HIDDEN
100
AcDbLine
 10
239.4773721234978
 20
395.2555691123055
 30
0.0
 11
238.8273721235016
 21
395.905569112299
 31
0.0
  0
LINE
  5
286
330
6F
100
AcDbEntity
  8
ANCHOR
  6
HIDDEN
100
AcDbLine
 10
238.8273721235035
 20
395.9055691122987
 30
0.0
 11
238.8273721235008
 21
398.2555691123037
 31
0.0
  0
LINE
  5
287
330
6F
100
AcDbEntity
  8
ANCHOR
  6
HIDDEN
100
AcDbLine
 10
242.427372123501
 20
398.2555691123121
 30
0.0
 11
238.8273721235007
 21
398.255569112304
 31
0.0
  0
LINE
  5
288
330
6F
100
AcDbEntity
  8
ANCHOR
  6
HIDDEN
100
AcDbLine
 10
239.4773721234977
 20
398.2555691123051
 30
0.0
 11
239.4773721234961
 21
398.7555691123051
 31
0.0
  0
LINE
  5
289
330
6F
100
AcDbEntity
  8
ANCHOR
  6
HIDDEN
100
AcDbLine
 10
242.4273721235005
 20
398.7555691123121
 30
0.0
 11
239.4773721234961
 21
398.7555691123055
 31
0.0
  0
LINE
  5
28A
330
6F
100
AcDbEntity
  8
ANCHOR
  6
HIDDEN
100
AcDbLine
 10
239.4773721234947
 20
398.755569112305
 30
0.0
 11
238.8273721234982
 21
399.4055691122983
 31
0.0
  0
LINE
  5
28B
330
6F
100
AcDbEntity
  8
ANCHOR
  6
HIDDEN
100
AcDbLine
 10
238.8273721235006
 20
398.2555691123037
 30
0.0
 11
238.8273721234967
 21
401.7555691123041
 31
0.0
  0
LINE
  5
28C
330
6F
100
AcDbEntity
  8
ANCHOR
  6
HIDDEN
100
AcDbLine
 10
242.4273721234962
 20
401.7555691123114
 30
0.0
 11
238.7273721233555
 21
401.7555691123034
 31
0.0
  0
LINE
  5
28D
330
6F
100
AcDbEntity
  8
ANCHOR
  6
HIDDEN
100
AcDbLine
 10
242.4273721234953
 20
402.2555691123117
 30
0.0
 11
239.9617471234946
 21
402.2555691123062
 31
0.0
  0
LINE
  5
28E
330
6F
100
AcDbEntity
  8
ANCHOR
  6
HIDDEN
100
AcDbLine
 10
242.4273721234893
 20
405.2555691123123
 30
0.0
 11
239.8679971234922
 21
405.2555691123066
 31
0.0
  0
LINE
  5
28F
330
6F
100
AcDbEntity
  8
ANCHOR
  6
HIDDEN
100
AcDbLine
 10
242.4273721234866
 20
405.7555691123117
 30
0.0
 11
239.8523721234913
 21
405.7555691123061
 31
0.0
  0
LINE
  5
290
330
6F
100
AcDbEntity
  8
ANCHOR
  6
HIDDEN
100
AcDbLine
 10
242.4273721234815
 20
408.7555691123113
 30
0.0
 11
239.758622123488
 21
408.7555691123055
 31
0.0
  0
LINE
  5
291
330
6F
100
AcDbEntity
  8
ANCHOR
  6
HIDDEN
100
AcDbLine
 10
242.4273721234794
 20
409.2555691123116
 30
0.0
 11
239.7429971234878
 21
409.2555691123059
 31
0.0
  0
LINE
  5
292
330
6F
100
AcDbEntity
  8
ANCHOR
  6
HIDDEN
100
AcDbLine
 10
242.4273721235093
 20
388.2555691122993
 30
0.0
 11
241.6202736631017
 21
380.8699894338886
 31
0.0
  0
ARC
  5
293
330
6F
100
AcDbEntity
  8
ANCHOR
  6
HIDDEN
100
AcDbCircle
 10
241.123232732715
 20
380.9243062224343
 30
0.0
 40
0.5
100
AcDbArc
 50
263.7634467283077
 51
353.7634467282444
  0
LINE
  5
294
330
6F
100
AcDbEntity
  8
ANCHOR
  6
HIDDEN
100
AcDbLine
 10
242.7273720779525
 20
413.7555691123126
 30
0.0
 11
242.4273720779441
 21
413.7555691123101
 31
0.0
  0
LINE
  5
295
330
6F
100
AcDbEntity
  8
ANCHOR
  6
HIDDEN
100
AcDbLine
 10
242.4273720781444
 20
388.2555691123097
 30
0.0
 11
242.4273720779464
 21
413.7555691123096
 31
0.0
  0
LINE
  5
296
330
6F
100
AcDbEntity
  8
ANCHOR
  6
HIDDEN
100
AcDbLine
 10
244.3858282575542
 20
380.4272652920598
 30
0.0
 11
246.7565275523973
 21
380.6863360535178
 31
0.0
  0
LINE
  5
297
330
6F
100
AcDbEntity
  8
ANCHOR
  6
HIDDEN
100
AcDbLine
 10
246.7273720779321
 20
415.7555691123386
 30
0.0
 11
247.4273720778932
 21
420.7555691123438
 31
0.0
  0
LINE
  5
298
330
6F
100
AcDbEntity
  8
ANCHOR
  6
HIDDEN
100
AcDbLine
 10
242.7273720779369
 20
413.7555691123115
 30
0.0
 11
243.0273720779452
 21
413.7555691123138
 31
0.0
  0
LINE
  5
299
330
6F
100
AcDbEntity
  8
ANCHOR
  6
HIDDEN
100
AcDbLine
 10
243.0273720781441
 20
388.2555691123138
 30
0.0
 11
243.0273720779462
 21
413.7555691123138
 31
0.0
  0
LINE
  5
29A
330
6F
100
AcDbEntity
  8
ANCHOR
  6
HIDDEN
100
AcDbLine
 10
246.7273720779745
 20
410.255569112339
 30
0.0
 11
245.7273720779772
 21
409.7555691123321
 31
0.0
  0
LINE
  5
29B
330
6F
100
AcDbEntity
  8
ANCHOR
  6
HIDDEN
100
AcDbLine
 10
245.7273720779773
 20
409.7555691123321
 30
0.0
 11
245.4773720780396
 21
401.7555691123305
 31
0.0
  0
LINE
  5
29C
330
6F
100
AcDbEntity
  8
ANCHOR
  6
HIDDEN
100
AcDbLine
 10
246.727372077972
 20
410.2555691123393
 30
0.0
 11
246.7273720778905
 21
420.7555691123394
 31
0.0
  0
LINE
  5
29D
330
6F
100
AcDbEntity
  8
ANCHOR
  6
HIDDEN
100
AcDbLine
 10
243.5628865958693
 20
383.3551940858422
 30
0.0
 11
247.8223414261872
 21
383.8206686437871
 31
0.0
  0
LINE
  5
29E
330
6F
100
AcDbEntity
  8
ANCHOR
  6
HIDDEN
100
AcDbLine
 10
243.4542530187665
 20
384.3492759466191
 30
0.0
 11
247.0675546395795
 21
384.7441386794498
 31
0.0
  0
LINE
  5
29F
330
6F
100
AcDbEntity
  8
ANCHOR
  6
HIDDEN
100
AcDbLine
 10
246.7565275523973
 20
380.6863360535178
 30
0.0
 11
247.8223414261875
 21
383.8206686437874
 31
0.0
  0
LINE
  5
2A0
330
6F
100
AcDbEntity
  8
ANCHOR
  6
HIDDEN
100
AcDbLine
 10
247.8223414261859
 20
383.8206686437874
 30
0.0
 11
247.0675546395812
 21
384.7441386794509
 31
0.0
  0
LINE
  5
2A1
330
6F
100
AcDbEntity
  8
ANCHOR
  6
HIDDEN
100
AcDbLine
 10
243.3456194416708
 20
385.3433578073973
 30
0.0
 11
247.6050742719883
 21
385.8088323653418
 31
0.0
  0
LINE
  5
2A2
330
6F
100
AcDbEntity
  8
ANCHOR
  6
HIDDEN
100
AcDbLine
 10
247.0675546395805
 20
384.7441386794516
 30
0.0
 11
247.6050742719866
 21
385.8088323653429
 31
0.0
  0
LINE
  5
2A3
330
6F
100
AcDbEntity
  8
ANCHOR
  6
HIDDEN
100
AcDbLine
 10
243.1826690760211
 20
386.8344805985626
 30
0.0
 11
247.442123906341
 21
387.2999551565073
 31
0.0
  0
LINE
  5
2A4
330
6F
100
AcDbEntity
  8
ANCHOR
  6
HIDDEN
100
AcDbLine
 10
247.6050742719885
 20
385.8088323653417
 30
0.0
 11
247.4421239063395
 21
387.2999551565077
 31
0.0
  0
LINE
  5
2A5
330
6F
100
AcDbEntity
  8
ANCHOR
  6
HIDDEN
100
AcDbLine
 10
247.2628785041254
 20
388.940190226785
 30
0.0
 11
247.0075895979412
 21
391.2762825996169
 31
0.0
  0
LINE
  5
2A6
330
6F
100
AcDbEntity
  8
ANCHOR
  6
HIDDEN
100
AcDbLine
 10
243.1283522874705
 20
387.3315215289524
 30
0.0
 11
246.7416539082872
 21
387.7263842617834
 31
0.0
  0
LINE
  5
2A7
330
6F
100
AcDbEntity
  8
ANCHOR
  6
HIDDEN
100
AcDbLine
 10
243.0740354989202
 20
387.8285624593409
 30
0.0
 11
246.6873371197386
 21
388.2234251921723
 31
0.0
  0
LINE
  5
2A8
330
6F
100
AcDbEntity
  8
ANCHOR
  6
HIDDEN
100
AcDbLine
 10
246.7416539082859
 20
387.7263842617834
 30
0.0
 11
247.4421239063382
 21
387.299955156508
 31
0.0
  0
LINE
  5
2A9
330
6F
100
AcDbEntity
  8
ANCHOR
  6
HIDDEN
100
AcDbLine
 10
246.7416539082867
 20
387.7263842617828
 30
0.0
 11
246.6873371197381
 21
388.2234251921718
 31
0.0
  0
LINE
  5
2AA
330
6F
100
AcDbEntity
  8
ANCHOR
  6
HIDDEN
100
AcDbLine
 10
246.6873371197379
 20
388.2234251921718
 30
0.0
 11
247.2628785041248
 21
388.9401902267853
 31
0.0
  0
LINE
  5
2AB
330
6F
100
AcDbEntity
  8
ANCHOR
  6
HIDDEN
100
AcDbLine
 10
243.4288948991427
 20
390.885201722063
 30
0.0
 11
247.007589597942
 21
391.2762825996168
 31
0.0
  0
LINE
  5
2AC
330
6F
100
AcDbEntity
  8
ANCHOR
  6
HIDDEN
100
AcDbLine
 10
246.3614363884375
 20
391.2056707745028
 30
0.0
 11
246.3071195998888
 21
391.7027117048917
 31
0.0
  0
LINE
  5
2AD
330
6F
100
AcDbEntity
  8
ANCHOR
  6
HIDDEN
100
AcDbLine
 10
243.3745781105925
 20
391.3822426524523
 30
0.0
 11
246.3071195998906
 21
391.7027117048929
 31
0.0
  0
LINE
  5
2AE
330
6F
100
AcDbEntity
  8
ANCHOR
  6
HIDDEN
100
AcDbLine
 10
246.3071195998912
 20
391.7027117048917
 30
0.0
 11
246.8826609842781
 21
392.4194767395053
 31
0.0
  0
LINE
  5
2AF
330
6F
100
AcDbEntity
  8
ANCHOR
  6
HIDDEN
100
AcDbLine
 10
246.6273720781127
 20
392.4055691123328
 30
0.0
 11
246.6273720780944
 21
394.7555691123378
 31
0.0
  0
LINE
  5
2B0
330
6F
100
AcDbEntity
  8
ANCHOR
  6
HIDDEN
100
AcDbLine
 10
243.027372078093
 20
394.7555691123138
 30
0.0
 11
246.6273720780934
 21
394.7555691123378
 31
0.0
  0
LINE
  5
2B1
330
6F
100
AcDbEntity
  8
ANCHOR
  6
HIDDEN
100
AcDbLine
 10
245.977372078096
 20
394.7555691123339
 30
0.0
 11
245.9773720780933
 21
395.2555691123339
 31
0.0
  0
LINE
  5
2B2
330
6F
100
AcDbEntity
  8
ANCHOR
  6
HIDDEN
100
AcDbLine
 10
243.0273720780882
 20
395.255569112315
 30
0.0
 11
245.9773720780926
 21
395.2555691123346
 31
0.0
  0
LINE
  5
2B3
330
6F
100
AcDbEntity
  8
ANCHOR
  6
HIDDEN
100
AcDbLine
 10
245.9773720780935
 20
395.255569112332
 30
0.0
 11
246.627372078084
 21
395.905569112331
 31
0.0
  0
LINE
  5
2B4
330
6F
100
AcDbEntity
  8
ANCHOR
  6
HIDDEN
100
AcDbLine
 10
246.6273720780855
 20
395.9055691123328
 30
0.0
 11
246.6273720780672
 21
398.2555691123378
 31
0.0
  0
LINE
  5
2B5
330
6F
100
AcDbEntity
  8
ANCHOR
  6
HIDDEN
100
AcDbLine
 10
243.0273720780668
 20
398.2555691123138
 30
0.0
 11
246.6273720780671
 21
398.2555691123378
 31
0.0
  0
LINE
  5
2B6
330
6F
100
AcDbEntity
  8
ANCHOR
  6
HIDDEN
100
AcDbLine
 10
245.9773720780699
 20
398.2555691123334
 30
0.0
 11
245.9773720780672
 21
398.7555691123334
 31
0.0
  0
LINE
  5
2B7
330
6F
100
AcDbEntity
  8
ANCHOR
  6
HIDDEN
100
AcDbLine
 10
243.0273720780612
 20
398.7555691123147
 30
0.0
 11
245.9773720780656
 21
398.7555691123343
 31
0.0
  0
LINE
  5
2B8
330
6F
100
AcDbEntity
  8
ANCHOR
  6
HIDDEN
100
AcDbLine
 10
245.9773720780665
 20
398.7555691123338
 30
0.0
 11
246.627372078057
 21
399.4055691123331
 31
0.0
  0
LINE
  5
2B9
330
6F
100
AcDbEntity
  8
ANCHOR
  6
HIDDEN
100
AcDbLine
 10
246.6273720780676
 20
398.2555691123384
 30
0.0
 11
246.6273720780405
 21
401.7555691123387
 31
0.0
  0
LINE
  5
2BA
330
6F
100
AcDbEntity
  8
ANCHOR
  6
HIDDEN
100
AcDbLine
 10
243.0273720780384
 20
401.7555691123145
 30
0.0
 11
246.727372078181
 21
401.7555691123391
 31
0.0
  0
LINE
  5
2BB
330
6F
100
AcDbEntity
  8
ANCHOR
  6
HIDDEN
100
AcDbLine
 10
243.0273720780355
 20
402.2555691123142
 30
0.0
 11
245.4929970780345
 21
402.2555691123306
 31
0.0
  0
LINE
  5
2BC
330
6F
100
AcDbEntity
  8
ANCHOR
  6
HIDDEN
100
AcDbLine
 10
243.0273720780167
 20
405.2555691123147
 30
0.0
 11
245.586747078012
 21
405.2555691123318
 31
0.0
  0
LINE
  5
2BD
330
6F
100
AcDbEntity
  8
ANCHOR
  6
HIDDEN
100
AcDbLine
 10
243.027372078013
 20
405.7555691123138
 30
0.0
 11
245.6023720780082
 21
405.755569112331
 31
0.0
  0
LINE
  5
2BE
330
6F
100
AcDbEntity
  8
ANCHOR
  6
HIDDEN
100
AcDbLine
 10
243.0273720779926
 20
408.7555691123137
 30
0.0
 11
245.6961220779842
 21
408.7555691123314
 31
0.0
  0
LINE
  5
2BF
330
6F
100
AcDbEntity
  8
ANCHOR
  6
HIDDEN
100
AcDbLine
 10
243.0273720779903
 20
409.2555691123138
 30
0.0
 11
245.7117470779819
 21
409.2555691123318
 31
0.0
  0
LINE
  5
2C0
330
6F
100
AcDbEntity
  8
ANCHOR
  6
HIDDEN
100
AcDbLine
 10
243.0273720781426
 20
388.2555691123027
 30
0.0
 11
243.8344705386157
 21
380.8699894338989
 31
0.0
  0
ARC
  5
2C1
330
6F
100
AcDbEntity
  8
ANCHOR
  6
HIDDEN
100
AcDbCircle
 10
244.3315114690056
 20
380.9243062224484
 30
0.0
 40
0.5
100
AcDbArc
 50
186.2365532722638
 51
276.2365532722005
  0
LINE
  5
2C2
330
6F
100
AcDbEntity
  8
ANCHOR
  6
HIDDEN
100
AcDbLine
 10
238.727372123356
 20
401.755569112304
 30
0.0
 11
237.1158880971461
 21
409.5915833560878
 31
0.0
  0
LINE
  5
2C3
330
6F
100
AcDbEntity
  8
ANCHOR
  6
HIDDEN
100
AcDbLine
 10
238.2116887197266
 20
409.2275032425845
 30
0.0
 11
237.1158880971752
 21
409.591583355948
 31
0.0
  0
LINE
  5
2C4
330
6F
100
AcDbEntity
  8
ANCHOR
  6
HIDDEN
100
AcDbLine
 10
239.7482993129742
 20
401.7555691123058
 30
0.0
 11
238.2116887197267
 21
409.2275032425848
 31
0.0
  0
LINE
  5
2C5
330
6F
100
AcDbEntity
  8
ANCHOR
  6
HIDDEN
100
AcDbLine
 10
246.7273720781786
 20
401.7555691123098
 30
0.0
 11
248.3388561043711
 21
409.5915833560974
 31
0.0
  0
LINE
  5
2C6
330
6F
100
AcDbEntity
  8
ANCHOR
  6
HIDDEN
100
AcDbLine
 10
247.2430554817932
 20
409.2275032425914
 30
0.0
 11
248.3388561043439
 21
409.5915833559574
 31
0.0
  0
LINE
  5
2C7
330
6F
100
AcDbEntity
  8
ANCHOR
  6
HIDDEN
100
AcDbLine
 10
245.7064448885615
 20
401.755569112309
 30
0.0
 11
247.2430554817922
 21
409.2275032425908
 31
0.0
  0
LINE
  5
2C8
330
6F
100
AcDbEntity
  8
ANCHOR
  6
HIDDEN
100
AcDbLine
 10
242.7273721689339
 20
368.7555691123112
 30
0.0
 11
239.9773721344776
 21
379.0187089614263
 31
0.0
  0
LINE
  5
2C9
330
6F
100
AcDbEntity
  8
ANCHOR
  6
HIDDEN
100
AcDbLine
 10
242.7273721234753
 20
368.7555691123109
 30
0.0
 11
245.4773721342489
 21
379.0187088734047
 31
0.0
  0
LINE
  5
2CA
330
6F
100
AcDbEntity
  8
ANCHOR
  6
HIDDEN
100
AcDbLine
 10
239.977372134479
 20
379.0187089614267
 30
0.0
 11
239.9773721339327
 21
380.5465495414958
 31
0.0
  0
LINE
  5
2CB
330
6F
100
AcDbEntity
  8
ANCHOR
  6
HIDDEN
100
AcDbLine
 10
245.477372134249
 20
379.0187088734045
 30
0.0
 11
245.4773721338875
 21
380.5465495487437
 31
0.0
  0
ARC
  5
2CC
330
6F
100
AcDbEntity
  8
ANCHOR
  6
Continuous
100
AcDbCircle
 10
242.727372123424
 20
414.1555691123021
 30
0.0
 40
14.0
100
AcDbArc
 50
74.63751496329646
 51
105.3624850364064
  0
LINE
  5
2CD
330
6F
100
AcDbEntity
  8
ANCHOR
  6
Continuous
100
AcDbLine
 10
237.4773721234012
 20
424.8555691122911
 30
0.0
 11
237.485713432094
 21
424.9179062927614
 31
0.0
  0
LINE
  5
2CE
330
6F
100
AcDbEntity
  8
ANCHOR
  6
Continuous
100
AcDbLine
 10
247.977372123405
 20
424.8555691123131
 30
0.0
 11
247.8257322491112
 21
425.9888208066532
 31
0.0
  0
ARC
  5
2CF
330
6F
100
AcDbEntity
  8
ANCHOR
  6
Continuous
100
AcDbCircle
 10
245.9329623227175
 20
425.8232248953986
 30
0.0
 40
1.9
100
AcDbArc
 50
5.000000000119887
 51
74.63751496329646
  0
LINE
  5
2D0
330
6F
100
AcDbEntity
  8
ANCHOR
  6
Continuous
100
AcDbLine
 10
249.2273721234341
 20
424.8555691123153
 30
0.0
 11
236.2273721234414
 21
424.8555691122879
 31
0.0
  0
LINE
  5
2D1
330
6F
100
AcDbEntity
  8
ANCHOR
  6
Continuous
100
AcDbLine
 10
236.2273721234336
 20
424.2555691122892
 30
0.0
 11
236.2273721234337
 21
424.2899579990401
 31
0.0
  0
LINE
  5
2D2
330
6F
100
AcDbEntity
  8
ANCHOR
  6
Continuous
100
AcDbLine
 10
249.2273721234325
 20
424.2555691123162
 30
0.0
 11
249.227372123433
 21
424.8555691123161
 31
0.0
  0
LINE
  5
2D3
330
6F
100
AcDbEntity
  8
ANCHOR
  6
HIDDEN
100
AcDbLine
 10
245.4773721246137
 20
419.2555691121237
 30
0.0
 11
245.4773721234311
 21
424.2555691123079
 31
0.0
  0
LINE
  5
2D4
330
6F
100
AcDbEntity
  8
ANCHOR
  6
HIDDEN
100
AcDbLine
 10
239.9773721252206
 20
419.255569112138
 30
0.0
 11
239.9773721234328
 21
424.2555691122966
 31
0.0
  0
LINE
  5
2D5
330
6F
100
AcDbEntity
  8
ANCHOR
  6
Continuous
100
AcDbLine
 10
249.2273721234336
 20
424.255569112315
 30
0.0
 11
236.2273721234336
 21
424.2555691122876
 31
0.0
  0
LINE
  5
2D6
330
6F
100
AcDbEntity
  8
ANCHOR
  6
Continuous
100
AcDbLine
 10
237.4773721234735
 20
424.8555691123846
 30
0.0
 11
237.629011997782
 21
425.9888208067216
 31
0.0
  0
ARC
  5
2D7
330
6F
100
AcDbEntity
  8
ANCHOR
  6
Continuous
100
AcDbCircle
 10
239.5217819241686
 20
425.8232248954421
 30
0.0
 40
1.9
100
AcDbArc
 50
105.3624850359274
 51
174.999999999104
  0
LINE
  5
2D8
330
6F
100
AcDbEntity
  8
ANCHOR
  6
Continuous
100
AcDbLine
 10
236.2273721234348
 20
424.255569112404
 30
0.0
 11
236.2273721234426
 21
424.8555691124041
 31
0.0
  0
LINE
  5
2D9
330
6F
100
AcDbEntity
  8
KUTAI
  6
Continuous
100
AcDbLine
 10
632.7412277187526
 20
142.8364496096263
 30
0.0
 11
582.7412277187526
 21
142.8364496096263
 31
0.0
  0
LINE
  5
2DA
330
6F
100
AcDbEntity
  8
KUTAI
  6
Continuous
100
AcDbLine
 10
635.7412277187527
 20
113.8364496096263
 30
0.0
 11
635.7412277187527
 21
139.8364496096263
 31
0.0
  0
LINE
  5
2DB
330
6F
100
AcDbEntity
  8
KUTAI
  6
Continuous
100
AcDbLine
 10
579.7412277187527
 20
139.8364496096263
 30
0.0
 11
579.7412277187527
 21
113.8364496096263
 31
0.0
  0
LINE
  5
2DC
330
6F
100
AcDbEntity
  8
KUTAI
  6
Continuous
100
AcDbLine
 10
582.7412277187526
 20
110.8364496096263
 30
0.0
 11
632.7412277187526
 21
110.8364496096263
 31
0.0
  0
LINE
  5
2DD
330
6F
100
AcDbEntity
  8
KUTAI
  6
Continuous
100
AcDbLine
 10
518.9620800525037
 20
142.8364496096263
 30
0.0
 11
562.7412277187528
 21
142.8364496096263
 31
0.0
  0
LINE
  5
2DE
330
6F
100
AcDbEntity
  8
KUTAI
  6
Continuous
100
AcDbLine
 10
565.7412277187527
 20
113.8364496096263
 30
0.0
 11
565.7412277187527
 21
139.8364496096263
 31
0.0
  0
LINE
  5
2DF
330
6F
100
AcDbEntity
  8
KUTAI
  6
Continuous
100
AcDbLine
 10
518.9620800525037
 20
110.8364496096263
 30
0.0
 11
562.7412277187528
 21
110.8364496096263
 31
0.0
  0
LINE
  5
2E0
330
6F
100
AcDbEntity
  8
KUTAI
  6
Continuous
100
AcDbLine
 10
652.7412277187527
 20
142.8364496096263
 30
0.0
 11
694.1524096246031
 21
142.8364496096263
 31
0.0
  0
LINE
  5
2E1
330
6F
100
AcDbEntity
  8
KUTAI
  6
Continuous
100
AcDbLine
 10
649.7412277187527
 20
139.8364496096263
 30
0.0
 11
649.7412277187527
 21
113.8364496096263
 31
0.0
  0
LINE
  5
2E2
330
6F
100
AcDbEntity
  8
KUTAI
  6
Continuous
100
AcDbLine
 10
652.7412277187527
 20
110.8364496096263
 30
0.0
 11
694.1524096246031
 21
110.8364496096263
 31
0.0
  0
LINE
  5
2E3
330
6F
100
AcDbEntity
  8
KUTAI
  6
Continuous
100
AcDbLine
 10
518.9620800525037
 20
156.8364496096263
 30
0.0
 11
694.1524096246031
 21
156.8364496096263
 31
0.0
  0
LINE
  5
2E4
330
6F
100
AcDbEntity
  8
KUTAI
  6
Continuous
100
AcDbLine
 10
518.9620800525037
 20
96.83644960962631
 30
0.0
 11
694.1524096246031
 21
96.83644960962631
 31
0.0
  0
ARC
  5
2E5
330
6F
100
AcDbEntity
  8
KUTAI
  6
Continuous
100
AcDbCircle
 10
632.7412277187526
 20
139.8364496096263
 30
0.0
 40
3.000000191249998
100
AcDbArc
 50
0.0
 51
90.0
  0
ARC
  5
2E6
330
6F
100
AcDbEntity
  8
KUTAI
  6
Continuous
100
AcDbCircle
 10
582.7412277187526
 20
139.8364496096263
 30
0.0
 40
3.000000191249998
100
AcDbArc
 50
90.0
 51
180.0
  0
ARC
  5
2E7
330
6F
100
AcDbEntity
  8
KUTAI
  6
Continuous
100
AcDbCircle
 10
632.7412277187526
 20
113.8364496096263
 30
0.0
 40
3.000000191249998
100
AcDbArc
 50
270.0
 51
0.0
  0
ARC
  5
2E8
330
6F
100
AcDbEntity
  8
KUTAI
  6
Continuous
100
AcDbCircle
 10
582.7412277187526
 20
113.8364496096263
 30
0.0
 40
3.000000191249998
100
AcDbArc
 50
180.0
 51
270.0
  0
ARC
  5
2E9
330
6F
100
AcDbEntity
  8
KUTAI
  6
Continuous
100
AcDbCircle
 10
562.7412277187528
 20
139.8364496096263
 30
0.0
 40
3.000000191249998
100
AcDbArc
 50
0.0
 51
90.0
  0
ARC
  5
2EA
330
6F
100
AcDbEntity
  8
KUTAI
  6
Continuous
100
AcDbCircle
 10
562.7412277187528
 20
113.8364496096263
 30
0.0
 40
3.000000191249998
100
AcDbArc
 50
270.0
 51
0.0
  0
ARC
  5
2EB
330
6F
100
AcDbEntity
  8
KUTAI
  6
Continuous
100
AcDbCircle
 10
652.7412277187527
 20
139.8364496096263
 30
0.0
 40
3.000000191249998
100
AcDbArc
 50
90.0
 51
180.0
  0
ARC
  5
2EC
330
6F
100
AcDbEntity
  8
KUTAI
  6
Continuous
100
AcDbCircle
 10
652.7412277187527
 20
113.8364496096263
 30
0.0
 40
3.000000191249998
100
AcDbArc
 50
180.0
 51
270.0
  0
LINE
  5
2ED
330
6F
100
AcDbEntity
  8
ANCHOR
  6
HIDDEN
100
AcDbLine
 10
611.2412277190035
 20
160.3364496094666
 30
0.0
 11
610.1812277190032
 21
159.2764496094666
 31
0.0
  0
LINE
  5
2EE
330
6F
100
AcDbEntity
  8
ANCHOR
  6
HIDDEN
100
AcDbLine
 10
605.7412277190032
 20
129.8364496094668
 30
0.0
 11
605.7412277190032
 21
127.3364496094665
 31
0.0
  0
LINE
  5
2EF
330
6F
100
AcDbEntity
  8
ANCHOR
  6
HIDDEN
100
AcDbLine
 10
609.7412277190032
 20
129.8364496094668
 30
0.0
 11
609.7412277190032
 21
127.3364496094665
 31
0.0
  0
LINE
  5
2F0
330
6F
100
AcDbEntity
  8
ANCHOR
  6
Continuous
100
AcDbLine
 10
611.9912277190032
 20
162.7364496094666
 30
0.0
 11
603.4912277190032
 21
162.7364496094666
 31
0.0
  0
LINE
  5
2F1
330
6F
100
AcDbEntity
  8
ANCHOR
  6
HIDDEN
100
AcDbLine
 10
609.8912277190033
 20
131.3364496094668
 30
0.0
 11
605.5912277190032
 21
131.3364496094668
 31
0.0
  0
LINE
  5
2F2
330
6F
100
AcDbEntity
  8
ANCHOR
  6
HIDDEN
100
AcDbLine
 10
609.7412277190032
 20
127.3364496094665
 30
0.0
 11
605.7412277190032
 21
127.3364496094665
 31
0.0
  0
LINE
  5
2F3
330
6F
100
AcDbEntity
  8
ANCHOR
  6
HIDDEN
100
AcDbLine
 10
609.7412277190032
 20
129.8364496094668
 30
0.0
 11
605.7412277190032
 21
129.8364496094668
 31
0.0
  0
LINE
  5
2F4
330
6F
100
AcDbEntity
  8
ANCHOR
  6
HIDDEN
100
AcDbLine
 10
609.7412277190032
 20
129.8364496094667
 30
0.0
 11
609.8912277190033
 21
131.3364496094667
 31
0.0
  0
LINE
  5
2F5
330
6F
100
AcDbEntity
  8
ANCHOR
  6
HIDDEN
100
AcDbLine
 10
605.7412277190032
 20
129.8364496094667
 30
0.0
 11
605.5912277190032
 21
131.3364496094667
 31
0.0
  0
LINE
  5
2F6
330
6F
100
AcDbEntity
  8
ANCHOR
  6
HIDDEN
100
AcDbLine
 10
604.2412277190031
 20
160.3364496094665
 30
0.0
 11
605.3012277190028
 21
159.2764496094666
 31
0.0
  0
LINE
  5
2F7
330
6F
100
AcDbEntity
  8
ANCHOR
  6
HIDDEN
100
AcDbLine
 10
610.1812277190032
 20
159.2764496094666
 30
0.0
 11
605.3012277190032
 21
159.2764496094666
 31
0.0
  0
LINE
  5
2F8
330
6F
100
AcDbEntity
  8
ANCHOR
  6
HIDDEN
100
AcDbLine
 10
610.3912277190032
 20
143.8574496095208
 30
0.0
 11
609.8912277190033
 21
143.5687744749257
 31
0.0
  0
LINE
  5
2F9
330
6F
100
AcDbEntity
  8
ANCHOR
  6
HIDDEN
100
AcDbLine
 10
604.5412277190028
 20
143.8574496095206
 30
0.0
 11
605.5912277190032
 21
143.576102957468
 31
0.0
  0
LINE
  5
2FA
330
6F
100
AcDbEntity
  8
ANCHOR
  6
HIDDEN
100
AcDbLine
 10
610.9412277190037
 20
145.6714496095205
 30
0.0
 11
609.8912277190037
 21
145.9527962615731
 31
0.0
  0
LINE
  5
2FB
330
6F
100
AcDbEntity
  8
ANCHOR
  6
HIDDEN
100
AcDbLine
 10
610.3912277190033
 20
143.8574496095208
 30
0.0
 11
609.8912277190033
 21
144.1461247441157
 31
0.0
  0
LINE
  5
2FC
330
6F
100
AcDbEntity
  8
ANCHOR
  6
HIDDEN
100
AcDbLine
 10
605.0912277190034
 20
142.0434496095208
 30
0.0
 11
605.5912277190038
 21
142.3321247441154
 31
0.0
  0
LINE
  5
2FD
330
6F
100
AcDbEntity
  8
ANCHOR
  6
HIDDEN
100
AcDbLine
 10
605.0912277190032
 20
142.0434496095205
 30
0.0
 11
605.5912277190034
 21
141.7547744749256
 31
0.0
  0
LINE
  5
2FE
330
6F
100
AcDbEntity
  8
ANCHOR
  6
HIDDEN
100
AcDbLine
 10
610.9412277190032
 20
145.6714496095206
 30
0.0
 11
604.5412277190031
 21
143.8574496095206
 31
0.0
  0
LINE
  5
2FF
330
6F
100
AcDbEntity
  8
ANCHOR
  6
HIDDEN
100
AcDbLine
 10
605.5912277190032
 20
143.576102957468
 30
0.0
 11
610.9412277190032
 21
145.6714496095207
 31
0.0
  0
LINE
  5
300
330
6F
100
AcDbEntity
  8
ANCHOR
  6
HIDDEN
100
AcDbLine
 10
609.8912277190033
 20
145.952796261573
 30
0.0
 11
604.5412277190032
 21
143.8574496095205
 31
0.0
  0
LINE
  5
301
330
6F
100
AcDbEntity
  8
ANCHOR
  6
HIDDEN
100
AcDbLine
 10
609.8912277190028
 20
144.1461247441155
 30
0.0
 11
605.5912277190032
 21
142.3321247441155
 31
0.0
  0
LINE
  5
302
330
6F
100
AcDbEntity
  8
ANCHOR
  6
HIDDEN
100
AcDbLine
 10
605.0912277190032
 20
142.0434496095206
 30
0.0
 11
610.3912277190032
 21
143.8574496095205
 31
0.0
  0
LINE
  5
303
330
6F
100
AcDbEntity
  8
ANCHOR
  6
HIDDEN
100
AcDbLine
 10
605.5912277190032
 20
141.754774474926
 30
0.0
 11
609.891227719003
 21
143.5687744749258
 31
0.0
  0
LINE
  5
304
330
6F
100
AcDbEntity
  8
ANCHOR
  6
HIDDEN
100
AcDbLine
 10
610.3912277190032
 20
140.2294496095344
 30
0.0
 11
609.891227719003
 21
139.9407744749393
 31
0.0
  0
LINE
  5
305
330
6F
100
AcDbEntity
  8
ANCHOR
  6
HIDDEN
100
AcDbLine
 10
604.5412277190031
 20
140.229449609534
 30
0.0
 11
605.5912277190032
 21
139.9481029574815
 31
0.0
  0
LINE
  5
306
330
6F
100
AcDbEntity
  8
ANCHOR
  6
HIDDEN
100
AcDbLine
 10
610.9412277190036
 20
142.0434496095345
 30
0.0
 11
609.8912277190033
 21
142.3247962615871
 31
0.0
  0
LINE
  5
307
330
6F
100
AcDbEntity
  8
ANCHOR
  6
HIDDEN
100
AcDbLine
 10
610.3912277190032
 20
140.229449609534
 30
0.0
 11
609.8912277190033
 21
140.518124744129
 31
0.0
  0
LINE
  5
308
330
6F
100
AcDbEntity
  8
ANCHOR
  6
HIDDEN
100
AcDbLine
 10
605.0912277190032
 20
138.4154496095342
 30
0.0
 11
605.5912277190032
 21
138.7041247441289
 31
0.0
  0
LINE
  5
309
330
6F
100
AcDbEntity
  8
ANCHOR
  6
HIDDEN
100
AcDbLine
 10
605.0912277190032
 20
138.415449609534
 30
0.0
 11
605.591227719003
 21
138.1267744749392
 31
0.0
  0
LINE
  5
30A
330
6F
100
AcDbEntity
  8
ANCHOR
  6
HIDDEN
100
AcDbLine
 10
610.9412277190036
 20
142.0434496095343
 30
0.0
 11
604.5412277190036
 21
140.2294496095342
 31
0.0
  0
LINE
  5
30B
330
6F
100
AcDbEntity
  8
ANCHOR
  6
HIDDEN
100
AcDbLine
 10
605.5912277190032
 20
139.9481029574812
 30
0.0
 11
610.9412277190031
 21
142.0434496095339
 31
0.0
  0
LINE
  5
30C
330
6F
100
AcDbEntity
  8
ANCHOR
  6
HIDDEN
100
AcDbLine
 10
609.8912277190033
 20
142.3247962615868
 30
0.0
 11
604.5412277190032
 21
140.2294496095341
 31
0.0
  0
LINE
  5
30D
330
6F
100
AcDbEntity
  8
ANCHOR
  6
HIDDEN
100
AcDbLine
 10
609.8912277190028
 20
140.5181247441291
 30
0.0
 11
605.5912277190032
 21
138.704124744129
 31
0.0
  0
LINE
  5
30E
330
6F
100
AcDbEntity
  8
ANCHOR
  6
HIDDEN
100
AcDbLine
 10
605.0912277190032
 20
138.4154496095341
 30
0.0
 11
610.3912277190032
 21
140.2294496095341
 31
0.0
  0
LINE
  5
30F
330
6F
100
AcDbEntity
  8
ANCHOR
  6
HIDDEN
100
AcDbLine
 10
605.5912277190035
 20
138.1267744749394
 30
0.0
 11
609.8912277190033
 21
139.9407744749394
 31
0.0
  0
LINE
  5
310
330
6F
100
AcDbEntity
  8
ANCHOR
  6
HIDDEN
100
AcDbLine
 10
609.8912277190033
 20
140.5181247441291
 30
0.0
 11
609.8912277190033
 21
141.63221335072
 31
0.0
  0
LINE
  5
311
330
6F
100
AcDbEntity
  8
ANCHOR
  6
HIDDEN
100
AcDbLine
 10
609.8912277190033
 20
142.3247962615868
 30
0.0
 11
609.8912277190033
 21
143.5687744749256
 31
0.0
  0
LINE
  5
312
330
6F
100
AcDbEntity
  8
ANCHOR
  6
HIDDEN
100
AcDbLine
 10
609.8912277190033
 20
144.1461247441156
 30
0.0
 11
609.8912277190033
 21
145.2602133507066
 31
0.0
  0
LINE
  5
313
330
6F
100
AcDbEntity
  8
ANCHOR
  6
HIDDEN
100
AcDbLine
 10
605.5912277190032
 20
143.576102957468
 30
0.0
 11
605.5912277190032
 21
142.3321247441155
 31
0.0
  0
LINE
  5
314
330
6F
100
AcDbEntity
  8
ANCHOR
  6
HIDDEN
100
AcDbLine
 10
605.5912277190032
 20
141.7547744749258
 30
0.0
 11
605.5912277190032
 21
140.6406858683482
 31
0.0
  0
LINE
  5
315
330
6F
100
AcDbEntity
  8
ANCHOR
  6
HIDDEN
100
AcDbLine
 10
605.5912277190032
 20
139.9481029574816
 30
0.0
 11
605.5912277190032
 21
138.7041247441292
 31
0.0
  0
LINE
  5
316
330
6F
100
AcDbEntity
  8
ANCHOR
  6
HIDDEN
100
AcDbLine
 10
610.3912277190032
 20
147.4854496095068
 30
0.0
 11
609.8912277190033
 21
147.196774474912
 31
0.0
  0
LINE
  5
317
330
6F
100
AcDbEntity
  8
ANCHOR
  6
HIDDEN
100
AcDbLine
 10
604.5412277190028
 20
147.4854496095066
 30
0.0
 11
605.5912277190027
 21
147.204102957454
 31
0.0
  0
LINE
  5
318
330
6F
100
AcDbEntity
  8
ANCHOR
  6
HIDDEN
100
AcDbLine
 10
610.9412277190028
 20
149.2994496095071
 30
0.0
 11
609.891227719003
 21
149.5807962615597
 31
0.0
  0
LINE
  5
319
330
6F
100
AcDbEntity
  8
ANCHOR
  6
HIDDEN
100
AcDbLine
 10
610.3912277190032
 20
147.4854496095071
 30
0.0
 11
609.8912277190033
 21
147.774124744102
 31
0.0
  0
LINE
  5
31A
330
6F
100
AcDbEntity
  8
ANCHOR
  6
HIDDEN
100
AcDbLine
 10
605.0912277190032
 20
145.6714496095071
 30
0.0
 11
605.5912277190032
 21
145.9601247441018
 31
0.0
  0
LINE
  5
31B
330
6F
100
AcDbEntity
  8
ANCHOR
  6
HIDDEN
100
AcDbLine
 10
605.0912277190028
 20
145.6714496095072
 30
0.0
 11
605.5912277190027
 21
145.3827744749123
 31
0.0
  0
LINE
  5
31C
330
6F
100
AcDbEntity
  8
ANCHOR
  6
HIDDEN
100
AcDbLine
 10
610.9412277190031
 20
149.299449609507
 30
0.0
 11
604.5412277190032
 21
147.485449609507
 31
0.0
  0
LINE
  5
31D
330
6F
100
AcDbEntity
  8
ANCHOR
  6
HIDDEN
100
AcDbLine
 10
605.5912277190032
 20
147.2041029574546
 30
0.0
 11
610.9412277190031
 21
149.2994496095073
 31
0.0
  0
LINE
  5
31E
330
6F
100
AcDbEntity
  8
ANCHOR
  6
HIDDEN
100
AcDbLine
 10
609.8912277190028
 20
149.5807962615597
 30
0.0
 11
604.5412277190028
 21
147.4854496095071
 31
0.0
  0
LINE
  5
31F
330
6F
100
AcDbEntity
  8
ANCHOR
  6
HIDDEN
100
AcDbLine
 10
609.8912277190033
 20
147.774124744102
 30
0.0
 11
605.5912277190034
 21
145.9601247441019
 31
0.0
  0
LINE
  5
320
330
6F
100
AcDbEntity
  8
ANCHOR
  6
HIDDEN
100
AcDbLine
 10
605.0912277190032
 20
145.6714496095071
 30
0.0
 11
610.3912277190032
 21
147.4854496095069
 31
0.0
  0
LINE
  5
321
330
6F
100
AcDbEntity
  8
ANCHOR
  6
HIDDEN
100
AcDbLine
 10
605.591227719003
 20
145.3827744749122
 30
0.0
 11
609.8912277190028
 21
147.1967744749122
 31
0.0
  0
LINE
  5
322
330
6F
100
AcDbEntity
  8
ANCHOR
  6
HIDDEN
100
AcDbLine
 10
609.8912277190033
 20
145.9527962615731
 30
0.0
 11
609.8912277190033
 21
147.1967744749121
 31
0.0
  0
LINE
  5
323
330
6F
100
AcDbEntity
  8
ANCHOR
  6
HIDDEN
100
AcDbLine
 10
609.8912277190033
 20
147.7741247441021
 30
0.0
 11
609.8912277190033
 21
148.8882133506931
 31
0.0
  0
LINE
  5
324
330
6F
100
AcDbEntity
  8
ANCHOR
  6
HIDDEN
100
AcDbLine
 10
605.5912277190032
 20
147.2041029574544
 30
0.0
 11
605.5912277190032
 21
145.9601247441019
 31
0.0
  0
LINE
  5
325
330
6F
100
AcDbEntity
  8
ANCHOR
  6
HIDDEN
100
AcDbLine
 10
605.5912277190032
 20
145.3827744749123
 30
0.0
 11
605.5912277190032
 21
144.2686858683348
 31
0.0
  0
LINE
  5
326
330
6F
100
AcDbEntity
  8
ANCHOR
  6
HIDDEN
100
AcDbLine
 10
610.3912277190028
 20
151.1134496094936
 30
0.0
 11
609.891227719003
 21
150.8247744748988
 31
0.0
  0
LINE
  5
327
330
6F
100
AcDbEntity
  8
ANCHOR
  6
HIDDEN
100
AcDbLine
 10
604.5412277190035
 20
151.1134496094934
 30
0.0
 11
605.5912277190035
 21
150.8321029574406
 31
0.0
  0
LINE
  5
328
330
6F
100
AcDbEntity
  8
ANCHOR
  6
HIDDEN
100
AcDbLine
 10
610.9412277190032
 20
152.9274496094933
 30
0.0
 11
609.8912277190033
 21
153.208796261546
 31
0.0
  0
LINE
  5
329
330
6F
100
AcDbEntity
  8
ANCHOR
  6
HIDDEN
100
AcDbLine
 10
610.3912277190033
 20
151.1134496094935
 30
0.0
 11
609.8912277190033
 21
151.4021247440883
 31
0.0
  0
LINE
  5
32A
330
6F
100
AcDbEntity
  8
ANCHOR
  6
HIDDEN
100
AcDbLine
 10
605.0912277190032
 20
149.2994496094933
 30
0.0
 11
605.5912277190032
 21
149.5881247440882
 31
0.0
  0
LINE
  5
32B
330
6F
100
AcDbEntity
  8
ANCHOR
  6
HIDDEN
100
AcDbLine
 10
605.0912277190028
 20
149.2994496094933
 30
0.0
 11
605.5912277190032
 21
149.0107744748984
 31
0.0
  0
LINE
  5
32C
330
6F
100
AcDbEntity
  8
ANCHOR
  6
HIDDEN
100
AcDbLine
 10
610.9412277190032
 20
152.9274496094936
 30
0.0
 11
604.5412277190031
 21
151.1134496094935
 31
0.0
  0
LINE
  5
32D
330
6F
100
AcDbEntity
  8
ANCHOR
  6
HIDDEN
100
AcDbLine
 10
605.5912277190032
 20
150.8321029574408
 30
0.0
 11
610.9412277190031
 21
152.9274496094936
 31
0.0
  0
LINE
  5
32E
330
6F
100
AcDbEntity
  8
ANCHOR
  6
HIDDEN
100
AcDbLine
 10
609.8912277190033
 20
153.2087962615464
 30
0.0
 11
604.5412277190036
 21
151.1134496094937
 31
0.0
  0
LINE
  5
32F
330
6F
100
AcDbEntity
  8
ANCHOR
  6
HIDDEN
100
AcDbLine
 10
609.8912277190028
 20
151.4021247440883
 30
0.0
 11
605.5912277190032
 21
149.5881247440884
 31
0.0
  0
LINE
  5
330
330
6F
100
AcDbEntity
  8
ANCHOR
  6
HIDDEN
100
AcDbLine
 10
605.0912277190028
 20
149.2994496094935
 30
0.0
 11
610.3912277190028
 21
151.1134496094934
 31
0.0
  0
LINE
  5
331
330
6F
100
AcDbEntity
  8
ANCHOR
  6
HIDDEN
100
AcDbLine
 10
605.5912277190032
 20
149.010774474899
 30
0.0
 11
609.8912277190033
 21
150.824774474899
 31
0.0
  0
LINE
  5
332
330
6F
100
AcDbEntity
  8
ANCHOR
  6
HIDDEN
100
AcDbLine
 10
609.8912277190033
 20
149.5807962615596
 30
0.0
 11
609.8912277190033
 21
150.8247744748989
 31
0.0
  0
LINE
  5
333
330
6F
100
AcDbEntity
  8
ANCHOR
  6
HIDDEN
100
AcDbLine
 10
609.8912277190033
 20
151.4021247440884
 30
0.0
 11
609.8912277190033
 21
152.5162133506795
 31
0.0
  0
LINE
  5
334
330
6F
100
AcDbEntity
  8
ANCHOR
  6
HIDDEN
100
AcDbLine
 10
605.5912277190032
 20
150.8321029574408
 30
0.0
 11
605.5912277190032
 21
149.5881247440886
 31
0.0
  0
LINE
  5
335
330
6F
100
AcDbEntity
  8
ANCHOR
  6
HIDDEN
100
AcDbLine
 10
605.5912277190032
 20
149.0107744748988
 30
0.0
 11
605.5912277190032
 21
147.8966858683213
 31
0.0
  0
LINE
  5
336
330
6F
100
AcDbEntity
  8
ANCHOR
  6
HIDDEN
100
AcDbLine
 10
610.391227719003
 20
154.7414496094801
 30
0.0
 11
609.8912277190033
 21
154.4527744748851
 31
0.0
  0
LINE
  5
337
330
6F
100
AcDbEntity
  8
ANCHOR
  6
HIDDEN
100
AcDbLine
 10
604.5412277190031
 20
154.7414496094799
 30
0.0
 11
605.5912277190027
 21
154.4601029574273
 31
0.0
  0
LINE
  5
338
330
6F
100
AcDbEntity
  8
ANCHOR
  6
HIDDEN
100
AcDbLine
 10
610.9412277190032
 20
156.5554496094799
 30
0.0
 11
609.8912277190033
 21
156.8367962615323
 31
0.0
  0
LINE
  5
339
330
6F
100
AcDbEntity
  8
ANCHOR
  6
HIDDEN
100
AcDbLine
 10
610.3912277190032
 20
154.74144960948
 30
0.0
 11
609.8912277190033
 21
155.0301247440749
 31
0.0
  0
LINE
  5
33A
330
6F
100
AcDbEntity
  8
ANCHOR
  6
HIDDEN
100
AcDbLine
 10
605.0912277190028
 20
152.9274496094802
 30
0.0
 11
605.591227719003
 21
153.2161247440751
 31
0.0
  0
LINE
  5
33B
330
6F
100
AcDbEntity
  8
ANCHOR
  6
HIDDEN
100
AcDbLine
 10
605.0912277190032
 20
152.9274496094803
 30
0.0
 11
605.5912277190027
 21
152.6387744748856
 31
0.0
  0
LINE
  5
33C
330
6F
100
AcDbEntity
  8
ANCHOR
  6
HIDDEN
100
AcDbLine
 10
610.9412277190032
 20
156.5554496094801
 30
0.0
 11
604.5412277190032
 21
154.7414496094799
 31
0.0
  0
LINE
  5
33D
330
6F
100
AcDbEntity
  8
ANCHOR
  6
HIDDEN
100
AcDbLine
 10
605.5912277190035
 20
154.4601029574274
 30
0.0
 11
610.9412277190036
 21
156.5554496094803
 31
0.0
  0
LINE
  5
33E
330
6F
100
AcDbEntity
  8
ANCHOR
  6
HIDDEN
100
AcDbLine
 10
609.8912277190028
 20
156.8367962615326
 30
0.0
 11
604.5412277190028
 21
154.74144960948
 31
0.0
  0
LINE
  5
33F
330
6F
100
AcDbEntity
  8
ANCHOR
  6
HIDDEN
100
AcDbLine
 10
609.8912277190033
 20
155.0301247440749
 30
0.0
 11
605.5912277190032
 21
153.216124744075
 31
0.0
  0
LINE
  5
340
330
6F
100
AcDbEntity
  8
ANCHOR
  6
HIDDEN
100
AcDbLine
 10
605.0912277190027
 20
152.9274496094799
 30
0.0
 11
610.3912277190028
 21
154.7414496094801
 31
0.0
  0
LINE
  5
341
330
6F
100
AcDbEntity
  8
ANCHOR
  6
HIDDEN
100
AcDbLine
 10
605.5912277190032
 20
152.6387744748854
 30
0.0
 11
609.8912277190033
 21
154.4527744748853
 31
0.0
  0
LINE
  5
342
330
6F
100
AcDbEntity
  8
ANCHOR
  6
HIDDEN
100
AcDbLine
 10
609.8912277190033
 20
153.2087962615464
 30
0.0
 11
609.8912277190033
 21
154.4527744748852
 31
0.0
  0
LINE
  5
343
330
6F
100
AcDbEntity
  8
ANCHOR
  6
HIDDEN
100
AcDbLine
 10
609.8912277190033
 20
155.0301247440749
 30
0.0
 11
609.8912277190033
 21
156.1442133506661
 31
0.0
  0
LINE
  5
344
330
6F
100
AcDbEntity
  8
ANCHOR
  6
HIDDEN
100
AcDbLine
 10
605.5912277190032
 20
154.4601029574275
 30
0.0
 11
605.5912277190032
 21
153.2161247440751
 31
0.0
  0
LINE
  5
345
330
6F
100
AcDbEntity
  8
ANCHOR
  6
HIDDEN
100
AcDbLine
 10
605.5912277190032
 20
152.6387744748853
 30
0.0
 11
605.5912277190032
 21
151.5246858683076
 31
0.0
  0
LINE
  5
346
330
6F
100
AcDbEntity
  8
ANCHOR
  6
HIDDEN
100
AcDbLine
 10
605.0912277190028
 20
156.5554496094665
 30
0.0
 11
605.5912277190032
 21
156.8441247440614
 31
0.0
  0
LINE
  5
347
330
6F
100
AcDbEntity
  8
ANCHOR
  6
HIDDEN
100
AcDbLine
 10
605.0912277190032
 20
156.5554496094665
 30
0.0
 11
605.5912277190034
 21
156.2667744748717
 31
0.0
  0
LINE
  5
348
330
6F
100
AcDbEntity
  8
ANCHOR
  6
HIDDEN
100
AcDbLine
 10
607.7412277190031
 20
159.2764496094666
 30
0.0
 11
604.9512277190032
 21
158.4856589844666
 31
0.0
  0
LINE
  5
349
330
6F
100
AcDbEntity
  8
ANCHOR
  6
HIDDEN
100
AcDbLine
 10
609.8912277190033
 20
156.8367962615327
 30
0.0
 11
609.8912277190033
 21
158.0807744748717
 31
0.0
  0
LINE
  5
34A
330
6F
100
AcDbEntity
  8
ANCHOR
  6
HIDDEN
100
AcDbLine
 10
605.5912277190032
 20
158.3141715013107
 30
0.0
 11
605.5912277190032
 21
156.8441247440614
 31
0.0
  0
LINE
  5
34B
330
6F
100
AcDbEntity
  8
ANCHOR
  6
HIDDEN
100
AcDbLine
 10
605.5912277190032
 20
156.2667744748718
 30
0.0
 11
605.5912277190032
 21
155.1526858682941
 31
0.0
  0
LINE
  5
34C
330
6F
100
AcDbEntity
  8
ANCHOR
  6
HIDDEN
100
AcDbLine
 10
610.391227719003
 20
136.6014496095476
 30
0.0
 11
609.8912277190028
 21
136.3127744749526
 31
0.0
  0
LINE
  5
34D
330
6F
100
AcDbEntity
  8
ANCHOR
  6
HIDDEN
100
AcDbLine
 10
604.5412277190035
 20
136.601449609548
 30
0.0
 11
605.5912277190034
 21
136.3201029574954
 31
0.0
  0
LINE
  5
34E
330
6F
100
AcDbEntity
  8
ANCHOR
  6
HIDDEN
100
AcDbLine
 10
610.9412277190032
 20
138.4154496095479
 30
0.0
 11
609.8912277190033
 21
138.6967962616004
 31
0.0
  0
LINE
  5
34F
330
6F
100
AcDbEntity
  8
ANCHOR
  6
HIDDEN
100
AcDbLine
 10
610.3912277190032
 20
136.6014496095479
 30
0.0
 11
609.8912277190028
 21
136.8901247441427
 31
0.0
  0
LINE
  5
350
330
6F
100
AcDbEntity
  8
ANCHOR
  6
HIDDEN
100
AcDbLine
 10
605.0912277190032
 20
134.7874496095475
 30
0.0
 11
605.5912277190032
 21
135.0761247441424
 31
0.0
  0
LINE
  5
351
330
6F
100
AcDbEntity
  8
ANCHOR
  6
HIDDEN
100
AcDbLine
 10
605.0912277190028
 20
134.7874496095478
 30
0.0
 11
605.5912277190032
 21
134.4987744749529
 31
0.0
  0
LINE
  5
352
330
6F
100
AcDbEntity
  8
ANCHOR
  6
HIDDEN
100
AcDbLine
 10
610.9412277190036
 20
138.4154496095479
 30
0.0
 11
604.5412277190032
 21
136.601449609548
 31
0.0
  0
LINE
  5
353
330
6F
100
AcDbEntity
  8
ANCHOR
  6
HIDDEN
100
AcDbLine
 10
605.5912277190032
 20
136.320102957495
 30
0.0
 11
610.9412277190032
 21
138.4154496095476
 31
0.0
  0
LINE
  5
354
330
6F
100
AcDbEntity
  8
ANCHOR
  6
HIDDEN
100
AcDbLine
 10
609.8912277190033
 20
138.6967962616003
 30
0.0
 11
604.5412277190031
 21
136.6014496095478
 31
0.0
  0
LINE
  5
355
330
6F
100
AcDbEntity
  8
ANCHOR
  6
HIDDEN
100
AcDbLine
 10
609.8912277190028
 20
136.8901247441427
 30
0.0
 11
605.5912277190027
 21
135.0761247441427
 31
0.0
  0
LINE
  5
356
330
6F
100
AcDbEntity
  8
ANCHOR
  6
HIDDEN
100
AcDbLine
 10
605.0912277190032
 20
134.7874496095477
 30
0.0
 11
610.3912277190032
 21
136.6014496095477
 31
0.0
  0
LINE
  5
357
330
6F
100
AcDbEntity
  8
ANCHOR
  6
HIDDEN
100
AcDbLine
 10
605.5912277190026
 20
134.4987744749527
 30
0.0
 11
609.8912277190028
 21
136.3127744749526
 31
0.0
  0
LINE
  5
358
330
6F
100
AcDbEntity
  8
ANCHOR
  6
HIDDEN
100
AcDbLine
 10
609.8912277190033
 20
136.8901247441426
 30
0.0
 11
609.8912277190033
 21
138.0042133507338
 31
0.0
  0
LINE
  5
359
330
6F
100
AcDbEntity
  8
ANCHOR
  6
HIDDEN
100
AcDbLine
 10
609.8912277190033
 20
138.6967962616002
 30
0.0
 11
609.8912277190033
 21
139.9407744749395
 31
0.0
  0
LINE
  5
35A
330
6F
100
AcDbEntity
  8
ANCHOR
  6
HIDDEN
100
AcDbLine
 10
605.5912277190032
 20
138.1267744749393
 30
0.0
 11
605.5912277190032
 21
137.012685868362
 31
0.0
  0
LINE
  5
35B
330
6F
100
AcDbEntity
  8
ANCHOR
  6
HIDDEN
100
AcDbLine
 10
605.5912277190032
 20
136.3201029574952
 30
0.0
 11
605.5912277190032
 21
135.0761247441427
 31
0.0
  0
LINE
  5
35C
330
6F
100
AcDbEntity
  8
ANCHOR
  6
HIDDEN
100
AcDbLine
 10
610.2912277190032
 20
132.939223194467
 30
0.0
 11
609.8912277190033
 21
132.7082830867911
 31
0.0
  0
LINE
  5
35D
330
6F
100
AcDbEntity
  8
ANCHOR
  6
HIDDEN
100
AcDbLine
 10
604.5412277190028
 20
132.9734496095612
 30
0.0
 11
605.5912277190027
 21
132.6921029575085
 31
0.0
  0
LINE
  5
35E
330
6F
100
AcDbEntity
  8
ANCHOR
  6
HIDDEN
100
AcDbLine
 10
610.9412277190028
 20
134.7874496095614
 30
0.0
 11
609.8912277190028
 21
135.068796261614
 31
0.0
  0
LINE
  5
35F
330
6F
100
AcDbEntity
  8
ANCHOR
  6
HIDDEN
100
AcDbLine
 10
610.2912277190035
 20
132.939223194467
 30
0.0
 11
609.8912277190028
 21
133.1701633021434
 31
0.0
  0
LINE
  5
360
330
6F
100
AcDbEntity
  8
ANCHOR
  6
HIDDEN
100
AcDbLine
 10
610.9412277190031
 20
134.7874496095618
 30
0.0
 11
604.5412277190031
 21
132.9734496095618
 31
0.0
  0
LINE
  5
361
330
6F
100
AcDbEntity
  8
ANCHOR
  6
HIDDEN
100
AcDbLine
 10
605.591227719003
 20
132.6921029575089
 30
0.0
 11
610.9412277190028
 21
134.7874496095615
 31
0.0
  0
LINE
  5
362
330
6F
100
AcDbEntity
  8
ANCHOR
  6
HIDDEN
100
AcDbLine
 10
609.8912277190028
 20
135.0687962616141
 30
0.0
 11
604.541227719003
 21
132.9734496095615
 31
0.0
  0
LINE
  5
363
330
6F
100
AcDbEntity
  8
ANCHOR
  6
HIDDEN
100
AcDbLine
 10
605.6083721509207
 20
131.3364496094666
 30
0.0
 11
610.2912277190035
 21
132.939223194467
 31
0.0
  0
LINE
  5
364
330
6F
100
AcDbEntity
  8
ANCHOR
  6
HIDDEN
100
AcDbLine
 10
609.8912277190033
 20
133.1701633021434
 30
0.0
 11
609.8912277190033
 21
134.3762133507472
 31
0.0
  0
LINE
  5
365
330
6F
100
AcDbEntity
  8
ANCHOR
  6
HIDDEN
100
AcDbLine
 10
609.8912277190033
 20
135.068796261614
 30
0.0
 11
609.8912277190033
 21
136.3127744749528
 31
0.0
  0
LINE
  5
366
330
6F
100
AcDbEntity
  8
ANCHOR
  6
HIDDEN
100
AcDbLine
 10
605.5912277190032
 20
134.498774474953
 30
0.0
 11
605.5912277190032
 21
133.3846858683754
 31
0.0
  0
LINE
  5
367
330
6F
100
AcDbEntity
  8
ANCHOR
  6
HIDDEN
100
AcDbLine
 10
605.591227719003
 20
132.6921029575085
 30
0.0
 11
605.5912277190032
 21
131.3364496094667
 31
0.0
  0
LINE
  5
368
330
6F
100
AcDbEntity
  8
ANCHOR
  6
HIDDEN
100
AcDbLine
 10
609.8912277190033
 20
131.3364496094668
 30
0.0
 11
609.8912277190033
 21
132.7082830867911
 31
0.0
  0
LINE
  5
369
330
6F
100
AcDbEntity
  8
ANCHOR
  6
HIDDEN
100
AcDbLine
 10
609.891227719003
 20
133.1701633021433
 30
0.0
 11
605.6083721509202
 21
131.3364496094666
 31
0.0
  0
LINE
  5
36A
330
6F
100
AcDbEntity
  8
ANCHOR
  6
HIDDEN
100
AcDbLine
 10
605.6083721509207
 20
131.3364496094667
 30
0.0
 11
609.8912277190033
 21
132.7082830867911
 31
0.0
  0
LINE
  5
36B
330
6F
100
AcDbEntity
  8
ANCHOR
  6
HIDDEN
100
AcDbLine
 10
610.3912277190032
 20
158.3694496094667
 30
0.0
 11
609.8912277190033
 21
158.0807744748718
 31
0.0
  0
LINE
  5
36C
330
6F
100
AcDbEntity
  8
ANCHOR
  6
HIDDEN
100
AcDbLine
 10
610.3912277190032
 20
158.3694496094668
 30
0.0
 11
610.0140585850757
 21
158.5872083104699
 31
0.0
  0
LINE
  5
36D
330
6F
100
AcDbEntity
  8
ANCHOR
  6
HIDDEN
100
AcDbLine
 10
605.5912277190032
 20
156.2667744748716
 30
0.0
 11
609.891227719003
 21
158.0807744748717
 31
0.0
  0
LINE
  5
36E
330
6F
100
AcDbEntity
  8
ANCHOR
  6
HIDDEN
100
AcDbLine
 10
610.3912277190033
 20
158.3694496094668
 30
0.0
 11
605.0912277190032
 21
156.5554496094667
 31
0.0
  0
LINE
  5
36F
330
6F
100
AcDbEntity
  8
ANCHOR
  6
HIDDEN
100
AcDbLine
 10
610.1812277190028
 20
159.2764496094664
 30
0.0
 11
610.0140585850752
 21
158.5872083104695
 31
0.0
  0
LINE
  5
370
330
6F
100
AcDbEntity
  8
ANCHOR
  6
HIDDEN
100
AcDbLine
 10
610.0140585850755
 20
158.5872083104695
 30
0.0
 11
605.5912277190032
 21
156.8441247440613
 31
0.0
  0
LINE
  5
371
330
6F
100
AcDbEntity
  8
ANCHOR
  6
HIDDEN
100
AcDbLine
 10
605.3012277190031
 20
159.2764496094666
 30
0.0
 11
605.4460249435955
 21
158.6794480887647
 31
0.0
  0
LINE
  5
372
330
6F
100
AcDbEntity
  8
ANCHOR
  6
HIDDEN
100
AcDbLine
 10
604.9512277190032
 20
158.4856589844668
 30
0.0
 11
605.5912277190032
 21
158.3141715013109
 31
0.0
  0
LINE
  5
373
330
6F
100
AcDbEntity
  8
ANCHOR
  6
HIDDEN
100
AcDbLine
 10
605.4460249435955
 20
158.6794480887646
 30
0.0
 11
604.9512277190032
 21
158.4856589844666
 31
0.0
  0
LINE
  5
374
330
6F
100
AcDbEntity
  8
ANCHOR
  6
HIDDEN
100
AcDbLine
 10
605.5912277190034
 20
158.3141715013109
 30
0.0
 11
607.7412277190031
 21
159.2764496094666
 31
0.0
  0
LINE
  5
375
330
6F
100
AcDbEntity
  8
ANCHOR
  6
HIDDEN
100
AcDbLine
 10
611.2412277190031
 20
160.3364496094663
 30
0.0
 11
610.1812277190032
 21
159.2764496094663
 31
0.0
  0
LINE
  5
376
330
6F
100
AcDbEntity
  8
ANCHOR
  6
HIDDEN
100
AcDbLine
 10
604.2412277190031
 20
160.3364496094665
 30
0.0
 11
605.3012277190028
 21
159.2764496094664
 31
0.0
  0
LINE
  5
377
330
6F
100
AcDbEntity
  8
ANCHOR
  6
Continuous
100
AcDbLine
 10
614.5912277183184
 20
161.9364496094664
 30
0.0
 11
600.8912277196882
 21
161.9364496094665
 31
0.0
  0
LINE
  5
378
330
6F
100
AcDbEntity
  8
ANCHOR
  6
Continuous
100
AcDbLine
 10
614.5912277183182
 20
161.9364496094665
 30
0.0
 11
614.5912277183182
 21
160.3364496096266
 31
0.0
  0
LINE
  5
379
330
6F
100
AcDbEntity
  8
ANCHOR
  6
Continuous
100
AcDbLine
 10
614.5912277183184
 20
160.3364496096263
 30
0.0
 11
600.8912277196882
 21
160.3364496096264
 31
0.0
  0
LINE
  5
37A
330
6F
100
AcDbEntity
  8
ANCHOR
  6
Continuous
100
AcDbLine
 10
600.8912277196882
 20
160.3364496096266
 30
0.0
 11
600.8912277196882
 21
161.9364496094666
 31
0.0
  0
LINE
  5
37B
330
6F
100
AcDbEntity
  8
ANCHOR
  6
Continuous
100
AcDbLine
 10
603.4912277190032
 20
162.7364496094667
 30
0.0
 11
602.7412277190031
 21
161.9364496094666
 31
0.0
  0
LINE
  5
37C
330
6F
100
AcDbEntity
  8
ANCHOR
  6
Continuous
100
AcDbLine
 10
611.9912277190032
 20
162.7364496094664
 30
0.0
 11
612.7412277190035
 21
161.9364496094664
 31
0.0
  0
LINE
  5
37D
330
6F
100
AcDbEntity
  8
LOUVER
  6
CENTER
100
AcDbLine
 10
601.8015886551209
 20
445.7555691122847
 30
0.0
 11
583.352625794548
 21
445.7555691123062
 31
0.0
  0
LINE
  5
37E
330
6F
100
AcDbEntity
  8
ANCHOR
  6
HIDDEN
100
AcDbLine
 10
597.2412277204909
 20
447.7555691124107
 30
0.0
 11
587.7412277191621
 21
447.7555691124512
 31
0.0
  0
LINE
  5
37F
330
6F
100
AcDbEntity
  8
ANCHOR
  6
HIDDEN
100
AcDbLine
 10
597.241227721046
 20
443.7555691124109
 30
0.0
 11
587.7412277191465
 21
443.7555691124511
 31
0.0
  0
LINE
  5
380
330
6F
100
AcDbEntity
  8
ANCHOR
  6
HIDDEN
100
AcDbLine
 10
600.1638774512564
 20
446.7555691124194
 30
0.0
 11
598.2412277205019
 21
446.7555691124154
 31
0.0
  0
LINE
  5
381
330
6F
100
AcDbEntity
  8
ANCHOR
  6
HIDDEN
100
AcDbLine
 10
600.1638774514524
 20
444.7555691124192
 30
0.0
 11
598.2412277210397
 21
444.7555691124153
 31
0.0
  0
LINE
  5
382
330
6F
100
AcDbEntity
  8
ANCHOR
  6
HIDDEN
100
AcDbLine
 10
600.7412277205437
 20
445.7555691122591
 30
0.0
 11
600.1638774512564
 21
446.7555691124196
 31
0.0
  0
LINE
  5
383
330
6F
100
AcDbEntity
  8
ANCHOR
  6
HIDDEN
100
AcDbLine
 10
600.1638774514531
 20
444.7555691124205
 30
0.0
 11
600.7412277205449
 21
445.7555691122593
 31
0.0
  0
ARC
  5
384
330
6F
100
AcDbEntity
  8
ANCHOR
  6
HIDDEN
100
AcDbCircle
 10
598.741227721049
 20
445.7555691124176
 30
0.0
 40
0.5
100
AcDbArc
 50
97.20679386168658
 51
262.7932061387912
  0
LINE
  5
385
330
6F
100
AcDbEntity
  8
ANCHOR
  6
HIDDEN
100
AcDbLine
 10
598.6785022845837
 20
445.2595191959563
 30
0.0
 11
600.1638774514518
 21
444.7555691124185
 31
0.0
  0
LINE
  5
386
330
6F
100
AcDbEntity
  8
ANCHOR
  6
HIDDEN
100
AcDbLine
 10
598.6785022845808
 20
446.2516190288777
 30
0.0
 11
600.1638774512564
 21
446.7555691124195
 31
0.0
  0
LINE
  5
387
330
6F
100
AcDbEntity
  8
ANCHOR
  6
HIDDEN
100
AcDbLine
 10
598.2412277205
 20
446.7555691124151
 30
0.0
 11
597.2412277204905
 21
447.7555691124122
 31
0.0
  0
LINE
  5
388
330
6F
100
AcDbEntity
  8
ANCHOR
  6
HIDDEN
100
AcDbLine
 10
597.2412277210462
 20
443.7555691124143
 30
0.0
 11
598.2412277210388
 21
444.7555691124143
 31
0.0
  0
LINE
  5
389
330
6F
100
AcDbEntity
  8
ANCHOR
  6
HIDDEN
100
AcDbLine
 10
597.2412277207777
 20
443.755569112413
 30
0.0
 11
597.2412277207628
 21
447.755569112413
 31
0.0
  0
LINE
  5
38A
330
6F
100
AcDbEntity
  8
ANCHOR
  6
HIDDEN
100
AcDbLine
 10
598.2412277205432
 20
444.7555691124131
 30
0.0
 11
598.2412277205337
 21
446.7555691124131
 31
0.0
  0
LINE
  5
38B
330
6F
100
AcDbEntity
  8
ANCHOR
  6
HIDDEN
100
AcDbLine
 10
598.0412277210415
 20
444.5555691124134
 30
0.0
 11
587.7412277191508
 21
444.5555691124545
 31
0.0
  0
LINE
  5
38C
330
6F
100
AcDbEntity
  8
ANCHOR
  6
HIDDEN
100
AcDbLine
 10
598.0412277205004
 20
446.955569112413
 30
0.0
 11
587.7412277191601
 21
446.9555691124542
 31
0.0
  0
LINE
  5
38D
330
6F
100
AcDbEntity
  8
ANCHOR
  6
Continuous
100
AcDbLine
 10
585.7189171380126
 20
446.2537673600435
 30
0.0
 11
585.7189171380131
 21
445.2573708645613
 31
0.0
  0
LINE
  5
38E
330
6F
100
AcDbEntity
  8
ANCHOR
  6
Continuous
100
AcDbLine
 10
585.7189171380126
 20
446.2537673600437
 30
0.0
 11
585.2412277193382
 21
446.2537673600437
 31
0.0
  0
LINE
  5
38F
330
6F
100
AcDbEntity
  8
ANCHOR
  6
Continuous
100
AcDbLine
 10
585.718917138013
 20
445.2573708645616
 30
0.0
 11
585.2412277193387
 21
445.2573708645616
 31
0.0
  0
LINE
  5
390
330
6F
100
AcDbEntity
  8
ANCHOR
  6
Continuous
100
AcDbLine
 10
587.241227719355
 20
441.0555691123003
 30
0.0
 11
587.741227719355
 21
441.0555691123009
 31
0.0
  0
ARC
  5
391
330
6F
100
AcDbEntity
  8
ANCHOR
  6
Continuous
100
AcDbCircle
 10
591.3326931136611
 20
445.5799376789852
 30
0.0
 40
6.099999999999998
100
AcDbArc
 50
183.0312034848472
 51
227.876411461438
  0
LINE
  5
392
330
6F
100
AcDbEntity
  8
ANCHOR
  6
Continuous
100
AcDbLine
 10
587.2412277193212
 20
450.4555691123025
 30
0.0
 11
587.2412277193558
 21
441.0555691123009
 31
0.0
  0
ARC
  5
393
330
6F
100
AcDbEntity
  8
ANCHOR
  6
Continuous
100
AcDbCircle
 10
591.3326931136611
 20
445.9312005456228
 30
0.0
 40
6.099999999999998
100
AcDbArc
 50
132.1235885386251
 51
176.9687965152159
  0
LINE
  5
394
330
6F
100
AcDbEntity
  8
ANCHOR
  6
Continuous
100
AcDbLine
 10
587.7412277193217
 20
450.4555691123038
 30
0.0
 11
587.7412277193561
 21
441.0555691123024
 31
0.0
  0
LINE
  5
395
330
6F
100
AcDbEntity
  8
ANCHOR
  6
Continuous
100
AcDbLine
 10
587.2412277193507
 20
450.455569112302
 30
0.0
 11
587.7412277193506
 21
450.4555691123025
 31
0.0
  0
LINE
  5
396
330
6F
100
AcDbEntity
  8
UKEZAI
  6
Continuous
100
AcDbLine
 10
624.4412277201014
 20
438.7555691123014
 30
0.0
 11
624.4412277201014
 21
445.7555691123014
 31
0.0
  0
LINE
  5
397
330
6F
100
AcDbEntity
  8
UKEZAI
  6
Continuous
100
AcDbLine
 10
625.9412277201533
 20
435.755569112301
 30
0.0
 11
625.9412277201554
 21
437.7555691120143
 31
0.0
  0
LINE
  5
398
330
6F
100
AcDbEntity
  8
UKEZAI
  6
Continuous
100
AcDbLine
 10
622.9412277201014
 20
437.2555691123014
 30
0.0
 11
622.9412277201014
 21
450.0055691123014
 31
0.0
  0
LINE
  5
399
330
6F
100
AcDbEntity
  8
UKEZAI
  6
Continuous
100
AcDbLine
 10
624.4412277201014
 20
445.7555691122557
 30
0.0
 11
625.7412277193703
 21
445.7555691122567
 31
0.0
  0
LINE
  5
39A
330
6F
100
AcDbEntity
  8
UKEZAI
  6
Continuous
100
AcDbLine
 10
624.4412277201014
 20
438.7555691123014
 30
0.0
 11
625.7412277201567
 21
438.7555691123014
 31
0.0
  0
LINE
  5
39B
330
6F
100
AcDbEntity
  8
UKEZAI
  6
Continuous
100
AcDbLine
 10
591.0412277201015
 20
438.7555691123014
 30
0.0
 11
591.0412277201015
 21
445.7555691123014
 31
0.0
  0
LINE
  5
39C
330
6F
100
AcDbEntity
  8
UKEZAI
  6
Continuous
100
AcDbLine
 10
589.5412277200493
 20
435.7555691123013
 30
0.0
 11
589.5412277200472
 21
437.7555691120114
 31
0.0
  0
LINE
  5
39D
330
6F
100
AcDbEntity
  8
UKEZAI
  6
Continuous
100
AcDbLine
 10
592.5412277201014
 20
437.2555691123014
 30
0.0
 11
592.5412277201014
 21
450.0055691123014
 31
0.0
  0
ARC
  5
39E
330
6F
100
AcDbEntity
  8
UKEZAI
  6
Continuous
100
AcDbCircle
 10
591.7912277201016
 20
450.0055691123014
 30
0.0
 40
0.75
100
AcDbArc
 50
0.0
 51
160.1120357041571
  0
LINE
  5
39F
330
6F
100
AcDbEntity
  8
UKEZAI
  6
Continuous
100
AcDbLine
 10
591.0412277201012
 20
445.755569112256
 30
0.0
 11
589.7412277208322
 21
445.7555691122569
 31
0.0
  0
LINE
  5
3A0
330
6F
100
AcDbEntity
  8
UKEZAI
  6
Continuous
100
AcDbLine
 10
591.0412277201015
 20
438.7555691123014
 30
0.0
 11
589.7412277200462
 21
438.7555691123014
 31
0.0
  0
LINE
  5
3A1
330
6F
100
AcDbEntity
  8
UKEZAI
  6
Continuous
100
AcDbLine
 10
589.5412277200502
 20
435.7555691123014
 30
0.0
 11
625.9412277201533
 21
435.7555691123014
 31
0.0
  0
ARC
  5
3A2
330
6F
100
AcDbEntity
  8
UKEZAI
  6
Continuous
100
AcDbCircle
 10
607.7412277201013
 20
437.2555691123014
 30
0.0
 40
0.3
100
AcDbArc
 50
180.0
 51
0.0
  0
ARC
  5
3A3
330
6F
100
AcDbEntity
  8
UKEZAI
  6
Continuous
100
AcDbCircle
 10
623.6912277201014
 20
450.0055691123014
 30
0.0
 40
0.75
100
AcDbArc
 50
19.8879642958426
 51
180.0
  0
LINE
  5
3A4
330
6F
100
AcDbEntity
  8
UKEZAI
  6
Continuous
100
AcDbLine
 10
625.9412277201549
 20
437.7555691120141
 30
0.0
 11
625.741227720156
 21
438.7555691123012
 31
0.0
  0
LINE
  5
3A5
330
6F
100
AcDbEntity
  8
UKEZAI
  6
Continuous
100
AcDbLine
 10
589.5412277200472
 20
437.755569112014
 30
0.0
 11
589.7412277200462
 21
438.7555691123011
 31
0.0
  0
ARC
  5
3A6
330
6F
100
AcDbEntity
  8
UKEZAI
  6
Continuous
100
AcDbCircle
 10
589.7412277208326
 20
445.955569112257
 30
0.0
 40
0.2
100
AcDbArc
 50
160.1120357041559
 51
270.0
  0
LINE
  5
3A7
330
6F
100
AcDbEntity
  8
UKEZAI
  6
Continuous
100
AcDbLine
 10
589.5531557993725
 20
446.023605516912
 30
0.0
 11
591.0859580146263
 21
450.2607056297572
 31
0.0
  0
ARC
  5
3A8
330
6F
100
AcDbEntity
  8
UKEZAI
  6
Continuous
100
AcDbCircle
 10
625.7412277193703
 20
445.955569112257
 30
0.0
 40
0.2
100
AcDbArc
 50
270.0
 51
19.88796429584412
  0
LINE
  5
3A9
330
6F
100
AcDbEntity
  8
UKEZAI
  6
Continuous
100
AcDbLine
 10
625.9292996408301
 20
446.0236055169118
 30
0.0
 11
624.3964974255764
 21
450.2607056297572
 31
0.0
  0
ARC
  5
3AA
330
6F
100
AcDbEntity
  8
UKEZAI
  6
Continuous
100
AcDbCircle
 10
609.7412277201014
 20
437.2555691123014
 30
0.0
 40
0.3
100
AcDbArc
 50
0.0
 51
180.0
  0
LINE
  5
3AB
330
6F
100
AcDbEntity
  8
UKEZAI
  6
Continuous
100
AcDbLine
 10
608.0412277201014
 20
437.2555691123014
 30
0.0
 11
609.4412277201017
 21
437.2555691123014
 31
0.0
  0
LINE
  5
3AC
330
6F
100
AcDbEntity
  8
UKEZAI
  6
Continuous
100
AcDbLine
 10
610.0412277201016
 20
437.2555691123014
 30
0.0
 11
622.9412277201014
 21
437.2555691123014
 31
0.0
  0
ARC
  5
3AD
330
6F
100
AcDbEntity
  8
UKEZAI
  6
Continuous
100
AcDbCircle
 10
605.7412277201014
 20
437.2555691123014
 30
0.0
 40
0.3
100
AcDbArc
 50
0.0
 51
180.0
  0
LINE
  5
3AE
330
6F
100
AcDbEntity
  8
UKEZAI
  6
Continuous
100
AcDbLine
 10
592.5412277201014
 20
437.2555691123014
 30
0.0
 11
605.4412277201017
 21
437.2555691123014
 31
0.0
  0
LINE
  5
3AF
330
6F
100
AcDbEntity
  8
UKEZAI
  6
Continuous
100
AcDbLine
 10
606.0412277201016
 20
437.2555691123014
 30
0.0
 11
607.4412277201018
 21
437.2555691123014
 31
0.0
  0
LINE
  5
3B0
330
6F
100
AcDbEntity
  8
LOUVER
  6
Continuous
100
AcDbLine
 10
260.9273721234839
 20
421.7555691123014
 30
0.0
 11
260.9273721234895
 21
426.7555691132053
 31
0.0
  0
LINE
  5
3B1
330
6F
100
AcDbEntity
  8
LOUVER
  6
Continuous
100
AcDbLine
 10
260.9273721234839
 20
421.7555691123014
 30
0.0
 11
262.7273721219842
 21
421.7555691123014
 31
0.0
  0
LINE
  5
3B2
330
6F
100
AcDbEntity
  8
LOUVER
  6
Continuous
100
AcDbLine
 10
261.5273721226049
 20
435.7555691123021
 30
0.0
 11
257.9273721226048
 21
435.7555691123033
 31
0.0
  0
LINE
  5
3B3
330
6F
100
AcDbEntity
  8
LOUVER
  6
Continuous
100
AcDbLine
 10
261.5273721226051
 20
436.7555691123022
 30
0.0
 11
257.9273721226051
 21
436.7555691123032
 31
0.0
  0
LINE
  5
3B4
330
6F
100
AcDbEntity
  8
LOUVER
  6
Continuous
100
AcDbLine
 10
261.5273721234324
 20
451.9555691123014
 30
0.0
 11
261.5273721234324
 21
459.5555691123013
 31
0.0
  0
LINE
  5
3B5
330
6F
100
AcDbEntity
  8
LOUVER
  6
Continuous
100
AcDbLine
 10
261.527372122605
 20
430.5555691122852
 30
0.0
 11
261.527372122605
 21
435.7555691123023
 31
0.0
  0
LINE
  5
3B6
330
6F
100
AcDbEntity
  8
LOUVER
  6
Continuous
100
AcDbLine
 10
261.527372122605
 20
436.7555691123022
 30
0.0
 11
261.527372122605
 21
449.7555691122523
 31
0.0
  0
LINE
  5
3B7
330
6F
100
AcDbEntity
  8
LOUVER
  6
Continuous
100
AcDbLine
 10
222.7273721234316
 20
421.7555691123012
 30
0.0
 11
222.7273721234316
 21
460.7555691123014
 31
0.0
  0
LINE
  5
3B8
330
6F
100
AcDbEntity
  8
LOUVER
  6
Continuous
100
AcDbLine
 10
224.7273721233675
 20
430.5555691122852
 30
0.0
 11
223.9273721244205
 21
430.5555691122852
 31
0.0
  0
LINE
  5
3B9
330
6F
100
AcDbEntity
  8
LOUVER
  6
Continuous
100
AcDbLine
 10
224.527372123377
 20
421.7555691123014
 30
0.0
 11
224.5273721233759
 21
426.7555691124869
 31
0.0
  0
LINE
  5
3BA
330
6F
100
AcDbEntity
  8
LOUVER
  6
Continuous
100
AcDbLine
 10
224.5273721233801
 20
421.7555691123014
 30
0.0
 11
222.7273721234315
 21
421.7555691123014
 31
0.0
  0
LINE
  5
3BB
330
6F
100
AcDbEntity
  8
LOUVER
  6
Continuous
100
AcDbLine
 10
222.7273721234315
 20
460.7555691123014
 30
0.0
 11
262.7273721226051
 21
460.7555691123014
 31
0.0
  0
POINT
  5
3BC
330
6F
100
AcDbEntity
  8
LOUVER
  6
Continuous
100
AcDbPoint
 10
242.7273721234326
 20
454.0555691122513
 30
0.0
  0
LINE
  5
3BD
330
6F
100
AcDbEntity
  8
LOUVER
  6
Continuous
100
AcDbLine
 10
262.7273721226052
 20
460.7555691123015
 30
0.0
 11
262.7273721219843
 21
421.7555691123014
 31
0.0
  0
ARC
  5
3BE
330
6F
100
AcDbEntity
  8
LOUVER
  6
Continuous
100
AcDbCircle
 10
224.7273721233675
 20
430.2555691122853
 30
0.0
 40
0.3
100
AcDbArc
 50
351.8204397231631
 51
90.0
  0
LINE
  5
3BF
330
6F
100
AcDbEntity
  8
LOUVER
  6
Continuous
100
AcDbLine
 10
260.7273721236805
 20
430.5555691122981
 30
0.0
 11
261.5273721227891
 21
430.5555691122989
 31
0.0
  0
ARC
  5
3C0
330
6F
100
AcDbEntity
  8
LOUVER
  6
Continuous
100
AcDbCircle
 10
260.7273721236807
 20
430.2555691122981
 30
0.0
 40
0.3
100
AcDbArc
 50
90.00000000005709
 51
188.1795602755809
  0
LINE
  5
3C1
330
6F
100
AcDbEntity
  8
LOUVER
  6
Continuous
100
AcDbLine
 10
223.9273721234315
 20
451.9555691123015
 30
0.0
 11
223.9273721234315
 21
459.5555691123013
 31
0.0
  0
POINT
  5
3C2
330
6F
100
AcDbEntity
  8
LOUVER
  6
Continuous
100
AcDbPoint
 10
242.7273721234326
 20
454.0555691122513
 30
0.0
  0
POINT
  5
3C3
330
6F
100
AcDbEntity
  8
LOUVER
  6
Continuous
100
AcDbPoint
 10
242.7273721234326
 20
454.0555691122513
 30
0.0
  0
LINE
  5
3C4
330
6F
100
AcDbEntity
  8
LOUVER
  6
Continuous
100
AcDbLine
 10
224.9273721243568
 20
450.7555691122523
 30
0.0
 11
245.9522752227509
 21
450.7555691122523
 31
0.0
  0
LINE
  5
3C5
330
6F
100
AcDbEntity
  8
LOUVER
  6
Continuous
100
AcDbLine
 10
245.9522752227509
 20
450.7555691122523
 30
0.0
 11
260.527372122605
 21
450.7555691122523
 31
0.0
  0
POINT
  5
3C6
330
6F
100
AcDbEntity
  8
LOUVER
  6
Continuous
100
AcDbPoint
 10
242.7273721234326
 20
454.0555691122513
 30
0.0
  0
ARC
  5
3C7
330
6F
100
AcDbEntity
  8
LOUVER
  6
Continuous
100
AcDbCircle
 10
242.7273721234326
 20
454.0555691122513
 30
0.0
 40
2.1
100
AcDbArc
 50
351.042328421765
 51
8.95767158078419
  0
ARC
  5
3C8
330
6F
100
AcDbEntity
  8
LOUVER
  6
Continuous
100
AcDbCircle
 10
242.7273721234326
 20
454.0555691122513
 30
0.0
 40
1.8
100
AcDbArc
 50
20.3599951900864
 51
42.71864450826946
  0
ARC
  5
3C9
330
6F
100
AcDbEntity
  8
LOUVER
  6
Continuous
100
AcDbCircle
 10
244.604199039789
 20
454.3514081327344
 30
0.0
 40
0.2
100
AcDbArc
 50
8.957671580785904
 51
89.99999999982035
  0
ARC
  5
3CA
330
6F
100
AcDbEntity
  8
LOUVER
  6
Continuous
100
AcDbCircle
 10
244.6041990398022
 20
453.7597300918513
 30
0.0
 40
0.2
100
AcDbArc
 50
269.9999999998206
 51
351.0423284217637
  0
ARC
  5
3CB
330
6F
100
AcDbEntity
  8
LOUVER
  6
Continuous
100
AcDbCircle
 10
244.602422402395
 20
453.3597340374215
 30
0.0
 40
0.2
100
AcDbArc
 50
89.99999999982035
 51
159.6400048124608
  0
ARC
  5
3CC
330
6F
100
AcDbEntity
  8
LOUVER
  6
Continuous
100
AcDbCircle
 10
244.6024224023641
 20
454.7514041871641
 30
0.0
 40
0.2
100
AcDbArc
 50
200.3599951900913
 51
269.9999999998203
  0
ARC
  5
3CD
330
6F
100
AcDbEntity
  8
LOUVER
  6
Continuous
100
AcDbCircle
 10
244.52737212361
 20
455.7176461259186
 30
0.0
 40
0.6500000000000014
100
AcDbArc
 50
42.71864450827047
 51
222.7186445082705
  0
ARC
  5
3CE
330
6F
100
AcDbEntity
  8
LOUVER
  6
Continuous
100
AcDbCircle
 10
242.7273721234326
 20
454.0555691122513
 30
0.0
 40
1.8
100
AcDbArc
 50
290.3599951900866
 51
339.6400048124626
  0
ARC
  5
3CF
330
6F
100
AcDbEntity
  8
LOUVER
  6
Continuous
100
AcDbCircle
 10
242.7273721234326
 20
454.0555691122513
 30
0.0
 40
1.8
100
AcDbArc
 50
137.281355473095
 51
159.6400048124627
  0
ARC
  5
3D0
330
6F
100
AcDbEntity
  8
LOUVER
  6
Continuous
100
AcDbCircle
 10
242.7273721234326
 20
454.0555691122513
 30
0.0
 40
1.8
100
AcDbArc
 50
200.3599951900864
 51
249.6400048124626
  0
ARC
  5
3D1
330
6F
100
AcDbEntity
  8
LOUVER
  6
Continuous
100
AcDbCircle
 10
240.927372123796
 20
455.7176461265042
 30
0.0
 40
0.6500000000000048
100
AcDbArc
 50
317.2813554730932
 51
137.2813554730932
  0
ARC
  5
3D2
330
6F
100
AcDbEntity
  8
LOUVER
  6
Continuous
100
AcDbCircle
 10
242.7273721234326
 20
454.0555691122513
 30
0.0
 40
3.1
100
AcDbArc
 50
137.2813554730942
 51
206.3877999612404
  0
ARC
  5
3D3
330
6F
100
AcDbEntity
  8
LOUVER
  6
Continuous
100
AcDbCircle
 10
242.7273721234326
 20
454.0555691122513
 30
0.0
 40
3.1
100
AcDbArc
 50
333.6122000387596
 51
42.71864450826988
  0
LINE
  5
3D4
330
6F
100
AcDbEntity
  8
LOUVER
  6
Continuous
100
AcDbLine
 10
244.6024224023633
 20
454.5514041871641
 30
0.0
 11
244.6041990397897
 21
454.5514081327342
 31
0.0
  0
LINE
  5
3D5
330
6F
100
AcDbEntity
  8
LOUVER
  6
Continuous
100
AcDbLine
 10
244.6024224023958
 20
453.559734037422
 30
0.0
 11
244.6041990398016
 21
453.559730091852
 31
0.0
  0
ARC
  5
3D6
330
6F
100
AcDbEntity
  8
LOUVER
  6
Continuous
100
AcDbCircle
 10
243.0232111439157
 20
452.1787421958946
 30
0.0
 40
0.2
100
AcDbArc
 50
278.9576715807859
 51
359.9999999998204
  0
ARC
  5
3D7
330
6F
100
AcDbEntity
  8
LOUVER
  6
Continuous
100
AcDbCircle
 10
242.431533103033
 20
452.1787421958816
 30
0.0
 40
0.2
100
AcDbArc
 50
179.9999999998204
 51
261.0423284217637
  0
ARC
  5
3D8
330
6F
100
AcDbEntity
  8
LOUVER
  6
Continuous
100
AcDbCircle
 10
242.0315370486031
 20
452.1805188332886
 30
0.0
 40
0.2
100
AcDbArc
 50
359.9999999998204
 51
69.64000481246078
  0
ARC
  5
3D9
330
6F
100
AcDbEntity
  8
LOUVER
  6
Continuous
100
AcDbCircle
 10
243.4232071983457
 20
452.1805188333196
 30
0.0
 40
0.2
100
AcDbArc
 50
110.3599951900914
 51
179.9999999998204
  0
LINE
  5
3DA
330
6F
100
AcDbEntity
  8
LOUVER
  6
Continuous
100
AcDbLine
 10
243.2232071983453
 20
452.1805188333206
 30
0.0
 11
243.2232111439154
 21
452.1787421958944
 31
0.0
  0
LINE
  5
3DB
330
6F
100
AcDbEntity
  8
LOUVER
  6
Continuous
100
AcDbLine
 10
242.2315370486028
 20
452.1805188332883
 30
0.0
 11
242.2315331030327
 21
452.1787421958824
 31
0.0
  0
ARC
  5
3DC
330
6F
100
AcDbEntity
  8
LOUVER
  6
Continuous
100
AcDbCircle
 10
242.7273721234326
 20
454.0555691122513
 30
0.0
 40
2.1
100
AcDbArc
 50
171.042328421765
 51
188.9576715807843
  0
ARC
  5
3DD
330
6F
100
AcDbEntity
  8
LOUVER
  6
Continuous
100
AcDbCircle
 10
240.8505452070763
 20
453.759730091768
 30
0.0
 40
0.2
100
AcDbArc
 50
188.9576715807859
 51
269.9999999998203
  0
ARC
  5
3DE
330
6F
100
AcDbEntity
  8
LOUVER
  6
Continuous
100
AcDbCircle
 10
240.8505452070631
 20
454.3514081326509
 30
0.0
 40
0.2
100
AcDbArc
 50
89.99999999982035
 51
171.0423284217637
  0
ARC
  5
3DF
330
6F
100
AcDbEntity
  8
LOUVER
  6
Continuous
100
AcDbCircle
 10
240.8523218444703
 20
454.7514041870808
 30
0.0
 40
0.2
100
AcDbArc
 50
269.9999999998206
 51
339.6400048124608
  0
ARC
  5
3E0
330
6F
100
AcDbEntity
  8
LOUVER
  6
Continuous
100
AcDbCircle
 10
240.8523218445012
 20
453.3597340373383
 30
0.0
 40
0.2
100
AcDbArc
 50
20.35999519009128
 51
89.99999999982035
  0
LINE
  5
3E1
330
6F
100
AcDbEntity
  8
LOUVER
  6
Continuous
100
AcDbLine
 10
240.8523218445021
 20
453.5597340373383
 30
0.0
 11
240.850545207076
 21
453.5597300917681
 31
0.0
  0
LINE
  5
3E2
330
6F
100
AcDbEntity
  8
LOUVER
  6
Continuous
100
AcDbLine
 10
240.8523218444697
 20
454.5514041870813
 30
0.0
 11
240.8505452070639
 21
454.5514081326513
 31
0.0
  0
ARC
  5
3E3
330
6F
100
AcDbEntity
  8
LOUVER
  6
Continuous
100
AcDbCircle
 10
242.7273721234326
 20
454.0555691122511
 30
0.0
 40
2.1
100
AcDbArc
 50
261.0423284217649
 51
278.9576715807843
  0
ARC
  5
3E4
330
6F
100
AcDbEntity
  8
LOUVER
  6
Continuous
100
AcDbCircle
 10
260.527372122605
 20
449.7555691122523
 30
0.0
 40
1.0
100
AcDbArc
 50
0.0
 51
90.0
  0
LINE
  5
3E5
330
6F
100
AcDbEntity
  8
LOUVER
  6
Continuous
100
AcDbLine
 10
223.9273721244205
 20
430.5555691122626
 30
0.0
 11
223.9273721244073
 21
435.7555691122798
 31
0.0
  0
LINE
  5
3E6
330
6F
100
AcDbEntity
  8
LOUVER
  6
Continuous
100
AcDbLine
 10
223.9273721244074
 20
435.7555691122798
 30
0.0
 11
227.5273721244075
 21
435.7555691122898
 31
0.0
  0
LINE
  5
3E7
330
6F
100
AcDbEntity
  8
LOUVER
  6
Continuous
100
AcDbLine
 10
223.9273721244049
 20
436.7555691122798
 30
0.0
 11
227.5273721244047
 21
436.7555691122898
 31
0.0
  0
LINE
  5
3E8
330
6F
100
AcDbEntity
  8
LOUVER
  6
Continuous
100
AcDbLine
 10
223.927372124405
 20
436.7555691122796
 30
0.0
 11
223.9273721243568
 21
449.7555691122299
 31
0.0
  0
ARC
  5
3E9
330
6F
100
AcDbEntity
  8
LOUVER
  6
Continuous
100
AcDbCircle
 10
224.9273721243567
 20
449.7555691122523
 30
0.0
 40
1.0
100
AcDbArc
 50
90.0
 51
180.0
  0
ARC
  5
3EA
330
6F
100
AcDbEntity
  8
LOUVER
  6
Continuous
100
AcDbCircle
 10
239.5024690241133
 20
452.4555691122515
 30
0.0
 40
0.5
100
AcDbArc
 50
270.0
 51
26.38779996124049
  0
ARC
  5
3EB
330
6F
100
AcDbEntity
  8
LOUVER
  6
Continuous
100
AcDbCircle
 10
245.9522752227522
 20
452.4555691122515
 30
0.0
 40
0.5
100
AcDbArc
 50
153.6122000387595
 51
270.0
  0
LINE
  5
3EC
330
6F
100
AcDbEntity
  8
LOUVER
  6
Continuous
100
AcDbLine
 10
261.5273721234324
 20
459.5555691123013
 30
0.0
 11
223.9273721234316
 21
459.5555691123013
 31
0.0
  0
LINE
  5
3ED
330
6F
100
AcDbEntity
  8
LOUVER
  6
Continuous
100
AcDbLine
 10
223.9273721234316
 20
451.9555691122524
 30
0.0
 11
239.5024690241133
 21
451.9555691122524
 31
0.0
  0
LINE
  5
3EE
330
6F
100
AcDbEntity
  8
LOUVER
  6
Continuous
100
AcDbLine
 10
245.9522752227523
 20
451.9555691122524
 30
0.0
 11
261.5273721226051
 21
451.9555691122524
 31
0.0
  0
LINE
  5
3EF
330
6F
100
AcDbEntity
  8
LOUVER
  6
Continuous
100
AcDbLine
 10
225.0243202381989
 20
430.2128863628648
 30
0.0
 11
224.5273721233761
 21
426.7555691124873
 31
0.0
  0
LINE
  5
3F0
330
6F
100
AcDbEntity
  8
LOUVER
  6
Continuous
100
AcDbLine
 10
260.4304240088485
 20
430.212886362884
 30
0.0
 11
260.9273721234895
 21
426.7555691132053
 31
0.0
  0
ARC
  5
3F1
330
6F
100
AcDbEntity
  8
LOUVER
  6
Continuous
100
AcDbCircle
 10
257.9273721226051
 20
436.2555691123031
 30
0.0
 40
0.5
100
AcDbArc
 50
90.0
 51
270.0
  0
ARC
  5
3F2
330
6F
100
AcDbEntity
  8
LOUVER
  6
Continuous
100
AcDbCircle
 10
227.5273721244061
 20
436.2555691122898
 30
0.0
 40
0.5
100
AcDbArc
 50
270.0
 51
90.0
  0
LINE
  5
3F3
330
6F
100
AcDbEntity
  8
LOUVER
  6
Continuous
100
AcDbLine
 10
625.9412277201946
 20
436.7555691123014
 30
0.0
 11
625.9412277202002
 21
441.7555691132053
 31
0.0
  0
LINE
  5
3F4
330
6F
100
AcDbEntity
  8
LOUVER
  6
Continuous
100
AcDbLine
 10
625.9412277201947
 20
436.7555691123014
 30
0.0
 11
627.7412277186952
 21
436.7555691123014
 31
0.0
  0
LINE
  5
3F5
330
6F
100
AcDbEntity
  8
LOUVER
  6
Continuous
100
AcDbLine
 10
626.5412277193157
 20
450.7555691123023
 30
0.0
 11
622.9412277193157
 21
450.7555691123033
 31
0.0
  0
LINE
  5
3F6
330
6F
100
AcDbEntity
  8
LOUVER
  6
Continuous
100
AcDbLine
 10
626.541227719316
 20
451.7555691123023
 30
0.0
 11
622.9412277193159
 21
451.7555691123034
 31
0.0
  0
LINE
  5
3F7
330
6F
100
AcDbEntity
  8
LOUVER
  6
Continuous
100
AcDbLine
 10
626.5412277201432
 20
466.9555691123014
 30
0.0
 11
626.5412277201432
 21
474.5555691123015
 31
0.0
  0
LINE
  5
3F8
330
6F
100
AcDbEntity
  8
LOUVER
  6
Continuous
100
AcDbLine
 10
626.5412277193157
 20
445.5555691122851
 30
0.0
 11
626.5412277193157
 21
450.7555691123023
 31
0.0
  0
LINE
  5
3F9
330
6F
100
AcDbEntity
  8
LOUVER
  6
Continuous
100
AcDbLine
 10
626.5412277193157
 20
451.755569112302
 30
0.0
 11
626.5412277193157
 21
464.7555691122524
 31
0.0
  0
LINE
  5
3FA
330
6F
100
AcDbEntity
  8
LOUVER
  6
Continuous
100
AcDbLine
 10
587.7412277201422
 20
436.7555691123013
 30
0.0
 11
587.7412277201422
 21
475.7555691123014
 31
0.0
  0
LINE
  5
3FB
330
6F
100
AcDbEntity
  8
LOUVER
  6
Continuous
100
AcDbLine
 10
589.7412277200783
 20
445.5555691122851
 30
0.0
 11
588.9412277211313
 21
445.5555691122851
 31
0.0
  0
LINE
  5
3FC
330
6F
100
AcDbEntity
  8
LOUVER
  6
Continuous
100
AcDbLine
 10
589.5412277200876
 20
436.7555691123015
 30
0.0
 11
589.5412277200867
 21
441.7555691124872
 31
0.0
  0
LINE
  5
3FD
330
6F
100
AcDbEntity
  8
LOUVER
  6
Continuous
100
AcDbLine
 10
589.541227720091
 20
436.7555691123014
 30
0.0
 11
587.7412277201422
 21
436.7555691123014
 31
0.0
  0
LINE
  5
3FE
330
6F
100
AcDbEntity
  8
LOUVER
  6
Continuous
100
AcDbLine
 10
587.7412277201422
 20
475.7555691123014
 30
0.0
 11
627.7412277193157
 21
475.7555691123014
 31
0.0
  0
POINT
  5
3FF
330
6F
100
AcDbEntity
  8
LOUVER
  6
Continuous
100
AcDbPoint
 10
607.7412277201433
 20
469.0555691122511
 30
0.0
  0
LINE
  5
400
330
6F
100
AcDbEntity
  8
LOUVER
  6
Continuous
100
AcDbLine
 10
627.741227719316
 20
475.7555691123014
 30
0.0
 11
627.7412277186952
 21
436.7555691123014
 31
0.0
  0
ARC
  5
401
330
6F
100
AcDbEntity
  8
LOUVER
  6
Continuous
100
AcDbCircle
 10
589.7412277200783
 20
445.2555691122851
 30
0.0
 40
0.3
100
AcDbArc
 50
351.8204397231631
 51
90.0
  0
LINE
  5
402
330
6F
100
AcDbEntity
  8
LOUVER
  6
Continuous
100
AcDbLine
 10
625.7412277203911
 20
445.5555691122981
 30
0.0
 11
626.5412277194999
 21
445.5555691122988
 31
0.0
  0
ARC
  5
403
330
6F
100
AcDbEntity
  8
LOUVER
  6
Continuous
100
AcDbCircle
 10
625.7412277203914
 20
445.2555691122981
 30
0.0
 40
0.3
100
AcDbArc
 50
90.00000000005709
 51
188.1795602755809
  0
LINE
  5
404
330
6F
100
AcDbEntity
  8
LOUVER
  6
Continuous
100
AcDbLine
 10
588.9412277201422
 20
466.9555691123012
 30
0.0
 11
588.9412277201422
 21
474.5555691123013
 31
0.0
  0
POINT
  5
405
330
6F
100
AcDbEntity
  8
LOUVER
  6
Continuous
100
AcDbPoint
 10
607.7412277201433
 20
469.0555691122511
 30
0.0
  0
POINT
  5
406
330
6F
100
AcDbEntity
  8
LOUVER
  6
Continuous
100
AcDbPoint
 10
607.7412277201433
 20
469.0555691122511
 30
0.0
  0
LINE
  5
407
330
6F
100
AcDbEntity
  8
LOUVER
  6
Continuous
100
AcDbLine
 10
589.9412277210678
 20
465.7555691122523
 30
0.0
 11
610.9661308194618
 21
465.7555691122523
 31
0.0
  0
LINE
  5
408
330
6F
100
AcDbEntity
  8
LOUVER
  6
Continuous
100
AcDbLine
 10
610.9661308194618
 20
465.7555691122523
 30
0.0
 11
625.5412277193157
 21
465.7555691122523
 31
0.0
  0
POINT
  5
409
330
6F
100
AcDbEntity
  8
LOUVER
  6
Continuous
100
AcDbPoint
 10
607.7412277201433
 20
469.0555691122511
 30
0.0
  0
ARC
  5
40A
330
6F
100
AcDbEntity
  8
LOUVER
  6
Continuous
100
AcDbCircle
 10
607.7412277201433
 20
469.0555691122511
 30
0.0
 40
2.1
100
AcDbArc
 50
351.042328421765
 51
8.95767158078419
  0
ARC
  5
40B
330
6F
100
AcDbEntity
  8
LOUVER
  6
Continuous
100
AcDbCircle
 10
607.7412277201433
 20
469.0555691122511
 30
0.0
 40
1.8
100
AcDbArc
 50
20.3599951900864
 51
42.71864450826946
  0
ARC
  5
40C
330
6F
100
AcDbEntity
  8
LOUVER
  6
Continuous
100
AcDbCircle
 10
609.6180546364998
 20
469.3514081327343
 30
0.0
 40
0.2
100
AcDbArc
 50
8.957671580785904
 51
89.99999999982035
  0
ARC
  5
40D
330
6F
100
AcDbEntity
  8
LOUVER
  6
Continuous
100
AcDbCircle
 10
609.6180546365129
 20
468.7597300918515
 30
0.0
 40
0.2
100
AcDbArc
 50
269.9999999998206
 51
351.0423284217637
  0
ARC
  5
40E
330
6F
100
AcDbEntity
  8
LOUVER
  6
Continuous
100
AcDbCircle
 10
609.6162779991057
 20
468.3597340374213
 30
0.0
 40
0.2
100
AcDbArc
 50
89.99999999982035
 51
159.6400048124608
  0
ARC
  5
40F
330
6F
100
AcDbEntity
  8
LOUVER
  6
Continuous
100
AcDbCircle
 10
609.6162779990748
 20
469.7514041871641
 30
0.0
 40
0.2
100
AcDbArc
 50
200.3599951900913
 51
269.9999999998203
  0
ARC
  5
410
330
6F
100
AcDbEntity
  8
LOUVER
  6
Continuous
100
AcDbCircle
 10
609.5412277203207
 20
470.7176461259186
 30
0.0
 40
0.6500000000000014
100
AcDbArc
 50
42.71864450827047
 51
222.7186445082705
  0
ARC
  5
411
330
6F
100
AcDbEntity
  8
LOUVER
  6
Continuous
100
AcDbCircle
 10
607.7412277201433
 20
469.0555691122511
 30
0.0
 40
1.8
100
AcDbArc
 50
290.3599951900866
 51
339.6400048124626
  0
ARC
  5
412
330
6F
100
AcDbEntity
  8
LOUVER
  6
Continuous
100
AcDbCircle
 10
607.7412277201433
 20
469.0555691122511
 30
0.0
 40
1.8
100
AcDbArc
 50
137.281355473095
 51
159.6400048124627
  0
ARC
  5
413
330
6F
100
AcDbEntity
  8
LOUVER
  6
Continuous
100
AcDbCircle
 10
607.7412277201433
 20
469.0555691122511
 30
0.0
 40
1.8
100
AcDbArc
 50
200.3599951900864
 51
249.6400048124626
  0
ARC
  5
414
330
6F
100
AcDbEntity
  8
LOUVER
  6
Continuous
100
AcDbCircle
 10
605.9412277205067
 20
470.7176461265042
 30
0.0
 40
0.6500000000000048
100
AcDbArc
 50
317.2813554730932
 51
137.2813554730932
  0
ARC
  5
415
330
6F
100
AcDbEntity
  8
LOUVER
  6
Continuous
100
AcDbCircle
 10
607.7412277201433
 20
469.0555691122511
 30
0.0
 40
3.1
100
AcDbArc
 50
137.2813554730942
 51
206.3877999612404
  0
ARC
  5
416
330
6F
100
AcDbEntity
  8
LOUVER
  6
Continuous
100
AcDbCircle
 10
607.7412277201433
 20
469.0555691122511
 30
0.0
 40
3.1
100
AcDbArc
 50
333.6122000387596
 51
42.71864450826988
  0
LINE
  5
417
330
6F
100
AcDbEntity
  8
LOUVER
  6
Continuous
100
AcDbLine
 10
609.616277999074
 20
469.5514041871641
 30
0.0
 11
609.6180546365002
 21
469.5514081327343
 31
0.0
  0
LINE
  5
418
330
6F
100
AcDbEntity
  8
LOUVER
  6
Continuous
100
AcDbLine
 10
609.6162779991065
 20
468.5597340374221
 30
0.0
 11
609.6180546365124
 21
468.559730091852
 31
0.0
  0
ARC
  5
419
330
6F
100
AcDbEntity
  8
LOUVER
  6
Continuous
100
AcDbCircle
 10
608.0370667406265
 20
467.1787421958947
 30
0.0
 40
0.2
100
AcDbArc
 50
278.9576715807859
 51
359.9999999998204
  0
ARC
  5
41A
330
6F
100
AcDbEntity
  8
LOUVER
  6
Continuous
100
AcDbCircle
 10
607.4453886997437
 20
467.1787421958816
 30
0.0
 40
0.2
100
AcDbArc
 50
179.9999999998204
 51
261.0423284217637
  0
ARC
  5
41B
330
6F
100
AcDbEntity
  8
LOUVER
  6
Continuous
100
AcDbCircle
 10
607.0453926453137
 20
467.1805188332887
 30
0.0
 40
0.2
100
AcDbArc
 50
359.9999999998204
 51
69.64000481246078
  0
ARC
  5
41C
330
6F
100
AcDbEntity
  8
LOUVER
  6
Continuous
100
AcDbCircle
 10
608.4370627950566
 20
467.1805188333196
 30
0.0
 40
0.2
100
AcDbArc
 50
110.3599951900914
 51
179.9999999998204
  0
LINE
  5
41D
330
6F
100
AcDbEntity
  8
LOUVER
  6
Continuous
100
AcDbLine
 10
608.2370627950561
 20
467.1805188333204
 30
0.0
 11
608.2370667406262
 21
467.1787421958943
 31
0.0
  0
LINE
  5
41E
330
6F
100
AcDbEntity
  8
LOUVER
  6
Continuous
100
AcDbLine
 10
607.2453926453136
 20
467.1805188332885
 30
0.0
 11
607.2453886997436
 21
467.1787421958823
 31
0.0
  0
ARC
  5
41F
330
6F
100
AcDbEntity
  8
LOUVER
  6
Continuous
100
AcDbCircle
 10
607.7412277201433
 20
469.0555691122511
 30
0.0
 40
2.1
100
AcDbArc
 50
171.042328421765
 51
188.9576715807843
  0
ARC
  5
420
330
6F
100
AcDbEntity
  8
LOUVER
  6
Continuous
100
AcDbCircle
 10
605.8644008037871
 20
468.759730091768
 30
0.0
 40
0.2
100
AcDbArc
 50
188.9576715807859
 51
269.9999999998203
  0
ARC
  5
421
330
6F
100
AcDbEntity
  8
LOUVER
  6
Continuous
100
AcDbCircle
 10
605.864400803774
 20
469.3514081326509
 30
0.0
 40
0.2
100
AcDbArc
 50
89.99999999982035
 51
171.0423284217637
  0
ARC
  5
422
330
6F
100
AcDbEntity
  8
LOUVER
  6
Continuous
100
AcDbCircle
 10
605.866177441181
 20
469.7514041870808
 30
0.0
 40
0.2
100
AcDbArc
 50
269.9999999998206
 51
339.6400048124608
  0
ARC
  5
423
330
6F
100
AcDbEntity
  8
LOUVER
  6
Continuous
100
AcDbCircle
 10
605.866177441212
 20
468.3597340373383
 30
0.0
 40
0.2
100
AcDbArc
 50
20.35999519009128
 51
89.99999999982035
  0
LINE
  5
424
330
6F
100
AcDbEntity
  8
LOUVER
  6
Continuous
100
AcDbLine
 10
605.8661774412128
 20
468.5597340373383
 30
0.0
 11
605.8644008037868
 21
468.5597300917682
 31
0.0
  0
LINE
  5
425
330
6F
100
AcDbEntity
  8
LOUVER
  6
Continuous
100
AcDbLine
 10
605.8661774411805
 20
469.5514041870812
 30
0.0
 11
605.8644008037746
 21
469.5514081326511
 31
0.0
  0
ARC
  5
426
330
6F
100
AcDbEntity
  8
LOUVER
  6
Continuous
100
AcDbCircle
 10
607.7412277201433
 20
469.0555691122511
 30
0.0
 40
2.1
100
AcDbArc
 50
261.0423284217649
 51
278.9576715807843
  0
ARC
  5
427
330
6F
100
AcDbEntity
  8
LOUVER
  6
Continuous
100
AcDbCircle
 10
625.5412277193157
 20
464.7555691122524
 30
0.0
 40
1.0
100
AcDbArc
 50
0.0
 51
90.0
  0
LINE
  5
428
330
6F
100
AcDbEntity
  8
LOUVER
  6
Continuous
100
AcDbLine
 10
588.9412277211313
 20
445.5555691122627
 30
0.0
 11
588.9412277211181
 21
450.7555691122798
 31
0.0
  0
LINE
  5
429
330
6F
100
AcDbEntity
  8
LOUVER
  6
Continuous
100
AcDbLine
 10
588.9412277211182
 20
450.7555691122798
 30
0.0
 11
592.5412277211184
 21
450.7555691122898
 31
0.0
  0
LINE
  5
42A
330
6F
100
AcDbEntity
  8
LOUVER
  6
Continuous
100
AcDbLine
 10
588.9412277211157
 20
451.7555691122798
 30
0.0
 11
592.5412277211156
 21
451.7555691122898
 31
0.0
  0
LINE
  5
42B
330
6F
100
AcDbEntity
  8
LOUVER
  6
Continuous
100
AcDbLine
 10
588.9412277211157
 20
451.7555691122798
 30
0.0
 11
588.9412277210676
 21
464.7555691122298
 31
0.0
  0
ARC
  5
42C
330
6F
100
AcDbEntity
  8
LOUVER
  6
Continuous
100
AcDbCircle
 10
589.9412277210676
 20
464.7555691122524
 30
0.0
 40
1.0
100
AcDbArc
 50
90.0
 51
180.0
  0
ARC
  5
42D
330
6F
100
AcDbEntity
  8
LOUVER
  6
Continuous
100
AcDbCircle
 10
604.516324620824
 20
467.4555691122515
 30
0.0
 40
0.5
100
AcDbArc
 50
270.0
 51
26.38779996124049
  0
ARC
  5
42E
330
6F
100
AcDbEntity
  8
LOUVER
  6
Continuous
100
AcDbCircle
 10
610.9661308194631
 20
467.4555691122515
 30
0.0
 40
0.5
100
AcDbArc
 50
153.6122000387595
 51
270.0
  0
LINE
  5
42F
330
6F
100
AcDbEntity
  8
LOUVER
  6
Continuous
100
AcDbLine
 10
626.5412277201432
 20
474.5555691123015
 30
0.0
 11
588.9412277201423
 21
474.5555691123015
 31
0.0
  0
LINE
  5
430
330
6F
100
AcDbEntity
  8
LOUVER
  6
Continuous
100
AcDbLine
 10
588.9412277201423
 20
466.9555691122523
 30
0.0
 11
604.5163246208243
 21
466.9555691122523
 31
0.0
  0
LINE
  5
431
330
6F
100
AcDbEntity
  8
LOUVER
  6
Continuous
100
AcDbLine
 10
610.9661308194632
 20
466.9555691122523
 30
0.0
 11
626.541227719316
 21
466.9555691122523
 31
0.0
  0
LINE
  5
432
330
6F
100
AcDbEntity
  8
LOUVER
  6
Continuous
100
AcDbLine
 10
590.0381758349095
 20
445.2128863628646
 30
0.0
 11
589.5412277200867
 21
441.7555691124872
 31
0.0
  0
LINE
  5
433
330
6F
100
AcDbEntity
  8
LOUVER
  6
Continuous
100
AcDbLine
 10
625.4442796055592
 20
445.2128863628839
 30
0.0
 11
625.9412277202003
 21
441.7555691132053
 31
0.0
  0
ARC
  5
434
330
6F
100
AcDbEntity
  8
LOUVER
  6
Continuous
100
AcDbCircle
 10
622.9412277193159
 20
451.2555691123033
 30
0.0
 40
0.5
100
AcDbArc
 50
90.0
 51
270.0
  0
ARC
  5
435
330
6F
100
AcDbEntity
  8
LOUVER
  6
Continuous
100
AcDbCircle
 10
592.5412277211169
 20
451.2555691122898
 30
0.0
 40
0.5
100
AcDbArc
 50
270.0
 51
90.0
  0
LINE
  5
436
330
6F
100
AcDbEntity
  8
LOUVER
  6
Continuous
100
AcDbLine
 10
260.9273721246162
 20
159.3364496096258
 30
0.0
 11
260.9273721246219
 21
164.3364496105299
 31
0.0
  0
LINE
  5
437
330
6F
100
AcDbEntity
  8
LOUVER
  6
Continuous
100
AcDbLine
 10
260.9273721246164
 20
159.3364496096258
 30
0.0
 11
262.7273721231167
 21
159.3364496096258
 31
0.0
  0
LINE
  5
438
330
6F
100
AcDbEntity
  8
LOUVER
  6
Continuous
100
AcDbLine
 10
261.5273721237374
 20
173.3364496096268
 30
0.0
 11
257.9273721237374
 21
173.3364496096279
 31
0.0
  0
LINE
  5
439
330
6F
100
AcDbEntity
  8
LOUVER
  6
Continuous
100
AcDbLine
 10
261.5273721237376
 20
174.3364496096268
 30
0.0
 11
257.9273721237377
 21
174.3364496096279
 31
0.0
  0
LINE
  5
43A
330
6F
100
AcDbEntity
  8
LOUVER
  6
Continuous
100
AcDbLine
 10
261.5273721245649
 20
189.5364496096259
 30
0.0
 11
261.5273721245649
 21
197.1364496096258
 31
0.0
  0
LINE
  5
43B
330
6F
100
AcDbEntity
  8
LOUVER
  6
Continuous
100
AcDbLine
 10
261.5273721237375
 20
168.1364496096097
 30
0.0
 11
261.5273721237375
 21
173.3364496096268
 31
0.0
  0
LINE
  5
43C
330
6F
100
AcDbEntity
  8
LOUVER
  6
Continuous
100
AcDbLine
 10
261.5273721237375
 20
174.3364496096266
 30
0.0
 11
261.5273721237375
 21
187.3364496095769
 31
0.0
  0
LINE
  5
43D
330
6F
100
AcDbEntity
  8
LOUVER
  6
Continuous
100
AcDbLine
 10
222.727372124564
 20
159.3364496096258
 30
0.0
 11
222.727372124564
 21
198.3364496096259
 31
0.0
  0
LINE
  5
43E
330
6F
100
AcDbEntity
  8
LOUVER
  6
Continuous
100
AcDbLine
 10
224.7273721245
 20
168.1364496096096
 30
0.0
 11
223.927372125553
 21
168.1364496096096
 31
0.0
  0
LINE
  5
43F
330
6F
100
AcDbEntity
  8
LOUVER
  6
Continuous
100
AcDbLine
 10
224.5273721245095
 20
159.336449609626
 30
0.0
 11
224.5273721245084
 21
164.3364496098117
 31
0.0
  0
LINE
  5
440
330
6F
100
AcDbEntity
  8
LOUVER
  6
Continuous
100
AcDbLine
 10
224.5273721245126
 20
159.3364496096258
 30
0.0
 11
222.727372124564
 21
159.3364496096258
 31
0.0
  0
LINE
  5
441
330
6F
100
AcDbEntity
  8
LOUVER
  6
Continuous
100
AcDbLine
 10
222.727372124564
 20
198.3364496096258
 30
0.0
 11
262.7273721237375
 21
198.3364496096258
 31
0.0
  0
POINT
  5
442
330
6F
100
AcDbEntity
  8
LOUVER
  6
Continuous
100
AcDbPoint
 10
242.7273721245651
 20
191.6364496095758
 30
0.0
  0
LINE
  5
443
330
6F
100
AcDbEntity
  8
LOUVER
  6
Continuous
100
AcDbLine
 10
262.7273721237376
 20
198.336449609626
 30
0.0
 11
262.7273721231167
 21
159.3364496096259
 31
0.0
  0
ARC
  5
444
330
6F
100
AcDbEntity
  8
LOUVER
  6
Continuous
100
AcDbCircle
 10
224.7273721244999
 20
167.8364496096098
 30
0.0
 40
0.3
100
AcDbArc
 50
351.8204397231631
 51
90.0
  0
LINE
  5
445
330
6F
100
AcDbEntity
  8
LOUVER
  6
Continuous
100
AcDbLine
 10
260.727372124813
 20
168.1364496096225
 30
0.0
 11
261.5273721239216
 21
168.1364496096233
 31
0.0
  0
ARC
  5
446
330
6F
100
AcDbEntity
  8
LOUVER
  6
Continuous
100
AcDbCircle
 10
260.727372124813
 20
167.8364496096225
 30
0.0
 40
0.3
100
AcDbArc
 50
90.00000000005709
 51
188.1795602755809
  0
LINE
  5
447
330
6F
100
AcDbEntity
  8
LOUVER
  6
Continuous
100
AcDbLine
 10
223.927372124564
 20
189.5364496096257
 30
0.0
 11
223.927372124564
 21
197.1364496096257
 31
0.0
  0
POINT
  5
448
330
6F
100
AcDbEntity
  8
LOUVER
  6
Continuous
100
AcDbPoint
 10
242.7273721245651
 20
191.6364496095758
 30
0.0
  0
POINT
  5
449
330
6F
100
AcDbEntity
  8
LOUVER
  6
Continuous
100
AcDbPoint
 10
242.7273721245651
 20
191.6364496095758
 30
0.0
  0
LINE
  5
44A
330
6F
100
AcDbEntity
  8
LOUVER
  6
Continuous
100
AcDbLine
 10
224.9273721254892
 20
188.3364496095768
 30
0.0
 11
245.9522752238834
 21
188.3364496095769
 31
0.0
  0
LINE
  5
44B
330
6F
100
AcDbEntity
  8
LOUVER
  6
Continuous
100
AcDbLine
 10
245.9522752238834
 20
188.3364496095769
 30
0.0
 11
260.5273721237375
 21
188.3364496095769
 31
0.0
  0
POINT
  5
44C
330
6F
100
AcDbEntity
  8
LOUVER
  6
Continuous
100
AcDbPoint
 10
242.7273721245651
 20
191.6364496095758
 30
0.0
  0
ARC
  5
44D
330
6F
100
AcDbEntity
  8
LOUVER
  6
Continuous
100
AcDbCircle
 10
242.7273721245651
 20
191.6364496095758
 30
0.0
 40
2.1
100
AcDbArc
 50
351.042328421765
 51
8.95767158078419
  0
ARC
  5
44E
330
6F
100
AcDbEntity
  8
LOUVER
  6
Continuous
100
AcDbCircle
 10
242.7273721245651
 20
191.6364496095758
 30
0.0
 40
1.8
100
AcDbArc
 50
20.3599951900864
 51
42.71864450826946
  0
ARC
  5
44F
330
6F
100
AcDbEntity
  8
LOUVER
  6
Continuous
100
AcDbCircle
 10
244.6041990409214
 20
191.9322886300588
 30
0.0
 40
0.2
100
AcDbArc
 50
8.957671580785904
 51
89.99999999982035
  0
ARC
  5
450
330
6F
100
AcDbEntity
  8
LOUVER
  6
Continuous
100
AcDbCircle
 10
244.6041990409346
 20
191.3406105891759
 30
0.0
 40
0.2
100
AcDbArc
 50
269.9999999998206
 51
351.0423284217637
  0
ARC
  5
451
330
6F
100
AcDbEntity
  8
LOUVER
  6
Continuous
100
AcDbCircle
 10
244.6024224035274
 20
190.940614534746
 30
0.0
 40
0.2
100
AcDbArc
 50
89.99999999982035
 51
159.6400048124608
  0
ARC
  5
452
330
6F
100
AcDbEntity
  8
LOUVER
  6
Continuous
100
AcDbCircle
 10
244.6024224034965
 20
192.3322846844884
 30
0.0
 40
0.2
100
AcDbArc
 50
200.3599951900913
 51
269.9999999998203
  0
ARC
  5
453
330
6F
100
AcDbEntity
  8
LOUVER
  6
Continuous
100
AcDbCircle
 10
244.5273721247424
 20
193.2985266232431
 30
0.0
 40
0.6500000000000014
100
AcDbArc
 50
42.71864450827047
 51
222.7186445082705
  0
ARC
  5
454
330
6F
100
AcDbEntity
  8
LOUVER
  6
Continuous
100
AcDbCircle
 10
242.7273721245651
 20
191.6364496095758
 30
0.0
 40
1.8
100
AcDbArc
 50
290.3599951900866
 51
339.6400048124626
  0
ARC
  5
455
330
6F
100
AcDbEntity
  8
LOUVER
  6
Continuous
100
AcDbCircle
 10
242.7273721245651
 20
191.6364496095758
 30
0.0
 40
1.8
100
AcDbArc
 50
137.281355473095
 51
159.6400048124627
  0
ARC
  5
456
330
6F
100
AcDbEntity
  8
LOUVER
  6
Continuous
100
AcDbCircle
 10
242.7273721245651
 20
191.6364496095758
 30
0.0
 40
1.8
100
AcDbArc
 50
200.3599951900864
 51
249.6400048124626
  0
ARC
  5
457
330
6F
100
AcDbEntity
  8
LOUVER
  6
Continuous
100
AcDbCircle
 10
240.9273721249284
 20
193.2985266238286
 30
0.0
 40
0.6500000000000048
100
AcDbArc
 50
317.2813554730932
 51
137.2813554730932
  0
ARC
  5
458
330
6F
100
AcDbEntity
  8
LOUVER
  6
Continuous
100
AcDbCircle
 10
242.7273721245651
 20
191.6364496095758
 30
0.0
 40
3.1
100
AcDbArc
 50
137.2813554730942
 51
206.3877999612404
  0
ARC
  5
459
330
6F
100
AcDbEntity
  8
LOUVER
  6
Continuous
100
AcDbCircle
 10
242.7273721245651
 20
191.6364496095758
 30
0.0
 40
3.1
100
AcDbArc
 50
333.6122000387596
 51
42.71864450826988
  0
LINE
  5
45A
330
6F
100
AcDbEntity
  8
LOUVER
  6
Continuous
100
AcDbLine
 10
244.6024224034955
 20
192.1322846844886
 30
0.0
 11
244.6041990409219
 21
192.1322886300588
 31
0.0
  0
LINE
  5
45B
330
6F
100
AcDbEntity
  8
LOUVER
  6
Continuous
100
AcDbLine
 10
244.6024224035282
 20
191.1406145347465
 30
0.0
 11
244.6041990409341
 21
191.1406105891765
 31
0.0
  0
ARC
  5
45C
330
6F
100
AcDbEntity
  8
LOUVER
  6
Continuous
100
AcDbCircle
 10
243.0232111450481
 20
189.7596226932192
 30
0.0
 40
0.2
100
AcDbArc
 50
278.9576715807859
 51
359.9999999998204
  0
ARC
  5
45D
330
6F
100
AcDbEntity
  8
LOUVER
  6
Continuous
100
AcDbCircle
 10
242.4315331041654
 20
189.759622693206
 30
0.0
 40
0.2
100
AcDbArc
 50
179.9999999998204
 51
261.0423284217637
  0
ARC
  5
45E
330
6F
100
AcDbEntity
  8
LOUVER
  6
Continuous
100
AcDbCircle
 10
242.0315370497355
 20
189.7613993306132
 30
0.0
 40
0.2
100
AcDbArc
 50
359.9999999998204
 51
69.64000481246078
  0
ARC
  5
45F
330
6F
100
AcDbEntity
  8
LOUVER
  6
Continuous
100
AcDbCircle
 10
243.4232071994781
 20
189.7613993306441
 30
0.0
 40
0.2
100
AcDbArc
 50
110.3599951900914
 51
179.9999999998204
  0
LINE
  5
460
330
6F
100
AcDbEntity
  8
LOUVER
  6
Continuous
100
AcDbLine
 10
243.2232071994778
 20
189.761399330645
 30
0.0
 11
243.2232111450479
 21
189.7596226932189
 31
0.0
  0
LINE
  5
461
330
6F
100
AcDbEntity
  8
LOUVER
  6
Continuous
100
AcDbLine
 10
242.2315370497353
 20
189.7613993306129
 30
0.0
 11
242.2315331041652
 21
189.7596226932069
 31
0.0
  0
ARC
  5
462
330
6F
100
AcDbEntity
  8
LOUVER
  6
Continuous
100
AcDbCircle
 10
242.7273721245651
 20
191.6364496095758
 30
0.0
 40
2.1
100
AcDbArc
 50
171.042328421765
 51
188.9576715807843
  0
ARC
  5
463
330
6F
100
AcDbEntity
  8
LOUVER
  6
Continuous
100
AcDbCircle
 10
240.8505452082087
 20
191.3406105890924
 30
0.0
 40
0.2
100
AcDbArc
 50
188.9576715807859
 51
269.9999999998203
  0
ARC
  5
464
330
6F
100
AcDbEntity
  8
LOUVER
  6
Continuous
100
AcDbCircle
 10
240.8505452081955
 20
191.9322886299754
 30
0.0
 40
0.2
100
AcDbArc
 50
89.99999999982035
 51
171.0423284217637
  0
ARC
  5
465
330
6F
100
AcDbEntity
  8
LOUVER
  6
Continuous
100
AcDbCircle
 10
240.8523218456027
 20
192.3322846844053
 30
0.0
 40
0.2
100
AcDbArc
 50
269.9999999998206
 51
339.6400048124608
  0
ARC
  5
466
330
6F
100
AcDbEntity
  8
LOUVER
  6
Continuous
100
AcDbCircle
 10
240.8523218456336
 20
190.9406145346627
 30
0.0
 40
0.2
100
AcDbArc
 50
20.35999519009128
 51
89.99999999982035
  0
LINE
  5
467
330
6F
100
AcDbEntity
  8
LOUVER
  6
Continuous
100
AcDbLine
 10
240.8523218456345
 20
191.1406145346628
 30
0.0
 11
240.8505452082084
 21
191.1406105890927
 31
0.0
  0
LINE
  5
468
330
6F
100
AcDbEntity
  8
LOUVER
  6
Continuous
100
AcDbLine
 10
240.852321845602
 20
192.1322846844056
 30
0.0
 11
240.8505452081961
 21
192.1322886299756
 31
0.0
  0
ARC
  5
469
330
6F
100
AcDbEntity
  8
LOUVER
  6
Continuous
100
AcDbCircle
 10
242.7273721245651
 20
191.6364496095755
 30
0.0
 40
2.1
100
AcDbArc
 50
261.0423284217649
 51
278.9576715807843
  0
ARC
  5
46A
330
6F
100
AcDbEntity
  8
LOUVER
  6
Continuous
100
AcDbCircle
 10
260.5273721237373
 20
187.3364496095766
 30
0.0
 40
1.0
100
AcDbArc
 50
0.0
 51
90.0
  0
LINE
  5
46B
330
6F
100
AcDbEntity
  8
LOUVER
  6
Continuous
100
AcDbLine
 10
223.9273721255529
 20
168.1364496095872
 30
0.0
 11
223.9273721255398
 21
173.3364496096043
 31
0.0
  0
LINE
  5
46C
330
6F
100
AcDbEntity
  8
LOUVER
  6
Continuous
100
AcDbLine
 10
223.9273721255399
 20
173.3364496096043
 30
0.0
 11
227.5273721255399
 21
173.3364496096143
 31
0.0
  0
LINE
  5
46D
330
6F
100
AcDbEntity
  8
LOUVER
  6
Continuous
100
AcDbLine
 10
223.9273721255374
 20
174.3364496096043
 30
0.0
 11
227.5273721255371
 21
174.3364496096143
 31
0.0
  0
LINE
  5
46E
330
6F
100
AcDbEntity
  8
LOUVER
  6
Continuous
100
AcDbLine
 10
223.9273721255374
 20
174.3364496096042
 30
0.0
 11
223.9273721254892
 21
187.3364496095543
 31
0.0
  0
ARC
  5
46F
330
6F
100
AcDbEntity
  8
LOUVER
  6
Continuous
100
AcDbCircle
 10
224.9273721254891
 20
187.3364496095766
 30
0.0
 40
1.0
100
AcDbArc
 50
90.0
 51
180.0
  0
ARC
  5
470
330
6F
100
AcDbEntity
  8
LOUVER
  6
Continuous
100
AcDbCircle
 10
239.5024690252457
 20
190.036449609576
 30
0.0
 40
0.5
100
AcDbArc
 50
270.0
 51
26.38779996124049
  0
ARC
  5
471
330
6F
100
AcDbEntity
  8
LOUVER
  6
Continuous
100
AcDbCircle
 10
245.9522752238846
 20
190.036449609576
 30
0.0
 40
0.5
100
AcDbArc
 50
153.6122000387595
 51
270.0
  0
LINE
  5
472
330
6F
100
AcDbEntity
  8
LOUVER
  6
Continuous
100
AcDbLine
 10
261.5273721245649
 20
197.1364496096258
 30
0.0
 11
223.927372124564
 21
197.1364496096258
 31
0.0
  0
LINE
  5
473
330
6F
100
AcDbEntity
  8
LOUVER
  6
Continuous
100
AcDbLine
 10
223.927372124564
 20
189.5364496095768
 30
0.0
 11
239.5024690252459
 21
189.5364496095768
 31
0.0
  0
LINE
  5
474
330
6F
100
AcDbEntity
  8
LOUVER
  6
Continuous
100
AcDbLine
 10
245.9522752238847
 20
189.5364496095768
 30
0.0
 11
261.5273721237376
 21
189.5364496095768
 31
0.0
  0
LINE
  5
475
330
6F
100
AcDbEntity
  8
LOUVER
  6
Continuous
100
AcDbLine
 10
225.0243202393311
 20
167.7937668601892
 30
0.0
 11
224.5273721245083
 21
164.3364496098115
 31
0.0
  0
LINE
  5
476
330
6F
100
AcDbEntity
  8
LOUVER
  6
Continuous
100
AcDbLine
 10
260.4304240099809
 20
167.7937668602083
 30
0.0
 11
260.9273721246221
 21
164.3364496105297
 31
0.0
  0
ARC
  5
477
330
6F
100
AcDbEntity
  8
LOUVER
  6
Continuous
100
AcDbCircle
 10
257.9273721237374
 20
173.8364496096278
 30
0.0
 40
0.5
100
AcDbArc
 50
90.0
 51
270.0
  0
ARC
  5
478
330
6F
100
AcDbEntity
  8
LOUVER
  6
Continuous
100
AcDbCircle
 10
227.5273721255385
 20
173.8364496096142
 30
0.0
 40
0.5
100
AcDbArc
 50
270.0
 51
90.0
  0
LINE
  5
479
330
6F
100
AcDbEntity
  8
COMMENT
  6
Continuous
100
AcDbLine
 10
242.7273721234328
 20
428.1555691123023
 30
0.0
 11
278.5878708238574
 21
454.3861132526422
 31
0.0
  0
LINE
  5
47A
330
6F
100
AcDbEntity
  8
COMMENT
  6
Continuous
100
AcDbLine
 10
243.9873942923439
 20
429.8206048964408
 30
0.0
 11
242.7273721234328
 21
428.1555691123021
 31
0.0
  0
LINE
  5
47B
330
6F
100
AcDbEntity
  8
COMMENT
  6
Continuous
100
AcDbLine
 10
242.7273721234328
 20
428.1555691123021
 30
0.0
 11
244.6958507113208
 21
428.8520546309146
 31
0.0
  0
LINE
  5
47C
330
6F
100
AcDbEntity
  8
COMMENT
  6
Continuous
100
AcDbLine
 10
278.5878708238574
 20
454.3861132526422
 30
0.0
 11
331.8778694648715
 21
454.3861132526422
 31
0.0
  0
TEXT
  5
47D
330
6F
100
AcDbEntity
  8
COMMENT
  6
Continuous
100
AcDbText
 10
281.0778708238574
 20
454.8861132526422
 30
0.0
 40
4.0
  1
アンカープラグ%%c8×40
  7
KNJYOKO
100
AcDbText
  0
TEXT
  5
47E
330
6F
100
AcDbEntity
  8
COMMENT
  6
Continuous
100
AcDbText
 10
281.0778708238574
 20
449.8861132526421
 30
0.0
 40
4.0
  1
AP-840-D30-50
100
AcDbText
  0
LINE
  5
47F
330
6F
100
AcDbEntity
  8
COMMENT
  6
Continuous
100
AcDbLine
 10
607.7412277190031
 20
443.1555691123021
 30
0.0
 11
643.5199196779464
 21
470.8238795565536
 31
0.0
  0
LINE
  5
480
330
6F
100
AcDbEntity
  8
COMMENT
  6
Continuous
100
AcDbLine
 10
608.9563012648135
 20
444.853684628656
 30
0.0
 11
607.7412277190031
 21
443.1555691123021
 31
0.0
  0
LINE
  5
481
330
6F
100
AcDbEntity
  8
COMMENT
  6
Continuous
100
AcDbLine
 10
607.7412277190031
 20
443.1555691123021
 30
0.0
 11
609.690389420245
 21
443.9044140168197
 31
0.0
  0
LINE
  5
482
330
6F
100
AcDbEntity
  8
COMMENT
  6
Continuous
100
AcDbLine
 10
643.5199196779464
 20
470.8238795565536
 30
0.0
 11
695.9099183428024
 21
470.8238795565536
 31
0.0
  0
TEXT
  5
483
330
6F
100
AcDbEntity
  8
COMMENT
  6
Continuous
100
AcDbText
 10
646.0099196779464
 20
471.3238795565536
 30
0.0
 40
4.0
  1
ALCアンカーM6めねじ
  7
KNJYOKO
100
AcDbText
  0
TEXT
  5
484
330
6F
100
AcDbEntity
  8
COMMENT
  6
Continuous
100
AcDbText
 10
646.0099196779464
 20
466.3238795565536
 30
0.0
 40
4.0
  1
AK-AL6M-D30-50
100
AcDbText
  0
LINE
  5
485
330
6F
100
AcDbEntity
  8
COMMENT
  6
Continuous
100
AcDbLine
 10
617.0612003824359
 20
439.2555691123014
 30
0.0
 11
646.3281147231404
 21
454.6648643629863
 31
0.0
  0
LINE
  5
486
330
6F
100
AcDbEntity
  8
COMMENT
  6
Continuous
100
AcDbLine
 10
618.5513676335004
 20
440.7182384503498
 30
0.0
 11
617.0612003824361
 21
439.2555691123014
 31
0.0
  0
LINE
  5
487
330
6F
100
AcDbEntity
  8
COMMENT
  6
Continuous
100
AcDbLine
 10
617.061200382436
 20
439.2555691123014
 30
0.0
 11
619.110424062119
 21
439.6564211289327
 31
0.0
  0
LINE
  5
488
330
6F
100
AcDbEntity
  8
COMMENT
  6
Continuous
100
AcDbLine
 10
646.3281147231406
 20
454.6648643629863
 30
0.0
 11
684.3181137694662
 21
454.6648643629863
 31
0.0
  0
TEXT
  5
489
330
6F
100
AcDbEntity
  8
COMMENT
  6
Continuous
100
AcDbText
 10
648.8181147231406
 20
455.1648643629863
 30
0.0
 40
4.0
  1
平座金　
  7
KNJYOKO
100
AcDbText
  0
TEXT
  5
48A
330
6F
100
AcDbEntity
  8
COMMENT
  6
Continuous
100
AcDbText
 10
648.8181147231406
 20
450.1648643629862
 30
0.0
 40
4.0
  1
D30mm t2mm
100
AcDbText
  0
LINE
  5
48B
330
6F
100
AcDbEntity
  8
COMMENT
  6
Continuous
100
AcDbLine
 10
593.1750480483379
 20
435.7555691123013
 30
0.0
 11
576.9733739293314
 21
419.8595286624496
 31
0.0
  0
LINE
  5
48C
330
6F
100
AcDbEntity
  8
COMMENT
  6
Continuous
100
AcDbLine
 10
592.1676383003091
 20
433.9266006521616
 30
0.0
 11
593.1750480483382
 21
435.7555691123014
 31
0.0
  0
LINE
  5
48D
330
6F
100
AcDbEntity
  8
COMMENT
  6
Continuous
100
AcDbLine
 10
593.1750480483379
 20
435.7555691123013
 30
0.0
 11
591.3272278923982
 21
434.7831696573891
 31
0.0
  0
LINE
  5
48E
330
6F
100
AcDbEntity
  8
COMMENT
  6
Continuous
100
AcDbLine
 10
576.9733739293315
 20
419.8595286624496
 30
0.0
 11
561.4833742869593
 21
419.8595286624496
 31
0.0
  0
TEXT
  5
48F
330
6F
100
AcDbEntity
  8
COMMENT
  6
Continuous
100
AcDbText
 10
561.4833742869593
 20
420.3595286624496
 30
0.0
 40
4.0
  1
受け材
  7
KNJYOKO
100
AcDbText
  0
LINE
  5
490
330
6F
100
AcDbEntity
  8
COMMENT
  6
Continuous
100
AcDbLine
 10
607.7412277190031
 20
162.7364496094666
 30
0.0
 11
643.5199196779465
 21
190.4047600537179
 31
0.0
  0
LINE
  5
491
330
6F
100
AcDbEntity
  8
COMMENT
  6
Continuous
100
AcDbLine
 10
608.9563012648137
 20
164.4345651258205
 30
0.0
 11
607.7412277190031
 21
162.7364496094666
 31
0.0
  0
LINE
  5
492
330
6F
100
AcDbEntity
  8
COMMENT
  6
Continuous
100
AcDbLine
 10
607.7412277190031
 20
162.7364496094666
 30
0.0
 11
609.690389420245
 21
163.4852945139841
 31
0.0
  0
LINE
  5
493
330
6F
100
AcDbEntity
  8
COMMENT
  6
Continuous
100
AcDbLine
 10
643.5199196779464
 20
190.404760053718
 30
0.0
 11
703.1099181520676
 21
190.404760053718
 31
0.0
  0
TEXT
  5
494
330
6F
100
AcDbEntity
  8
COMMENT
  6
Continuous
100
AcDbText
 10
646.0099196779464
 20
190.904760053718
 30
0.0
 40
4.0
  1
ECPアンカー6×33
  7
KNJYOKO
100
AcDbText
  0
TEXT
  5
495
330
6F
100
AcDbEntity
  8
COMMENT
  6
Continuous
100
AcDbText
 10
646.0099196779464
 20
185.904760053718
 30
0.0
 40
4.0
  1
AK-ECP633-D30-50
100
AcDbText
  0
LINE
  5
496
330
6F
100
AcDbEntity
  8
COMMENT
  6
Continuous
100
AcDbLine
 10
617.0612003824359
 20
160.3364496096262
 30
0.0
 11
646.3281147231405
 21
175.745744860311
 31
0.0
  0
LINE
  5
497
330
6F
100
AcDbEntity
  8
COMMENT
  6
Continuous
100
AcDbLine
 10
618.5513676335002
 20
161.7991189476744
 30
0.0
 11
617.0612003824362
 21
160.3364496096263
 31
0.0
  0
LINE
  5
498
330
6F
100
AcDbEntity
  8
COMMENT
  6
Continuous
100
AcDbLine
 10
617.0612003824361
 20
160.3364496096263
 30
0.0
 11
619.1104240621191
 21
160.7373016262576
 31
0.0
  0
LINE
  5
499
330
6F
100
AcDbEntity
  8
COMMENT
  6
Continuous
100
AcDbLine
 10
646.3281147231406
 20
175.745744860311
 30
0.0
 11
684.3181137694662
 21
175.745744860311
 31
0.0
  0
TEXT
  5
49A
330
6F
100
AcDbEntity
  8
COMMENT
  6
Continuous
100
AcDbText
 10
648.8181147231406
 20
176.2457448603111
 30
0.0
 40
4.0
  1
平座金　
  7
KNJYOKO
100
AcDbText
  0
TEXT
  5
49B
330
6F
100
AcDbEntity
  8
COMMENT
  6
Continuous
100
AcDbText
 10
648.8181147231406
 20
171.245744860311
 30
0.0
 40
4.0
  1
D30mm t2mm
100
AcDbText
  0
LINE
  5
49C
330
6F
100
AcDbEntity
  8
COMMENT
  6
Continuous
100
AcDbLine
 10
585.2412277193377
 20
167.3346478573688
 30
0.0
 11
552.0944833934062
 21
183.4000139886574
 31
0.0
  0
LINE
  5
49D
330
6F
100
AcDbEntity
  8
COMMENT
  6
Continuous
100
AcDbLine
 10
583.1797884197616
 20
167.6670151884541
 30
0.0
 11
585.2412277193378
 21
167.3346478573688
 31
0.0
  0
LINE
  5
49E
330
6F
100
AcDbEntity
  8
COMMENT
  6
Continuous
100
AcDbLine
 10
585.2412277193377
 20
167.3346478573689
 30
0.0
 11
583.7031641135641
 21
168.7468661029685
 31
0.0
  0
LINE
  5
49F
330
6F
100
AcDbEntity
  8
COMMENT
  6
Continuous
100
AcDbLine
 10
552.0944833934062
 20
183.4000139886574
 30
0.0
 11
494.3044848716014
 21
183.4000139886574
 31
0.0
  0
TEXT
  5
4A0
330
6F
100
AcDbEntity
  8
COMMENT
  6
Continuous
100
AcDbText
 10
494.3044848716014
 20
183.9000139886574
 30
0.0
 40
4.0
  1
脱落防止ねじ(両端2ヶ所)
  7
KNJYOKO
100
AcDbText
  0
TEXT
  5
4A1
330
6F
100
AcDbEntity
  8
COMMENT
  6
Continuous
100
AcDbText
 10
494.3044848716014
 20
178.9000139886574
 30
0.0
 40
4.0
  1
トラス頭ドリルねじ4×13
  7
KNJYOKO
100
AcDbText
  0
TEXT
  5
4A2
330
6F
100
AcDbEntity
  8
COMMENT
  6
Continuous
100
AcDbText
 10
494.3044848716014
 20
173.9000139886574
 30
0.0
 40
4.0
  1
TBT-413-100
100
AcDbText
  0
LINE
  5
4A3
330
6F
100
AcDbEntity
  8
COMMENT
  6
Continuous
100
AcDbLine
 10
598.1750480483379
 20
156.8364496096259
 30
0.0
 11
582.0624441692467
 21
147.8859808470895
 31
0.0
  0
LINE
  5
4A4
330
6F
100
AcDbEntity
  8
COMMENT
  6
Continuous
100
AcDbLine
 10
596.7180498999982
 20
155.3407369285454
 30
0.0
 11
598.175048048338
 21
156.836449609626
 31
0.0
  0
LINE
  5
4A5
330
6F
100
AcDbEntity
  8
COMMENT
  6
Continuous
100
AcDbLine
 10
598.175048048338
 20
156.836449609626
 30
0.0
 11
596.1353270077072
 21
156.3897527269207
 31
0.0
  0
LINE
  5
4A6
330
6F
100
AcDbEntity
  8
COMMENT
  6
Continuous
100
AcDbLine
 10
582.0624441692465
 20
147.8859808470895
 30
0.0
 11
566.5724445268742
 21
147.8859808470895
 31
0.0
  0
TEXT
  5
4A7
330
6F
100
AcDbEntity
  8
COMMENT
  6
Continuous
100
AcDbText
 10
566.5724445268742
 20
148.3859808470895
 30
0.0
 40
4.0
  1
受け材
  7
KNJYOKO
100
AcDbText
  0
LINE
  5
4A8
330
6F
100
AcDbEntity
  8
COMMENT
  6
Continuous
100
AcDbLine
 10
242.7273721234328
 20
164.2364496094663
 30
0.0
 11
278.506064082376
 21
191.9047600537177
 31
0.0
  0
LINE
  5
4A9
330
6F
100
AcDbEntity
  8
COMMENT
  6
Continuous
100
AcDbLine
 10
243.9424456692432
 20
165.9345651258201
 30
0.0
 11
242.7273721234327
 21
164.2364496094661
 31
0.0
  0
LINE
  5
4AA
330
6F
100
AcDbEntity
  8
COMMENT
  6
Continuous
100
AcDbLine
 10
242.7273721234328
 20
164.2364496094663
 30
0.0
 11
244.6765338246747
 21
164.9852945139838
 31
0.0
  0
LINE
  5
4AB
330
6F
100
AcDbEntity
  8
COMMENT
  6
Continuous
100
AcDbLine
 10
278.5060640823759
 20
191.9047600537176
 30
0.0
 11
345.2960623657622
 21
191.9047600537176
 31
0.0
  0
TEXT
  5
4AC
330
6F
100
AcDbEntity
  8
COMMENT
  6
Continuous
100
AcDbText
 10
280.9960640823759
 20
192.4047600537176
 30
0.0
 40
4.0
  1
シンワッシャー頭ドリルねじ4×40
  7
KNJYOKO
100
AcDbText
  0
TEXT
  5
4AD
330
6F
100
AcDbEntity
  8
COMMENT
  6
Continuous
100
AcDbText
 10
280.9960640823759
 20
187.4047600537176
 30
0.0
 40
4.0
  1
TBS-440-D30-50
100
AcDbText
  0
LINE
  5
4AE
330
6F
100
AcDbEntity
  8
COMMENT
  6
Continuous
100
AcDbLine
 10
252.0473447868657
 20
161.836449609626
 30
0.0
 11
281.3142591275703
 21
177.2457448603108
 31
0.0
  0
LINE
  5
4AF
330
6F
100
AcDbEntity
  8
COMMENT
  6
Continuous
100
AcDbLine
 10
253.53751203793
 20
163.2991189476741
 30
0.0
 11
252.0473447868658
 21
161.836449609626
 31
0.0
  0
LINE
  5
4B0
330
6F
100
AcDbEntity
  8
COMMENT
  6
Continuous
100
AcDbLine
 10
252.0473447868658
 20
161.836449609626
 30
0.0
 11
254.0965684665487
 21
162.2373016262573
 31
0.0
  0
LINE
  5
4B1
330
6F
100
AcDbEntity
  8
COMMENT
  6
Continuous
100
AcDbLine
 10
281.3142591275703
 20
177.2457448603108
 30
0.0
 11
319.304258173896
 21
177.2457448603108
 31
0.0
  0
TEXT
  5
4B2
330
6F
100
AcDbEntity
  8
COMMENT
  6
Continuous
100
AcDbText
 10
283.8042591275701
 20
177.7457448603108
 30
0.0
 40
4.0
  1
平座金　
  7
KNJYOKO
100
AcDbText
  0
TEXT
  5
4B3
330
6F
100
AcDbEntity
  8
COMMENT
  6
Continuous
100
AcDbText
 10
283.8042591275701
 20
172.7457448603108
 30
0.0
 40
4.0
  1
D30mm t2mm
100
AcDbText
  0
LINE
  5
4B4
330
6F
100
AcDbEntity
  8
COMMENT
  6
Continuous
100
AcDbLine
 10
223.1611924527676
 20
158.3364496096256
 30
0.0
 11
209.7929092491388
 21
136.1553105691824
 31
0.0
  0
LINE
  5
4B5
330
6F
100
AcDbEntity
  8
COMMENT
  6
Continuous
100
AcDbLine
 10
222.642704261856
 20
156.3137855187556
 30
0.0
 11
223.1611924527676
 21
158.3364496096256
 31
0.0
  0
LINE
  5
4B6
330
6F
100
AcDbEntity
  8
COMMENT
  6
Continuous
100
AcDbLine
 10
223.1611924527676
 20
158.3364496096256
 30
0.0
 11
221.6149330567057
 21
156.9332098194614
 31
0.0
  0
LINE
  5
4B7
330
6F
100
AcDbEntity
  8
COMMENT
  6
Continuous
100
AcDbLine
 10
209.7929092491388
 20
136.1553105691824
 30
0.0
 11
194.3029096067665
 21
136.1553105691824
 31
0.0
  0
TEXT
  5
4B8
330
6F
100
AcDbEntity
  8
COMMENT
  6
Continuous
100
AcDbText
 10
194.3029096067665
 20
136.6553105691824
 30
0.0
 40
4.0
  1
受け材
  7
KNJYOKO
100
AcDbText
  0
LINE
  5
4B9
330
6F
100
AcDbEntity
  8
COMMENT
  6
Continuous
100
AcDbLine
 10
227.7273721234328
 20
111.9183403354645
 30
0.0
 11
202.2584974083889
 21
97.00235121935929
 31
0.0
  0
LINE
  5
4BA
330
6F
100
AcDbEntity
  8
COMMENT
  6
Continuous
100
AcDbLine
 10
226.3047804902857
 20
110.3898662356152
 30
0.0
 11
227.7273721234328
 21
111.9183403354645
 31
0.0
  0
LINE
  5
4BB
330
6F
100
AcDbEntity
  8
COMMENT
  6
Continuous
100
AcDbLine
 10
227.7273721234328
 20
111.9183403354645
 30
0.0
 11
225.6983419786372
 21
111.4253528101446
 31
0.0
  0
LINE
  5
4BC
330
6F
100
AcDbEntity
  8
COMMENT
  6
Continuous
100
AcDbLine
 10
202.2584974083888
 20
97.00235121935929
 30
0.0
 11
167.0574965343463
 21
97.00235121935929
 31
0.0
  0
TEXT
  5
4BD
330
6F
100
AcDbEntity
  8
COMMENT
  6
Continuous
100
AcDbText
 10
167.0574965343463
 20
97.50235121935929
 30
0.0
 40
3.099999904632568
  1
St t=1.6mm以上
  7
KNJYOKO
100
AcDbText
  0
LINE
  5
4BE
330
6F
100
AcDbEntity
  8
COMMENT
  6
Continuous
100
AcDbLine
 10
585.4384522368642
 20
447.5021634625306
 30
0.0
 11
552.2917079109324
 21
463.5675295938193
 31
0.0
  0
LINE
  5
4BF
330
6F
100
AcDbEntity
  8
COMMENT
  6
Continuous
100
AcDbLine
 10
583.3770129372878
 20
447.834530793616
 30
0.0
 11
585.4384522368642
 21
447.5021634625305
 31
0.0
  0
LINE
  5
4C0
330
6F
100
AcDbEntity
  8
COMMENT
  6
Continuous
100
AcDbLine
 10
585.4384522368643
 20
447.5021634625309
 30
0.0
 11
583.9003886310908
 21
448.9143817081306
 31
0.0
  0
LINE
  5
4C1
330
6F
100
AcDbEntity
  8
COMMENT
  6
Continuous
100
AcDbLine
 10
552.2917079109324
 20
463.5675295938193
 30
0.0
 11
494.5017093891278
 21
463.5675295938193
 31
0.0
  0
TEXT
  5
4C2
330
6F
100
AcDbEntity
  8
COMMENT
  6
Continuous
100
AcDbText
 10
494.5017093891278
 20
464.0675295938192
 30
0.0
 40
4.0
  1
脱落防止ねじ(両端2ヶ所)
  7
KNJYOKO
100
AcDbText
  0
TEXT
  5
4C3
330
6F
100
AcDbEntity
  8
COMMENT
  6
Continuous
100
AcDbText
 10
494.5017093891278
 20
459.0675295938194
 30
0.0
 40
4.0
  1
トラス頭ドリルねじ4×13
  7
KNJYOKO
100
AcDbText
  0
TEXT
  5
4C4
330
6F
100
AcDbEntity
  8
COMMENT
  6
Continuous
100
AcDbText
 10
494.5017093891278
 20
454.0675295938193
 30
0.0
 40
4.0
  1
TBT-413-100
100
AcDbText
  0
LINE
  5
4C5
330
6F
100
AcDbEntity
  8
COMMENT
  6
Continuous
100
AcDbLine
 10
220.2273721229401
 20
168.8346478573686
 30
0.0
 11
187.0806277970086
 21
184.9000139886572
 31
0.0
  0
LINE
  5
4C6
330
6F
100
AcDbEntity
  8
COMMENT
  6
Continuous
100
AcDbLine
 10
218.1659328233639
 20
169.1670151884539
 30
0.0
 11
220.2273721229402
 21
168.8346478573687
 31
0.0
  0
LINE
  5
4C7
330
6F
100
AcDbEntity
  8
COMMENT
  6
Continuous
100
AcDbLine
 10
220.2273721229401
 20
168.8346478573686
 30
0.0
 11
218.6893085171664
 21
170.2468661029683
 31
0.0
  0
LINE
  5
4C8
330
6F
100
AcDbEntity
  8
COMMENT
  6
Continuous
100
AcDbLine
 10
187.0806277970085
 20
184.9000139886572
 30
0.0
 11
129.2906292752036
 21
184.9000139886572
 31
0.0
  0
TEXT
  5
4C9
330
6F
100
AcDbEntity
  8
COMMENT
  6
Continuous
100
AcDbText
 10
129.2906292752036
 20
185.4000139886571
 30
0.0
 40
4.0
  1
脱落防止ねじ(両端2ヶ所)
  7
KNJYOKO
100
AcDbText
  0
TEXT
  5
4CA
330
6F
100
AcDbEntity
  8
COMMENT
  6
Continuous
100
AcDbText
 10
129.2906292752036
 20
180.4000139886572
 30
0.0
 40
4.0
  1
トラス頭ドリルねじ4×13
  7
KNJYOKO
100
AcDbText
  0
TEXT
  5
4CB
330
6F
100
AcDbEntity
  8
COMMENT
  6
Continuous
100
AcDbText
 10
129.2906292752036
 20
175.4000139886572
 30
0.0
 40
4.0
  1
TBT-413-100
100
AcDbText
  0
LINE
  5
4CC
330
6F
100
AcDbEntity
  8
COMMENT
  6
Continuous
100
AcDbLine
 10
220.2273721221127
 20
431.253767360044
 30
0.0
 11
187.0806277961811
 21
447.3191334913326
 31
0.0
  0
LINE
  5
4CD
330
6F
100
AcDbEntity
  8
COMMENT
  6
Continuous
100
AcDbLine
 10
218.1659328225365
 20
431.5861346911293
 30
0.0
 11
220.2273721221127
 21
431.2537673600441
 31
0.0
  0
LINE
  5
4CE
330
6F
100
AcDbEntity
  8
COMMENT
  6
Continuous
100
AcDbLine
 10
220.2273721221128
 20
431.2537673600441
 30
0.0
 11
218.6893085163391
 21
432.6659856056438
 31
0.0
  0
LINE
  5
4CF
330
6F
100
AcDbEntity
  8
COMMENT
  6
Continuous
100
AcDbLine
 10
187.0806277961811
 20
447.3191334913327
 30
0.0
 11
129.2906292743762
 21
447.3191334913327
 31
0.0
  0
TEXT
  5
4D0
330
6F
100
AcDbEntity
  8
COMMENT
  6
Continuous
100
AcDbText
 10
129.2906292743762
 20
447.8191334913327
 30
0.0
 40
4.0
  1
脱落防止ねじ(両端2ヶ所)
  7
KNJYOKO
100
AcDbText
  0
TEXT
  5
4D1
330
6F
100
AcDbEntity
  8
COMMENT
  6
Continuous
100
AcDbText
 10
129.2906292743762
 20
442.8191334913327
 30
0.0
 40
4.0
  1
トラス頭ドリルねじ4×13
  7
KNJYOKO
100
AcDbText
  0
TEXT
  5
4D2
330
6F
100
AcDbEntity
  8
COMMENT
  6
Continuous
100
AcDbText
 10
129.2906292743762
 20
437.8191334913327
 30
0.0
 40
4.0
  1
TBT-413-100
100
AcDbText
  0
LINE
  5
4D3
330
6F
100
AcDbEntity
  8
COMMENT
  6
Continuous
100
AcDbLine
 10
627.7412277193157
 20
475.7555691123014
 30
0.0
 11
640.2490600614902
 21
482.8114748324924
 31
0.0
  0
LINE
  5
4D4
330
6F
100
AcDbEntity
  8
COMMENT
  6
Continuous
100
AcDbLine
 10
629.1883731772051
 20
477.2608166176377
 30
0.0
 11
627.7412277193157
 21
475.7555691123014
 31
0.0
  0
LINE
  5
4D5
330
6F
100
AcDbEntity
  8
COMMENT
  6
Continuous
100
AcDbLine
 10
627.7412277193157
 20
475.7555691123014
 30
0.0
 11
629.7779716467011
 21
476.2156497605241
 31
0.0
  0
LINE
  5
4D6
330
6F
100
AcDbEntity
  8
COMMENT
  6
Continuous
100
AcDbLine
 10
640.2490600614902
 20
482.8114748324924
 30
0.0
 11
674.6390592031834
 21
482.8114748324924
 31
0.0
  0
TEXT
  5
4D7
330
6F
100
AcDbEntity
  8
COMMENT
  6
Continuous
100
AcDbText
 10
642.7390600614902
 20
483.3114748324923
 30
0.0
 40
4.0
  1
アルミルーバー
  7
KNJYOKO
100
AcDbText
  0
TEXT
  5
4D8
330
6F
100
AcDbEntity
  8
COMMENT
  6
Continuous
100
AcDbText
 10
642.7390600614902
 20
478.3114748324924
 30
0.0
 40
4.0
  1
CLKS-4040
100
AcDbText
  0
LINE
  5
4D9
330
6F
100
AcDbEntity
  8
COMMENT
  6
Continuous
100
AcDbLine
 10
627.7412277193787
 20
196.8364496096265
 30
0.0
 11
640.2490600615532
 21
203.8923553298175
 31
0.0
  0
LINE
  5
4DA
330
6F
100
AcDbEntity
  8
COMMENT
  6
Continuous
100
AcDbLine
 10
629.188373177268
 20
198.3416971149628
 30
0.0
 11
627.7412277193789
 21
196.8364496096265
 31
0.0
  0
LINE
  5
4DB
330
6F
100
AcDbEntity
  8
COMMENT
  6
Continuous
100
AcDbLine
 10
627.7412277193789
 20
196.8364496096265
 30
0.0
 11
629.7779716467641
 21
197.2965302578493
 31
0.0
  0
LINE
  5
4DC
330
6F
100
AcDbEntity
  8
COMMENT
  6
Continuous
100
AcDbLine
 10
640.2490600615532
 20
203.8923553298175
 30
0.0
 11
674.6390592032465
 21
203.8923553298175
 31
0.0
  0
TEXT
  5
4DD
330
6F
100
AcDbEntity
  8
COMMENT
  6
Continuous
100
AcDbText
 10
642.7390600615532
 20
204.3923553298175
 30
0.0
 40
4.0
  1
アルミルーバー
  7
KNJYOKO
100
AcDbText
  0
TEXT
  5
4DE
330
6F
100
AcDbEntity
  8
COMMENT
  6
Continuous
100
AcDbText
 10
642.7390600615532
 20
199.3923553298175
 30
0.0
 40
4.0
  1
CLKS-4040
100
AcDbText
  0
LINE
  5
4DF
330
6F
100
AcDbEntity
  8
COMMENT
  6
Continuous
100
AcDbLine
 10
262.7273721237376
 20
198.3364496096261
 30
0.0
 11
275.2352044659121
 21
205.392355329817
 31
0.0
  0
LINE
  5
4E0
330
6F
100
AcDbEntity
  8
COMMENT
  6
Continuous
100
AcDbLine
 10
264.1745175816267
 20
199.8416971149624
 30
0.0
 11
262.7273721237376
 21
198.3364496096261
 31
0.0
  0
LINE
  5
4E1
330
6F
100
AcDbEntity
  8
COMMENT
  6
Continuous
100
AcDbLine
 10
262.7273721237376
 20
198.3364496096261
 30
0.0
 11
264.764116051123
 21
198.7965302578488
 31
0.0
  0
LINE
  5
4E2
330
6F
100
AcDbEntity
  8
COMMENT
  6
Continuous
100
AcDbLine
 10
275.2352044659121
 20
205.392355329817
 30
0.0
 11
309.6252036076052
 21
205.392355329817
 31
0.0
  0
TEXT
  5
4E3
330
6F
100
AcDbEntity
  8
COMMENT
  6
Continuous
100
AcDbText
 10
277.7252044659121
 20
205.892355329817
 30
0.0
 40
4.0
  1
アルミルーバー
  7
KNJYOKO
100
AcDbText
  0
TEXT
  5
4E4
330
6F
100
AcDbEntity
  8
COMMENT
  6
Continuous
100
AcDbText
 10
277.7252044659121
 20
200.892355329817
 30
0.0
 40
4.0
  1
CLKS-4040
100
AcDbText
  0
LINE
  5
4E5
330
6F
100
AcDbEntity
  8
COMMENT
  6
Continuous
100
AcDbLine
 10
262.727372122605
 20
460.7555691123013
 30
0.0
 11
275.2352044647795
 21
467.8114748324921
 31
0.0
  0
LINE
  5
4E6
330
6F
100
AcDbEntity
  8
COMMENT
  6
Continuous
100
AcDbLine
 10
264.1745175804943
 20
462.2608166176378
 30
0.0
 11
262.7273721226052
 21
460.7555691123015
 31
0.0
  0
LINE
  5
4E7
330
6F
100
AcDbEntity
  8
COMMENT
  6
Continuous
100
AcDbLine
 10
262.7273721226051
 20
460.7555691123014
 30
0.0
 11
264.7641160499905
 21
461.215649760524
 31
0.0
  0
LINE
  5
4E8
330
6F
100
AcDbEntity
  8
COMMENT
  6
Continuous
100
AcDbLine
 10
275.2352044647796
 20
467.8114748324921
 30
0.0
 11
309.6252036064727
 21
467.8114748324921
 31
0.0
  0
TEXT
  5
4E9
330
6F
100
AcDbEntity
  8
COMMENT
  6
Continuous
100
AcDbText
 10
277.7252044647796
 20
468.3114748324923
 30
0.0
 40
4.0
  1
アルミルーバー
  7
KNJYOKO
100
AcDbText
  0
TEXT
  5
4EA
330
6F
100
AcDbEntity
  8
COMMENT
  6
Continuous
100
AcDbText
 10
277.7252044647796
 20
463.3114748324921
 30
0.0
 40
4.0
  1
CLKS-4040
100
AcDbText
  0
LINE
  5
4EB
330
6F
100
AcDbEntity
  8
COMMENT
  6
Continuous
100
AcDbLine
 10
233.1611924527678
 20
420.7555691123013
 30
0.0
 11
216.9595183337613
 21
404.8595286624496
 31
0.0
  0
LINE
  5
4EC
330
6F
100
AcDbEntity
  8
COMMENT
  6
Continuous
100
AcDbLine
 10
232.1537827047388
 20
418.9266006521616
 30
0.0
 11
233.1611924527678
 21
420.7555691123014
 31
0.0
  0
LINE
  5
4ED
330
6F
100
AcDbEntity
  8
COMMENT
  6
Continuous
100
AcDbLine
 10
233.1611924527679
 20
420.7555691123014
 30
0.0
 11
231.3133722968282
 21
419.7831696573889
 31
0.0
  0
LINE
  5
4EE
330
6F
100
AcDbEntity
  8
COMMENT
  6
Continuous
100
AcDbLine
 10
216.9595183337613
 20
404.8595286624496
 30
0.0
 11
201.4695186913892
 21
404.8595286624496
 31
0.0
  0
TEXT
  5
4EF
330
6F
100
AcDbEntity
  8
COMMENT
  6
Continuous
100
AcDbText
 10
201.4695186913892
 20
405.3595286624496
 30
0.0
 40
4.0
  1
受け材
  7
KNJYOKO
100
AcDbText
  0
LINE
  5
4F0
330
6F
100
AcDbEntity
  8
COMMENT
  6
Continuous
100
AcDbLine
 10
252.0473447868658
 20
424.2555691123016
 30
0.0
 11
278.3819580462563
 21
439.6648643629863
 31
0.0
  0
LINE
  5
4F1
330
6F
100
AcDbEntity
  8
COMMENT
  6
Continuous
100
AcDbLine
 10
253.4705293237201
 20
425.7834911661608
 30
0.0
 11
252.0473447868658
 21
424.2555691123016
 31
0.0
  0
LINE
  5
4F2
330
6F
100
AcDbEntity
  8
COMMENT
  6
Continuous
100
AcDbLine
 10
252.0473447868658
 20
424.2555691123016
 30
0.0
 11
254.0765660461207
 21
424.747769386172
 31
0.0
  0
LINE
  5
4F3
330
6F
100
AcDbEntity
  8
COMMENT
  6
Continuous
100
AcDbLine
 10
278.3819580462563
 20
439.6648643629863
 30
0.0
 11
316.371957092582
 21
439.6648643629863
 31
0.0
  0
TEXT
  5
4F4
330
6F
100
AcDbEntity
  8
COMMENT
  6
Continuous
100
AcDbText
 10
280.8719580462563
 20
440.1648643629862
 30
0.0
 40
4.0
  1
平座金　
  7
KNJYOKO
100
AcDbText
  0
TEXT
  5
4F5
330
6F
100
AcDbEntity
  8
COMMENT
  6
Continuous
100
AcDbText
 10
280.8719580462563
 20
435.1648643629864
 30
0.0
 40
4.0
  1
D30mm t2mm
100
AcDbText
  0
LINE
  5
4F6
330
6F
100
AcDbEntity
  8
LOUVER
  6
Continuous
100
AcDbLine
 10
625.444279605622
 20
166.293766860209
 30
0.0
 11
625.9412277202632
 21
162.8364496105303
 31
0.0
  0
ARC
  5
4F7
330
6F
100
AcDbEntity
  8
LOUVER
  6
Continuous
100
AcDbCircle
 10
622.9412277193787
 20
172.3364496096284
 30
0.0
 40
0.5
100
AcDbArc
 50
90.0
 51
270.0
  0
ARC
  5
4F8
330
6F
100
AcDbEntity
  8
LOUVER
  6
Continuous
100
AcDbCircle
 10
592.5412277211798
 20
172.3364496096148
 30
0.0
 40
0.5
100
AcDbArc
 50
270.0
 51
90.0
  0
LINE
  5
4F9
330
6F
100
AcDbEntity
  8
LOUVER
  6
Continuous
100
AcDbLine
 10
588.9412277202052
 20
188.0364496096264
 30
0.0
 11
588.9412277202052
 21
195.6364496096264
 31
0.0
  0
POINT
  5
4FA
330
6F
100
AcDbEntity
  8
LOUVER
  6
Continuous
100
AcDbPoint
 10
607.7412277202062
 20
190.1364496095764
 30
0.0
  0
POINT
  5
4FB
330
6F
100
AcDbEntity
  8
LOUVER
  6
Continuous
100
AcDbPoint
 10
607.7412277202062
 20
190.1364496095764
 30
0.0
  0
LINE
  5
4FC
330
6F
100
AcDbEntity
  8
LOUVER
  6
Continuous
100
AcDbLine
 10
589.9412277211305
 20
186.8364496095774
 30
0.0
 11
610.9661308195247
 21
186.8364496095774
 31
0.0
  0
LINE
  5
4FD
330
6F
100
AcDbEntity
  8
LOUVER
  6
Continuous
100
AcDbLine
 10
610.9661308195247
 20
186.8364496095774
 30
0.0
 11
625.5412277193787
 21
186.8364496095774
 31
0.0
  0
POINT
  5
4FE
330
6F
100
AcDbEntity
  8
LOUVER
  6
Continuous
100
AcDbPoint
 10
607.7412277202062
 20
190.1364496095764
 30
0.0
  0
ARC
  5
4FF
330
6F
100
AcDbEntity
  8
LOUVER
  6
Continuous
100
AcDbCircle
 10
607.7412277202062
 20
190.1364496095764
 30
0.0
 40
2.1
100
AcDbArc
 50
351.042328421765
 51
8.95767158078419
  0
ARC
  5
500
330
6F
100
AcDbEntity
  8
LOUVER
  6
Continuous
100
AcDbCircle
 10
607.7412277202062
 20
190.1364496095764
 30
0.0
 40
1.8
100
AcDbArc
 50
20.3599951900864
 51
42.71864450826946
  0
ARC
  5
501
330
6F
100
AcDbEntity
  8
LOUVER
  6
Continuous
100
AcDbCircle
 10
609.6180546365627
 20
190.4322886300594
 30
0.0
 40
0.2
100
AcDbArc
 50
8.957671580785904
 51
89.99999999982035
  0
ARC
  5
502
330
6F
100
AcDbEntity
  8
LOUVER
  6
Continuous
100
AcDbCircle
 10
609.6180546365757
 20
189.8406105891765
 30
0.0
 40
0.2
100
AcDbArc
 50
269.9999999998206
 51
351.0423284217637
  0
ARC
  5
503
330
6F
100
AcDbEntity
  8
LOUVER
  6
Continuous
100
AcDbCircle
 10
609.6162779991687
 20
189.4406145347465
 30
0.0
 40
0.2
100
AcDbArc
 50
89.99999999982035
 51
159.6400048124608
  0
ARC
  5
504
330
6F
100
AcDbEntity
  8
LOUVER
  6
Continuous
100
AcDbCircle
 10
609.6162779991377
 20
190.8322846844891
 30
0.0
 40
0.2
100
AcDbArc
 50
200.3599951900913
 51
269.9999999998203
  0
ARC
  5
505
330
6F
100
AcDbEntity
  8
LOUVER
  6
Continuous
100
AcDbCircle
 10
609.5412277203836
 20
191.7985266232436
 30
0.0
 40
0.6500000000000014
100
AcDbArc
 50
42.71864450827047
 51
222.7186445082705
  0
ARC
  5
506
330
6F
100
AcDbEntity
  8
LOUVER
  6
Continuous
100
AcDbCircle
 10
607.7412277202062
 20
190.1364496095764
 30
0.0
 40
1.8
100
AcDbArc
 50
290.3599951900866
 51
339.6400048124626
  0
ARC
  5
507
330
6F
100
AcDbEntity
  8
LOUVER
  6
Continuous
100
AcDbCircle
 10
607.7412277202062
 20
190.1364496095764
 30
0.0
 40
1.8
100
AcDbArc
 50
137.281355473095
 51
159.6400048124627
  0
ARC
  5
508
330
6F
100
AcDbEntity
  8
LOUVER
  6
Continuous
100
AcDbCircle
 10
607.7412277202062
 20
190.1364496095764
 30
0.0
 40
1.8
100
AcDbArc
 50
200.3599951900864
 51
249.6400048124626
  0
ARC
  5
509
330
6F
100
AcDbEntity
  8
LOUVER
  6
Continuous
100
AcDbCircle
 10
605.9412277205697
 20
191.7985266238292
 30
0.0
 40
0.6500000000000048
100
AcDbArc
 50
317.2813554730932
 51
137.2813554730932
  0
ARC
  5
50A
330
6F
100
AcDbEntity
  8
LOUVER
  6
Continuous
100
AcDbCircle
 10
607.7412277202062
 20
190.1364496095764
 30
0.0
 40
3.1
100
AcDbArc
 50
137.2813554730942
 51
206.3877999612404
  0
ARC
  5
50B
330
6F
100
AcDbEntity
  8
LOUVER
  6
Continuous
100
AcDbCircle
 10
607.7412277202062
 20
190.1364496095764
 30
0.0
 40
3.1
100
AcDbArc
 50
333.6122000387596
 51
42.71864450826988
  0
LINE
  5
50C
330
6F
100
AcDbEntity
  8
LOUVER
  6
Continuous
100
AcDbLine
 10
609.6162779991367
 20
190.6322846844893
 30
0.0
 11
609.6180546365631
 21
190.6322886300594
 31
0.0
  0
LINE
  5
50D
330
6F
100
AcDbEntity
  8
LOUVER
  6
Continuous
100
AcDbLine
 10
609.6162779991693
 20
189.640614534747
 30
0.0
 11
609.6180546365753
 21
189.640610589177
 31
0.0
  0
ARC
  5
50E
330
6F
100
AcDbEntity
  8
LOUVER
  6
Continuous
100
AcDbCircle
 10
608.0370667406894
 20
188.2596226932198
 30
0.0
 40
0.2
100
AcDbArc
 50
278.9576715807859
 51
359.9999999998204
  0
ARC
  5
50F
330
6F
100
AcDbEntity
  8
LOUVER
  6
Continuous
100
AcDbCircle
 10
607.4453886998067
 20
188.2596226932066
 30
0.0
 40
0.2
100
AcDbArc
 50
179.9999999998204
 51
261.0423284217637
  0
ARC
  5
510
330
6F
100
AcDbEntity
  8
LOUVER
  6
Continuous
100
AcDbCircle
 10
607.0453926453767
 20
188.2613993306138
 30
0.0
 40
0.2
100
AcDbArc
 50
359.9999999998204
 51
69.64000481246078
  0
ARC
  5
511
330
6F
100
AcDbEntity
  8
LOUVER
  6
Continuous
100
AcDbCircle
 10
608.4370627951192
 20
188.2613993306446
 30
0.0
 40
0.2
100
AcDbArc
 50
110.3599951900914
 51
179.9999999998204
  0
LINE
  5
512
330
6F
100
AcDbEntity
  8
LOUVER
  6
Continuous
100
AcDbLine
 10
608.237062795119
 20
188.2613993306454
 30
0.0
 11
608.2370667406891
 21
188.2596226932194
 31
0.0
  0
LINE
  5
513
330
6F
100
AcDbEntity
  8
LOUVER
  6
Continuous
100
AcDbLine
 10
607.2453926453764
 20
188.2613993306135
 30
0.0
 11
607.2453886998065
 21
188.2596226932075
 31
0.0
  0
ARC
  5
514
330
6F
100
AcDbEntity
  8
LOUVER
  6
Continuous
100
AcDbCircle
 10
607.7412277202062
 20
190.1364496095764
 30
0.0
 40
2.1
100
AcDbArc
 50
171.042328421765
 51
188.9576715807843
  0
ARC
  5
515
330
6F
100
AcDbEntity
  8
LOUVER
  6
Continuous
100
AcDbCircle
 10
605.8644008038498
 20
189.8406105890931
 30
0.0
 40
0.2
100
AcDbArc
 50
188.9576715807859
 51
269.9999999998203
  0
ARC
  5
516
330
6F
100
AcDbEntity
  8
LOUVER
  6
Continuous
100
AcDbCircle
 10
605.8644008038367
 20
190.432288629976
 30
0.0
 40
0.2
100
AcDbArc
 50
89.99999999982035
 51
171.0423284217637
  0
ARC
  5
517
330
6F
100
AcDbEntity
  8
LOUVER
  6
Continuous
100
AcDbCircle
 10
605.8661774412438
 20
190.8322846844059
 30
0.0
 40
0.2
100
AcDbArc
 50
269.9999999998206
 51
339.6400048124608
  0
ARC
  5
518
330
6F
100
AcDbEntity
  8
LOUVER
  6
Continuous
100
AcDbCircle
 10
605.8661774412748
 20
189.4406145346633
 30
0.0
 40
0.2
100
AcDbArc
 50
20.35999519009128
 51
89.99999999982035
  0
LINE
  5
519
330
6F
100
AcDbEntity
  8
LOUVER
  6
Continuous
100
AcDbLine
 10
605.8661774412757
 20
189.6406145346634
 30
0.0
 11
605.8644008038497
 21
189.6406105890933
 31
0.0
  0
LINE
  5
51A
330
6F
100
AcDbEntity
  8
LOUVER
  6
Continuous
100
AcDbLine
 10
605.8661774412434
 20
190.6322846844062
 30
0.0
 11
605.8644008038375
 21
190.6322886299762
 31
0.0
  0
ARC
  5
51B
330
6F
100
AcDbEntity
  8
LOUVER
  6
Continuous
100
AcDbCircle
 10
607.7412277202062
 20
190.1364496095761
 30
0.0
 40
2.1
100
AcDbArc
 50
261.0423284217649
 51
278.9576715807843
  0
ARC
  5
51C
330
6F
100
AcDbEntity
  8
LOUVER
  6
Continuous
100
AcDbCircle
 10
625.5412277193786
 20
185.8364496095774
 30
0.0
 40
1.0
100
AcDbArc
 50
0.0
 51
90.0
  0
LINE
  5
51D
330
6F
100
AcDbEntity
  8
LOUVER
  6
Continuous
100
AcDbLine
 10
588.9412277211942
 20
166.6364496095878
 30
0.0
 11
588.941227721181
 21
171.8364496096049
 31
0.0
  0
LINE
  5
51E
330
6F
100
AcDbEntity
  8
LOUVER
  6
Continuous
100
AcDbLine
 10
588.941227721181
 20
171.8364496096049
 30
0.0
 11
592.5412277211811
 21
171.8364496096149
 31
0.0
  0
LINE
  5
51F
330
6F
100
AcDbEntity
  8
LOUVER
  6
Continuous
100
AcDbLine
 10
588.9412277211786
 20
172.8364496096049
 30
0.0
 11
592.5412277211782
 21
172.8364496096149
 31
0.0
  0
LINE
  5
520
330
6F
100
AcDbEntity
  8
LOUVER
  6
Continuous
100
AcDbLine
 10
588.9412277211786
 20
172.8364496096046
 30
0.0
 11
588.9412277211305
 21
185.8364496095549
 31
0.0
  0
ARC
  5
521
330
6F
100
AcDbEntity
  8
LOUVER
  6
Continuous
100
AcDbCircle
 10
589.9412277211304
 20
185.8364496095774
 30
0.0
 40
1.0
100
AcDbArc
 50
90.0
 51
180.0
  0
ARC
  5
522
330
6F
100
AcDbEntity
  8
LOUVER
  6
Continuous
100
AcDbCircle
 10
604.5163246208868
 20
188.5364496095766
 30
0.0
 40
0.5
100
AcDbArc
 50
270.0
 51
26.38779996124049
  0
ARC
  5
523
330
6F
100
AcDbEntity
  8
LOUVER
  6
Continuous
100
AcDbCircle
 10
610.9661308195259
 20
188.5364496095766
 30
0.0
 40
0.5
100
AcDbArc
 50
153.6122000387595
 51
270.0
  0
LINE
  5
524
330
6F
100
AcDbEntity
  8
LOUVER
  6
Continuous
100
AcDbLine
 10
626.5412277202061
 20
195.6364496096265
 30
0.0
 11
588.9412277202052
 21
195.6364496096265
 31
0.0
  0
LINE
  5
525
330
6F
100
AcDbEntity
  8
LOUVER
  6
Continuous
100
AcDbLine
 10
590.0381758349724
 20
166.2937668601897
 30
0.0
 11
589.5412277201496
 21
162.8364496098121
 31
0.0
  0
LINE
  5
526
330
6F
100
AcDbEntity
  8
LOUVER
  6
Continuous
100
AcDbLine
 10
625.9412277202573
 20
157.8364496096264
 30
0.0
 11
625.9412277202629
 21
162.8364496105304
 31
0.0
  0
LINE
  5
527
330
6F
100
AcDbEntity
  8
LOUVER
  6
Continuous
100
AcDbLine
 10
625.9412277202576
 20
157.8364496096264
 30
0.0
 11
627.7412277187578
 21
157.8364496096264
 31
0.0
  0
LINE
  5
528
330
6F
100
AcDbEntity
  8
LOUVER
  6
Continuous
100
AcDbLine
 10
626.5412277193786
 20
171.8364496096273
 30
0.0
 11
622.9412277193786
 21
171.8364496096285
 31
0.0
  0
LINE
  5
529
330
6F
100
AcDbEntity
  8
LOUVER
  6
Continuous
100
AcDbLine
 10
626.5412277193789
 20
172.8364496096273
 30
0.0
 11
622.9412277193788
 21
172.8364496096285
 31
0.0
  0
LINE
  5
52A
330
6F
100
AcDbEntity
  8
LOUVER
  6
Continuous
100
AcDbLine
 10
626.5412277202061
 20
188.0364496096265
 30
0.0
 11
626.5412277202061
 21
195.6364496096265
 31
0.0
  0
LINE
  5
52B
330
6F
100
AcDbEntity
  8
LOUVER
  6
Continuous
100
AcDbLine
 10
626.5412277193787
 20
166.6364496096103
 30
0.0
 11
626.5412277193787
 21
171.8364496096274
 31
0.0
  0
LINE
  5
52C
330
6F
100
AcDbEntity
  8
LOUVER
  6
Continuous
100
AcDbLine
 10
626.5412277193787
 20
172.8364496096272
 30
0.0
 11
626.5412277193787
 21
185.8364496095774
 31
0.0
  0
LINE
  5
52D
330
6F
100
AcDbEntity
  8
LOUVER
  6
Continuous
100
AcDbLine
 10
587.7412277202052
 20
157.8364496096264
 30
0.0
 11
587.7412277202052
 21
196.8364496096265
 31
0.0
  0
LINE
  5
52E
330
6F
100
AcDbEntity
  8
LOUVER
  6
Continuous
100
AcDbLine
 10
589.7412277201412
 20
166.6364496096103
 30
0.0
 11
588.9412277211942
 21
166.6364496096103
 31
0.0
  0
LINE
  5
52F
330
6F
100
AcDbEntity
  8
LOUVER
  6
Continuous
100
AcDbLine
 10
589.5412277201508
 20
157.8364496096266
 30
0.0
 11
589.5412277201496
 21
162.8364496098122
 31
0.0
  0
LINE
  5
530
330
6F
100
AcDbEntity
  8
LOUVER
  6
Continuous
100
AcDbLine
 10
589.5412277201537
 20
157.8364496096264
 30
0.0
 11
587.7412277202052
 21
157.8364496096264
 31
0.0
  0
LINE
  5
531
330
6F
100
AcDbEntity
  8
LOUVER
  6
Continuous
100
AcDbLine
 10
587.7412277202052
 20
196.8364496096264
 30
0.0
 11
627.7412277193787
 21
196.8364496096264
 31
0.0
  0
POINT
  5
532
330
6F
100
AcDbEntity
  8
LOUVER
  6
Continuous
100
AcDbPoint
 10
607.7412277202062
 20
190.1364496095764
 30
0.0
  0
LINE
  5
533
330
6F
100
AcDbEntity
  8
LOUVER
  6
Continuous
100
AcDbLine
 10
627.7412277193787
 20
196.8364496096265
 30
0.0
 11
627.7412277187578
 21
157.8364496096265
 31
0.0
  0
ARC
  5
534
330
6F
100
AcDbEntity
  8
LOUVER
  6
Continuous
100
AcDbCircle
 10
589.7412277201412
 20
166.3364496096104
 30
0.0
 40
0.3
100
AcDbArc
 50
351.8204397231631
 51
90.0
  0
LINE
  5
535
330
6F
100
AcDbEntity
  8
LOUVER
  6
Continuous
100
AcDbLine
 10
625.7412277204543
 20
166.6364496096231
 30
0.0
 11
626.5412277195628
 21
166.6364496096239
 31
0.0
  0
ARC
  5
536
330
6F
100
AcDbEntity
  8
LOUVER
  6
Continuous
100
AcDbCircle
 10
625.7412277204543
 20
166.3364496096231
 30
0.0
 40
0.3
100
AcDbArc
 50
90.00000000005709
 51
188.1795602755809
  0
LINE
  5
537
330
6F
100
AcDbEntity
  8
LOUVER
  6
Continuous
100
AcDbLine
 10
588.9412277202052
 20
188.0364496095774
 30
0.0
 11
604.5163246208872
 21
188.0364496095774
 31
0.0
  0
LINE
  5
538
330
6F
100
AcDbEntity
  8
LOUVER
  6
Continuous
100
AcDbLine
 10
610.966130819526
 20
188.0364496095774
 30
0.0
 11
626.5412277193789
 21
188.0364496095774
 31
0.0
  0
ENDSEC
  0
SECTION
  2
OBJECTS
  0
DICTIONARY
  5
C
330
0
100
AcDbDictionary
281
     1
  3
ACAD_CIP_PREVIOUS_PRODUCT_INFO
350
53C
  3
ACAD_COLOR
350
62
  3
ACAD_DETAILVIEWSTYLE
350
69
  3
ACAD_GROUP
350
D
  3
ACAD_LAYOUT
350
61
  3
ACAD_MATERIAL
350
10
  3
ACAD_MLEADERSTYLE
350
65
  3
ACAD_MLINESTYLE
350
5E
  3
ACAD_PLOTSETTINGS
350
60
  3
ACAD_PLOTSTYLENAME
350
E
  3
ACAD_SCALELIST
350
42
  3
ACAD_SECTIONVIEWSTYLE
350
67
  3
ACAD_TABLESTYLE
350
63
  3
ACAD_VISUALSTYLE
350
29
  3
ACDB_RECOMPOSE_DATA
350
5AB
  3
AcDbVariableDictionary
350
54F
  0
DICTIONARY
  5
53F
330
54
100
AcDbDictionary
280
     1
281
     1
  3
ADSK_XREC_LAYER_RECONCILED
360
540
  0
DICTIONARY
  5
541
330
76
100
AcDbDictionary
280
     1
281
     1
  3
ADSK_XREC_LAYER_RECONCILED
360
542
  0
DICTIONARY
  5
543
330
77
100
AcDbDictionary
280
     1
281
     1
  3
ADSK_XREC_LAYER_RECONCILED
360
544
  0
DICTIONARY
  5
545
330
78
100
AcDbDictionary
280
     1
281
     1
  3
ADSK_XREC_LAYER_RECONCILED
360
546
  0
DICTIONARY
  5
547
330
79
100
AcDbDictionary
280
     1
281
     1
  3
ADSK_XREC_LAYER_RECONCILED
360
548
  0
DICTIONARY
  5
549
330
7A
100
AcDbDictionary
280
     1
281
     1
  3
ADSK_XREC_LAYER_RECONCILED
360
54A
  0
DICTIONARY
  5
54B
330
7B
100
AcDbDictionary
280
     1
281
     1
  3
ADSK_XREC_LAYER_RECONCILED
360
54C
  0
DICTIONARY
  5
54D
330
7C
100
AcDbDictionary
280
     1
281
     1
  3
ADSK_XREC_LAYER_RECONCILED
360
54E
  0
XRECORD
  5
53C
102
{ACAD_REACTORS
330
C
102
}
330
C
100
AcDbXrecord
280
     1
300
ACD
300
2022
300

  0
DICTIONARY
  5
62
102
{ACAD_REACTORS
330
C
102
}
330
C
100
AcDbDictionary
281
     1
  0
DICTIONARY
  5
69
102
{ACAD_REACTORS
330
C
102
}
330
C
100
AcDbDictionary
281
     1
  3
Imperial24
350
6A
  3
Metric50
350
53A
  0
DICTIONARY
  5
D
102
{ACAD_REACTORS
330
C
102
}
330
C
100
AcDbDictionary
281
     1
  0
DICTIONARY
  5
61
102
{ACAD_REACTORS
330
C
102
}
330
C
100
AcDbDictionary
281
     1
  3
Model
350
72
  3
レイアウト1
350
6E
  0
DICTIONARY
  5
10
102
{ACAD_REACTORS
330
C
102
}
330
C
100
AcDbDictionary
281
     1
  3
ByBlock
350
19
  3
ByLayer
350
11
  3
Global
350
21
  0
DICTIONARY
  5
65
102
{ACAD_REACTORS
330
C
102
}
330
C
100
AcDbDictionary
281
     1
  3
Standard
350
66
  0
DICTIONARY
  5
5E
102
{ACAD_REACTORS
330
C
102
}
330
C
100
AcDbDictionary
281
     1
  3
Standard
350
5F
  0
DICTIONARY
  5
60
102
{ACAD_REACTORS
330
C
102
}
330
C
100
AcDbDictionary
281
     1
  0
ACDBDICTIONARYWDFLT
  5
E
102
{ACAD_REACTORS
330
C
102
}
330
C
100
AcDbDictionary
281
     1
  3
Normal
350
F
100
AcDbDictionaryWithDefault
340
F
  0
DICTIONARY
  5
42
102
{ACAD_REACTORS
330
C
102
}
330
C
100
AcDbDictionary
281
     1
  3
A0
350
43
  3
A1
350
44
  3
A2
350
45
  3
A3
350
46
  3
A4
350
47
  3
A5
350
48
  3
A6
350
49
  3
A7
350
4A
  3
A8
350
4B
  3
A9
350
4C
  3
B0
350
4D
  3
B1
350
4E
  3
B2
350
4F
  3
B3
350
50
  3
B4
350
51
  3
B5
350
52
  3
B6
350
53
  0
DICTIONARY
  5
67
102
{ACAD_REACTORS
330
C
102
}
330
C
100
AcDbDictionary
281
     1
  3
Imperial24
350
68
  3
Metric50
350
539
  0
DICTIONARY
  5
63
102
{ACAD_REACTORS
330
C
102
}
330
C
100
AcDbDictionary
281
     1
  3
Standard
350
64
  0
DICTIONARY
  5
29
102
{ACAD_REACTORS
330
C
102
}
330
C
100
AcDbDictionary
281
     1
  3
2dWireframe
350
2F
  3
Basic
350
2E
  3
Brighten
350
35
  3
ColorChange
350
39
  3
Conceptual
350
32
  3
Dim
350
34
  3
EdgeColorOff
350
41
  3
Facepattern
350
38
  3
Flat
350
2A
  3
FlatWithEdges
350
2B
  3
Gouraud
350
2C
  3
GouraudWithEdges
350
2D
  3
Hidden
350
31
  3
JitterOff
350
3F
  3
Linepattern
350
37
  3
OverhangOff
350
40
  3
Realistic
350
33
  3
Shaded
350
3E
  3
Shaded with edges
350
3D
  3
Shades of Gray
350
3A
  3
Sketchy
350
3B
  3
Thicken
350
36
  3
Wireframe
350
30
  3
X-Ray
350
3C
  0
XRECORD
  5
5AB
102
{ACAD_REACTORS
330
C
102
}
330
C
100
AcDbXrecord
280
     1
 90
        1
330
64
  0
DICTIONARY
  5
54F
102
{ACAD_REACTORS
330
C
102
}
330
C
100
AcDbDictionary
281
     1
  3
CANNOSCALE
350
554
  3
CMLEADERSTYLE
350
551
  3
CTABLESTYLE
350
550
  3
CVIEWDETAILSTYLE
350
552
  3
CVIEWSECTIONSTYLE
350
553
  3
DIMASSOC
350
557
  3
INDEXCTL
350
556
  3
LAYEREVAL
350
5A8
  3
LAYERNOTIFY
350
5A9
  3
LIGHTINGUNITS
350
5A7
  3
MSLTSCALE
350
5A6
  3
SORTENTS
350
555
  0
XRECORD
  5
540
102
{ACAD_REACTORS
330
53F
102
}
330
53F
100
AcDbXrecord
280
     1
290
     1
  0
XRECORD
  5
542
102
{ACAD_REACTORS
330
541
102
}
330
541
100
AcDbXrecord
280
     1
290
     1
  0
XRECORD
  5
544
102
{ACAD_REACTORS
330
543
102
}
330
543
100
AcDbXrecord
280
     1
290
     1
  0
XRECORD
  5
546
102
{ACAD_REACTORS
330
545
102
}
330
545
100
AcDbXrecord
280
     1
290
     1
  0
XRECORD
  5
548
102
{ACAD_REACTORS
330
547
102
}
330
547
100
AcDbXrecord
280
     1
290
     1
  0
XRECORD
  5
54A
102
{ACAD_REACTORS
330
549
102
}
330
549
100
AcDbXrecord
280
     1
290
     1
  0
XRECORD
  5
54C
102
{ACAD_REACTORS
330
54B
102
}
330
54B
100
AcDbXrecord
280
     1
290
     1
  0
XRECORD
  5
54E
102
{ACAD_REACTORS
330
54D
102
}
330
54D
100
AcDbXrecord
280
     1
290
     1
  0
ACDBDETAILVIEWSTYLE
  5
6A
102
{ACAD_REACTORS
330
69
102
}
330
69
100
AcDbModelDocViewStyle
 70
     0
  3
Imperial24
290
     0
300
Imperial24
 90
        0
100
AcDbDetailViewStyle
 70
     0
 71
     0
 90
        3
 71
     1
340
55
 62
   256
 40
0.24
340
0
 62
   256
 40
0.24
300

 40
0.36
280
     3
 71
     2
340
5C
 90
       25
 62
   256
 71
     3
340
55
 62
   256
 40
0.24
 90
        1
 40
0.75
 90
        1
300
%<\AcVar ViewType \f "%tc1">% %<\AcVar ViewDetailId>%\PSCALE %<\AcVar ViewScale \f "%sn">%
 71
     4
340
5C
 90
       25
 62
   256
340
5C
 90
       25
 62
   256
280
     0
  0
ACDBDETAILVIEWSTYLE
  5
53A
102
{ACAD_REACTORS
330
69
102
}
330
69
100
AcDbModelDocViewStyle
 70
     0
  3
Metric50
290
     0
300
Metric50
 90
        0
100
AcDbDetailViewStyle
 70
     0
 71
     0
 90
        3
 71
     1
340
55
 62
   256
 40
5.0
340
0
 62
   256
 40
5.0
300

 40
0.0
280
     1
 71
     2
340
5C
 90
       25
 62
   256
 71
     3
340
55
 62
   256
 40
5.0
 90
        0
 40
15.0
 90
        1
300
%<\AcVar ViewDetailId>% (%<\AcVar ViewScale \f "%sn">%)
 71
     4
340
5C
 90
       25
 62
   256
340
5C
 90
       25
 62
   256
280
     0
  0
LAYOUT
  5
72
102
{ACAD_REACTORS
330
61
102
}
330
61
100
AcDbPlotSettings
  1

  2
OKI B821
  4

  6

 40
0.0
 41
0.0
 42
0.0
 43
0.0
 44
0.0
 45
0.0
 46
0.0
 47
0.0
 48
0.0
 49
0.0
140
0.0
141
0.0
142
1.0
143
1.0
 70
  1712
 72
     0
 73
     0
 74
     0
  7

 75
     0
147
1.0
 76
     0
 77
     2
 78
   300
148
0.0
149
0.0
100
AcDbLayout
  1
Model
 70
     1
 71
     0
 10
0.0
 20
0.0
 11
12.0
 21
9.0
 12
0.0
 22
0.0
 32
0.0
 14
0.0
 24
0.0
 34
0.0
 15
0.0
 25
0.0
 35
0.0
146
0.0
 13
0.0
 23
0.0
 33
0.0
 16
1.0
 26
0.0
 36
0.0
 17
0.0
 27
1.0
 37
0.0
 76
     0
330
6F
331
84
  0
LAYOUT
  5
6E
102
{ACAD_REACTORS
330
61
102
}
330
61
100
AcDbPlotSettings
  1

  2
OKI B821
  4

  6

 40
0.0
 41
0.0
 42
0.0
 43
0.0
 44
0.0
 45
0.0
 46
0.0
 47
0.0
 48
0.0
 49
0.0
140
0.0
141
0.0
142
1.0
143
1.0
 70
   688
 72
     0
 73
     0
 74
     5
  7

 75
    16
147
1.0
 76
     0
 77
     2
 78
   300
148
0.0
149
0.0
100
AcDbLayout
  1
レイアウト1
 70
     1
 71
     1
 10
0.0
 20
0.0
 11
12.0
 21
9.0
 12
0.0
 22
0.0
 32
0.0
 14
1.000000000000000E+20
 24
1.000000000000000E+20
 34
1.000000000000000E+20
 15
-1.000000000000000E+20
 25
-1.000000000000000E+20
 35
-1.000000000000000E+20
146
0.0
 13
0.0
 23
0.0
 33
0.0
 16
1.0
 26
0.0
 36
0.0
 17
0.0
 27
1.0
 37
0.0
 76
     0
330
6B
  0
MATERIAL
  5
19
102
{ACAD_XDICTIONARY
360
1A
102
}
102
{ACAD_REACTORS
330
10
102
}
330
10
100
AcDbMaterial
  1
ByBlock
 72
     0
 43
0.0208333333333333
 43
0.0
 43
0.0
 43
0.0
 43
0.0
 43
0.0208333333333333
 43
0.0
 43
0.0
 43
0.0
 43
0.0
 43
1.0
 43
0.0
 43
0.0
 43
0.0
 43
0.0
 43
1.0
 77
     0
 47
0.0208333333333333
 47
0.0
 47
0.0
 47
0.0
 47
0.0
 47
0.0208333333333333
 47
0.0
 47
0.0
 47
0.0
 47
0.0
 47
1.0
 47
0.0
 47
0.0
 47
0.0
 47
0.0
 47
1.0
171
     0
 49
0.0208333333333333
 49
0.0
 49
0.0
 49
0.0
 49
0.0
 49
0.0208333333333333
 49
0.0
 49
0.0
 49
0.0
 49
0.0
 49
1.0
 49
0.0
 49
0.0
 49
0.0
 49
0.0
 49
1.0
175
     0
142
0.0208333333333333
142
0.0
142
0.0
142
0.0
142
0.0
142
0.0208333333333333
142
0.0
142
0.0
142
0.0
142
0.0
142
1.0
142
0.0
142
0.0
142
0.0
142
0.0
142
1.0
179
     0
144
0.0208333333333333
144
0.0
144
0.0
144
0.0
144
0.0
144
0.0208333333333333
144
0.0
144
0.0
144
0.0
144
0.0
144
1.0
144
0.0
144
0.0
144
0.0
144
0.0
144
1.0
147
0.0208333333333333
147
0.0
147
0.0
147
0.0
147
0.0
147
0.0208333333333333
147
0.0
147
0.0
147
0.0
147
0.0
147
1.0
147
0.0
147
0.0
147
0.0
147
0.0
147
1.0
  0
MATERIAL
  5
11
102
{ACAD_XDICTIONARY
360
12
102
}
102
{ACAD_REACTORS
330
10
102
}
330
10
100
AcDbMaterial
  1
ByLayer
 72
     0
 43
0.0208333333333333
 43
0.0
 43
0.0
 43
0.0
 43
0.0
 43
0.0208333333333333
 43
0.0
 43
0.0
 43
0.0
 43
0.0
 43
1.0
 43
0.0
 43
0.0
 43
0.0
 43
0.0
 43
1.0
 77
     0
 47
0.0208333333333333
 47
0.0
 47
0.0
 47
0.0
 47
0.0
 47
0.0208333333333333
 47
0.0
 47
0.0
 47
0.0
 47
0.0
 47
1.0
 47
0.0
 47
0.0
 47
0.0
 47
0.0
 47
1.0
171
     0
 49
0.0208333333333333
 49
0.0
 49
0.0
 49
0.0
 49
0.0
 49
0.0208333333333333
 49
0.0
 49
0.0
 49
0.0
 49
0.0
 49
1.0
 49
0.0
 49
0.0
 49
0.0
 49
0.0
 49
1.0
175
     0
142
0.0208333333333333
142
0.0
142
0.0
142
0.0
142
0.0
142
0.0208333333333333
142
0.0
142
0.0
142
0.0
142
0.0
142
1.0
142
0.0
142
0.0
142
0.0
142
0.0
142
1.0
179
     0
144
0.0208333333333333
144
0.0
144
0.0
144
0.0
144
0.0
144
0.0208333333333333
144
0.0
144
0.0
144
0.0
144
0.0
144
1.0
144
0.0
144
0.0
144
0.0
144
0.0
144
1.0
147
0.0208333333333333
147
0.0
147
0.0
147
0.0
147
0.0
147
0.0208333333333333
147
0.0
147
0.0
147
0.0
147
0.0
147
1.0
147
0.0
147
0.0
147
0.0
147
0.0
147
1.0
  0
MATERIAL
  5
21
102
{ACAD_XDICTIONARY
360
22
102
}
102
{ACAD_REACTORS
330
10
102
}
330
10
100
AcDbMaterial
  1
Global
 72
     0
 43
0.0208333333333333
 43
0.0
 43
0.0
 43
0.0
 43
0.0
 43
0.0208333333333333
 43
0.0
 43
0.0
 43
0.0
 43
0.0
 43
1.0
 43
0.0
 43
0.0
 43
0.0
 43
0.0
 43
1.0
 77
     0
 47
0.0208333333333333
 47
0.0
 47
0.0
 47
0.0
 47
0.0
 47
0.0208333333333333
 47
0.0
 47
0.0
 47
0.0
 47
0.0
 47
1.0
 47
0.0
 47
0.0
 47
0.0
 47
0.0
 47
1.0
171
     0
 49
0.0208333333333333
 49
0.0
 49
0.0
 49
0.0
 49
0.0
 49
0.0208333333333333
 49
0.0
 49
0.0
 49
0.0
 49
0.0
 49
1.0
 49
0.0
 49
0.0
 49
0.0
 49
0.0
 49
1.0
175
     0
142
0.0208333333333333
142
0.0
142
0.0
142
0.0
142
0.0
142
0.0208333333333333
142
0.0
142
0.0
142
0.0
142
0.0
142
1.0
142
0.0
142
0.0
142
0.0
142
0.0
142
1.0
179
     0
144
0.0208333333333333
144
0.0
144
0.0
144
0.0
144
0.0
144
0.0208333333333333
144
0.0
144
0.0
144
0.0
144
0.0
144
1.0
144
0.0
144
0.0
144
0.0
144
0.0
144
1.0
147
0.0208333333333333
147
0.0
147
0.0
147
0.0
147
0.0
147
0.0208333333333333
147
0.0
147
0.0
147
0.0
147
0.0
147
1.0
147
0.0
147
0.0
147
0.0
147
0.0
147
1.0
  0
MLEADERSTYLE
  5
66
102
{ACAD_REACTORS
330
65
102
}
330
65
100
AcDbMLeaderStyle
179
     2
170
     2
171
     1
172
     0
 90
        2
 40
0.0
 41
0.0
173
     1
 91
-1056964608
340
5A
 92
       -2
290
     1
 42
0.09
291
     1
 43
0.36
  3
Standard
 44
0.18
300

342
55
174
     1
178
     6
175
     1
176
     0
 93
-1056964608
 45
0.18
292
     0
297
     0
 46
0.18
 94
-1056964608
 47
1.0
 49
1.0
140
1.0
293
     1
141
0.0
294
     1
177
     0
142
1.0
295
     0
296
     0
143
0.125
271
     0
272
     9
273
     9
298
     0
1001
ACAD_MLEADERVER
1070
     2
  0
MLINESTYLE
  5
5F
102
{ACAD_REACTORS
330
5E
102
}
330
5E
100
AcDbMlineStyle
  2
STANDARD
 70
     0
  3

 62
   256
 51
90.0
 52
90.0
 71
     2
 49
0.5
 62
   256
  6
BYLAYER
 49
-0.5
 62
   256
  6
BYLAYER
  0
ACDBPLACEHOLDER
  5
F
102
{ACAD_REACTORS
330
E
102
}
330
E
  0
SCALE
  5
43
102
{ACAD_REACTORS
330
42
102
}
330
42
100
AcDbScale
 70
     0
300
1:1
140
1.0
141
1.0
290
     1
  0
SCALE
  5
44
102
{ACAD_REACTORS
330
42
102
}
330
42
100
AcDbScale
 70
     0
300
1/128" = 1'-0"
140
0.0078125
141
12.0
290
     0
  0
SCALE
  5
45
102
{ACAD_REACTORS
330
42
102
}
330
42
100
AcDbScale
 70
     0
300
1/64" = 1'-0"
140
0.015625
141
12.0
290
     0
  0
SCALE
  5
46
102
{ACAD_REACTORS
330
42
102
}
330
42
100
AcDbScale
 70
     0
300
1/32" = 1'-0"
140
0.03125
141
12.0
290
     0
  0
SCALE
  5
47
102
{ACAD_REACTORS
330
42
102
}
330
42
100
AcDbScale
 70
     0
300
1/16" = 1'-0"
140
0.0625
141
12.0
290
     0
  0
SCALE
  5
48
102
{ACAD_REACTORS
330
42
102
}
330
42
100
AcDbScale
 70
     0
300
3/32" = 1'-0"
140
0.09375
141
12.0
290
     0
  0
SCALE
  5
49
102
{ACAD_REACTORS
330
42
102
}
330
42
100
AcDbScale
 70
     0
300
1/8" = 1'-0"
140
0.125
141
12.0
290
     0
  0
SCALE
  5
4A
102
{ACAD_REACTORS
330
42
102
}
330
42
100
AcDbScale
 70
     0
300
3/16" = 1'-0"
140
0.1875
141
12.0
290
     0
  0
SCALE
  5
4B
102
{ACAD_REACTORS
330
42
102
}
330
42
100
AcDbScale
 70
     0
300
1/4" = 1'-0"
140
0.25
141
12.0
290
     0
  0
SCALE
  5
4C
102
{ACAD_REACTORS
330
42
102
}
330
42
100
AcDbScale
 70
     0
300
3/8" = 1'-0"
140
0.375
141
12.0
290
     0
  0
SCALE
  5
4D
102
{ACAD_REACTORS
330
42
102
}
330
42
100
AcDbScale
 70
     0
300
1/2" = 1'-0"
140
0.5
141
12.0
290
     0
  0
SCALE
  5
4E
102
{ACAD_REACTORS
330
42
102
}
330
42
100
AcDbScale
 70
     0
300
3/4" = 1'-0"
140
0.75
141
12.0
290
     0
  0
SCALE
  5
4F
102
{ACAD_REACTORS
330
42
102
}
330
42
100
AcDbScale
 70
     0
300
1" = 1'-0"
140
1.0
141
12.0
290
     0
  0
SCALE
  5
50
102
{ACAD_REACTORS
330
42
102
}
330
42
100
AcDbScale
 70
     0
300
1-1/2" = 1'-0"
140
1.5
141
12.0
290
     0
  0
SCALE
  5
51
102
{ACAD_REACTORS
330
42
102
}
330
42
100
AcDbScale
 70
     0
300
3" = 1'-0"
140
3.0
141
12.0
290
     0
  0
SCALE
  5
52
102
{ACAD_REACTORS
330
42
102
}
330
42
100
AcDbScale
 70
     0
300
6" = 1'-0"
140
6.0
141
12.0
290
     0
  0
SCALE
  5
53
102
{ACAD_REACTORS
330
42
102
}
330
42
100
AcDbScale
 70
     0
300
1'-0" = 1'-0"
140
12.0
141
12.0
290
     0
  0
ACDBSECTIONVIEWSTYLE
  5
68
102
{ACAD_REACTORS
330
67
102
}
330
67
100
AcDbModelDocViewStyle
 70
     0
  3
Imperial24
290
     0
300
Imperial24
 90
        0
100
AcDbSectionViewStyle
 70
     0
 71
     0
 90
       78
 71
     1
340
55
 62
   256
 40
0.24
340
0
340
0
 62
   256
 40
0.24
300
I, O, Q, S, X, Z
 40
0.48
 90
        3
 40
0.18
 90
        1
 71
     2
340
5C
 90
       25
 62
   256
340
5C
 90
       50
 62
   256
 40
0.24
 40
0.0
 40
0.24
 71
     3
340
55
 62
   256
 40
0.24
 90
        1
 40
0.75
 90
        1
300
%<\AcVar ViewType \f "%tc1">% %<\AcVar ViewSectionStartId>%-%<\AcVar ViewSectionEndId>%\PSCALE %<\AcVar ViewScale \f "%sn">%
 71
     4
 62
   256
 62
   257
300
ANSI31
 40
1.0
 90
        0
290
     0
290
     0
 90
        6
 40
0.0
 40
1.570796326794896
 40
0.2617993877991494
 40
1.308996938995747
 40
-0.2617993877991494
 40
1.832595714594045
  0
ACDBSECTIONVIEWSTYLE
  5
539
102
{ACAD_REACTORS
330
67
102
}
330
67
100
AcDbModelDocViewStyle
 70
     0
  3
Metric50
290
     0
300
Metric50
 90
        0
100
AcDbSectionViewStyle
 70
     0
 71
     0
 90
      102
 71
     1
340
55
 62
   256
 40
5.0
340
0
340
0
 62
   256
 40
5.0
300
I, O, Q, S, X, Z
 40
10.0
 90
        0
 40
2.5
 90
        0
 71
     2
340
5C
 90
       25
 62
   256
340
5C
 90
       50
 62
   256
 40
5.0
 40
2.5
 40
5.0
 71
     3
340
55
 62
   256
 40
5.0
 90
        0
 40
15.0
 90
        1
300
%<\AcVar ViewSectionStartId>%-%<\AcVar ViewSectionEndId>% (%<\AcVar ViewScale \f "%sn">%)
 71
     4
 62
   256
 62
   257
300
ANSI31
 40
1.0
 90
        0
290
     0
290
     0
 90
        6
 40
0.0
 40
1.570796326794896
 40
0.2617993877991494
 40
1.308996938995747
 40
-0.2617993877991494
 40
1.832595714594045
  0
TABLESTYLE
  5
64
102
{ACAD_XDICTIONARY
360
55A
102
}
102
{ACAD_REACTORS
330
63
102
}
330
63
100
AcDbTableStyle
280
     0
  3
Standard
 70
     0
 71
     0
 40
0.06
 41
0.06
280
     0
281
     0
  7
STANDARD
140
0.18
170
     2
 62
     0
 63
     7
283
     0
 90
      512
 91
        0
  1

274
    -2
284
     1
 64
     0
275
    -2
285
     1
 65
     0
276
    -2
286
     1
 66
     0
277
    -2
287
     1
 67
     0
278
    -2
288
     1
 68
     0
279
    -2
289
     1
 69
     0
  7
STANDARD
140
0.25
170
     5
 62
     0
 63
     7
283
     0
 90
      512
 91
        0
  1

274
    -2
284
     1
 64
     0
275
    -2
285
     1
 65
     0
276
    -2
286
     1
 66
     0
277
    -2
287
     1
 67
     0
278
    -2
288
     1
 68
     0
279
    -2
289
     1
 69
     0
  7
STANDARD
140
0.18
170
     5
 62
     0
 63
     7
283
     0
 90
      512
 91
        0
  1

274
    -2
284
     1
 64
     0
275
    -2
285
     1
 65
     0
276
    -2
286
     1
 66
     0
277
    -2
287
     1
 67
     0
278
    -2
288
     1
 68
     0
279
    -2
289
     1
 69
     0
  0
VISUALSTYLE
  5
2F
102
{ACAD_REACTORS
330
29
102
}
330
29
100
AcDbVisualStyle
  2

 70
     4
177
     3
291
     0
 70
    58
 90
        0
176
     1
 90
        2
176
     1
 90
        0
176
     1
 90
        0
176
     1
 40
0.6
176
     1
 40
30.0
176
     1
 62
     7
176
     1
 90
        1
176
     1
 90
        4
176
     1
 62
     7
176
     1
 62
   257
176
     1
 90
        1
176
     1
 90
        1
176
     1
 40
1.0
176
     1
 90
        0
176
     1
 62
   257
176
     1
 40
1.0
176
     1
 90
        1
176
     1
 90
        6
176
     1
 90
        2
176
     1
 62
     7
176
     1
 90
        5
176
     1
 90
        0
176
     1
 90
        0
176
     1
290
     0
176
     1
 90
        1
176
     1
 40
0.0
176
     1
 90
        0
176
     1
290
     1
176
     1
290
     1
176
     1
290
     0
176
     1
290
     0
176
     1
290
     0
176
     1
290
     0
176
     1
290
     0
176
     1
290
     0
176
     1
290
     0
176
     1
 90
       50
176
     1
 40
0.0
176
     1
 40
1.0
176
     1
 90
        0
176
     1
 62
    18
420
        0
176
     1
 90
       50
176
     1
 90
        3
176
     1
 62
     5
420
      255
176
     1
290
     0
176
     1
 90
       50
176
     1
 90
       50
176
     1
 90
       50
176
     1
290
     0
176
     1
 90
       50
176
     1
 62
   256
176
     0
 40
1.0
176
     0
 90
        2
176
     1
  1
strokes_ogs.tif
176
     1
290
     0
176
     1
 40
1.0
176
     1
 40
1.0
176
     1
1001
ACAD
1000
AcDbSavedByObjectVersion
1070
     0
  0
VISUALSTYLE
  5
2E
102
{ACAD_REACTORS
330
29
102
}
330
29
100
AcDbVisualStyle
  2

 70
     7
177
     3
291
     1
 70
    58
 90
        1
176
     1
 90
        0
176
     1
 90
        1
176
     1
 90
        0
176
     1
 40
0.6
176
     1
 40
30.0
176
     1
 62
     7
176
     1
 90
        0
176
     1
 90
        4
176
     1
 62
     7
176
     1
 62
   257
176
     1
 90
        1
176
     1
 90
        1
176
     1
 40
1.0
176
     1
 90
        8
176
     1
 62
     7
176
     1
 40
1.0
176
     1
 90
        1
176
     1
 90
        6
176
     1
 90
        2
176
     1
 62
     7
176
     1
 90
        5
176
     1
 90
        0
176
     1
 90
        0
176
     1
290
     0
176
     1
 90
        1
176
     1
 40
0.0
176
     1
 90
        0
176
     1
290
     0
176
     1
290
     1
176
     1
290
     1
176
     1
290
     0
176
     1
290
     0
176
     1
290
     0
176
     1
290
     0
176
     1
290
     0
176
     1
290
     0
176
     1
 90
       50
176
     1
 40
0.0
176
     1
 40
1.0
176
     1
 90
        0
176
     1
 62
    18
420
        0
176
     1
 90
       50
176
     1
 90
        3
176
     1
 62
     5
420
      255
176
     1
290
     0
176
     1
 90
       50
176
     1
 90
       50
176
     1
 90
       50
176
     1
290
     0
176
     1
 90
       50
176
     1
 62
   256
176
     0
 40
1.0
176
     0
 90
        2
176
     1
  1
strokes_ogs.tif
176
     1
290
     0
176
     1
 40
1.0
176
     1
 40
1.0
176
     1
1001
ACAD
1000
AcDbSavedByObjectVersion
1070
     0
  0
VISUALSTYLE
  5
35
102
{ACAD_REACTORS
330
29
102
}
330
29
100
AcDbVisualStyle
  2

 70
    12
177
     3
291
     1
 70
    58
 90
        2
176
     1
 90
        2
176
     1
 90
        0
176
     1
 90
        0
176
     1
 40
0.6
176
     1
 40
30.0
176
     1
 62
     7
176
     1
 90
        1
176
     1
 90
        4
176
     1
 62
     7
176
     1
 62
   257
176
     1
 90
        1
176
     1
 90
        1
176
     1
 40
1.0
176
     1
 90
        8
176
     1
 62
     7
176
     1
 40
1.0
176
     1
 90
        1
176
     1
 90
        6
176
     1
 90
        2
176
     1
 62
     7
176
     1
 90
        5
176
     1
 90
        0
176
     1
 90
        0
176
     1
290
     0
176
     1
 90
        1
176
     1
 40
50.0
176
     1
 90
        0
176
     1
290
     0
176
     1
290
     1
176
     1
290
     1
176
     1
290
     0
176
     1
290
     0
176
     1
290
     0
176
     1
290
     0
176
     1
290
     0
176
     1
290
     0
176
     1
 90
       50
176
     1
 40
0.0
176
     1
 40
1.0
176
     1
 90
        0
176
     1
 62
    18
420
        0
176
     1
 90
       50
176
     1
 90
        3
176
     1
 62
     5
420
      255
176
     1
290
     0
176
     1
 90
       50
176
     1
 90
       50
176
     1
 90
       50
176
     1
290
     0
176
     1
 90
       50
176
     1
 62
   256
176
     0
 40
1.0
176
     0
 90
        2
176
     1
  1
strokes_ogs.tif
176
     1
290
     0
176
     1
 40
1.0
176
     1
 40
1.0
176
     1
1001
ACAD
1000
AcDbSavedByObjectVersion
1070
     0
  0
VISUALSTYLE
  5
39
102
{ACAD_REACTORS
330
29
102
}
330
29
100
AcDbVisualStyle
  2

 70
    16
177
     3
291
     1
 70
    58
 90
        2
176
     1
 90
        2
176
     1
 90
        3
176
     1
 90
        0
176
     1
 40
0.6
176
     1
 40
30.0
176
     1
 62
     8
176
     1
 90
        1
176
     1
 90
        4
176
     1
 62
     7
176
     1
 62
   257
176
     1
 90
        1
176
     1
 90
        1
176
     1
 40
1.0
176
     1
 90
        8
176
     1
 62
     8
176
     1
 40
1.0
176
     1
 90
        1
176
     1
 90
        6
176
     1
 90
        2
176
     1
 62
     7
176
     1
 90
        5
176
     1
 90
        0
176
     1
 90
        0
176
     1
290
     0
176
     1
 90
        1
176
     1
 40
0.0
176
     1
 90
        0
176
     1
290
     0
176
     1
290
     1
176
     1
290
     1
176
     1
290
     0
176
     1
290
     0
176
     1
290
     0
176
     1
290
     0
176
     1
290
     0
176
     1
290
     0
176
     1
 90
       50
176
     1
 40
0.0
176
     1
 40
1.0
176
     1
 90
        0
176
     1
 62
    18
420
        0
176
     1
 90
       50
176
     1
 90
        3
176
     1
 62
     5
420
      255
176
     1
290
     0
176
     1
 90
       50
176
     1
 90
       50
176
     1
 90
       50
176
     1
290
     0
176
     1
 90
       50
176
     1
 62
   256
176
     0
 40
1.0
176
     0
 90
        2
176
     1
  1
strokes_ogs.tif
176
     1
290
     0
176
     1
 40
1.0
176
     1
 40
1.0
176
     1
1001
ACAD
1000
AcDbSavedByObjectVersion
1070
     0
  0
VISUALSTYLE
  5
32
102
{ACAD_REACTORS
330
29
102
}
330
29
100
AcDbVisualStyle
  2

 70
     9
177
     3
291
     0
 70
    58
 90
        3
176
     1
 90
        2
176
     1
 90
        0
176
     1
 90
        0
176
     1
 40
0.6
176
     1
 40
30.0
176
     1
 62
     7
176
     1
 90
        2
176
     1
 90
        2
176
     1
 62
     7
176
     1
 62
   257
176
     1
 90
        1
176
     1
 90
        1
176
     1
 40
179.0
176
     1
 90
        8
176
     1
 62
     7
176
     1
 40
1.0
176
     1
 90
        1
176
     1
 90
        6
176
     1
 90
        2
176
     1
 62
     7
176
     1
 90
        3
176
     1
 90
        0
176
     1
 90
        0
176
     1
290
     0
176
     1
 90
        1
176
     1
 40
0.0
176
     1
 90
        0
176
     1
290
     0
176
     1
290
     1
176
     1
290
     1
176
     1
290
     0
176
     1
290
     0
176
     1
290
     0
176
     1
290
     0
176
     1
290
     0
176
     1
290
     0
176
     1
 90
       50
176
     1
 40
0.0
176
     1
 40
1.0
176
     1
 90
        0
176
     1
 62
    18
420
        0
176
     1
 90
       50
176
     1
 90
        3
176
     1
 62
     5
420
      255
176
     1
290
     0
176
     1
 90
       50
176
     1
 90
       50
176
     1
 90
       50
176
     1
290
     0
176
     1
 90
       50
176
     1
 62
   256
176
     0
 40
1.0
176
     0
 90
        2
176
     1
  1
strokes_ogs.tif
176
     1
290
     0
176
     1
 40
1.0
176
     1
 40
1.0
176
     1
1001
ACAD
1000
AcDbSavedByObjectVersion
1070
     0
  0
VISUALSTYLE
  5
34
102
{ACAD_REACTORS
330
29
102
}
330
29
100
AcDbVisualStyle
  2

 70
    11
177
     3
291
     1
 70
    58
 90
        2
176
     1
 90
        2
176
     1
 90
        0
176
     1
 90
        0
176
     1
 40
0.6
176
     1
 40
30.0
176
     1
 62
     7
176
     1
 90
        1
176
     1
 90
        4
176
     1
 62
     7
176
     1
 62
   257
176
     1
 90
        1
176
     1
 90
        1
176
     1
 40
1.0
176
     1
 90
        8
176
     1
 62
     7
176
     1
 40
1.0
176
     1
 90
        1
176
     1
 90
        6
176
     1
 90
        2
176
     1
 62
     7
176
     1
 90
        5
176
     1
 90
        0
176
     1
 90
        0
176
     1
290
     0
176
     1
 90
        1
176
     1
 40
-50.0
176
     1
 90
        0
176
     1
290
     0
176
     1
290
     1
176
     1
290
     1
176
     1
290
     0
176
     1
290
     0
176
     1
290
     0
176
     1
290
     0
176
     1
290
     0
176
     1
290
     0
176
     1
 90
       50
176
     1
 40
0.0
176
     1
 40
1.0
176
     1
 90
        0
176
     1
 62
    18
420
        0
176
     1
 90
       50
176
     1
 90
        3
176
     1
 62
     5
420
      255
176
     1
290
     0
176
     1
 90
       50
176
     1
 90
       50
176
     1
 90
       50
176
     1
290
     0
176
     1
 90
       50
176
     1
 62
   256
176
     0
 40
1.0
176
     0
 90
        2
176
     1
  1
strokes_ogs.tif
176
     1
290
     0
176
     1
 40
1.0
176
     1
 40
1.0
176
     1
1001
ACAD
1000
AcDbSavedByObjectVersion
1070
     0
  0
VISUALSTYLE
  5
41
102
{ACAD_REACTORS
330
29
102
}
330
29
100
AcDbVisualStyle
  2

 70
    22
177
     3
291
     1
 70
    58
 90
        2
176
     0
 90
        2
176
     0
 90
        0
176
     0
 90
        0
176
     0
 40
0.6
176
     0
 40
30.0
176
     0
 62
     7
176
     0
 90
        1
176
     0
 90
        4
176
     0
 62
     7
176
     0
 62
   257
176
     0
 90
        1
176
     0
 90
        1
176
     0
 40
1.0
176
     0
 90
        8
176
     2
 62
     7
176
     0
 40
1.0
176
     0
 90
        1
176
     0
 90
        6
176
     0
 90
        2
176
     0
 62
     7
176
     0
 90
        5
176
     0
 90
        0
176
     0
 90
        0
176
     0
290
     0
176
     0
 90
        1
176
     0
 40
0.0
176
     0
 90
        0
176
     0
290
     0
176
     1
290
     1
176
     1
290
     1
176
     1
290
     0
176
     1
290
     0
176
     1
290
     0
176
     1
290
     0
176
     1
290
     0
176
     1
290
     0
176
     1
 90
       50
176
     0
 40
0.0
176
     0
 40
1.0
176
     0
 90
        0
176
     0
 62
    18
420
        0
176
     0
 90
       50
176
     0
 90
        3
176
     0
 62
     5
420
      255
176
     0
290
     0
176
     1
 90
       50
176
     0
 90
       50
176
     0
 90
       50
176
     0
290
     0
176
     1
 90
       50
176
     0
 62
   256
176
     0
 40
1.0
176
     0
 90
        2
176
     0
  1
strokes_ogs.tif
176
     0
290
     0
176
     1
 40
1.0
176
     0
 40
1.0
176
     0
1001
ACAD
1000
AcDbSavedByObjectVersion
1070
     0
  0
VISUALSTYLE
  5
38
102
{ACAD_REACTORS
330
29
102
}
330
29
100
AcDbVisualStyle
  2

 70
    15
177
     3
291
     1
 70
    58
 90
        2
176
     1
 90
        2
176
     1
 90
        0
176
     1
 90
        0
176
     1
 40
0.6
176
     1
 40
30.0
176
     1
 62
     7
176
     1
 90
        1
176
     1
 90
        4
176
     1
 62
     7
176
     1
 62
   257
176
     1
 90
        1
176
     1
 90
        1
176
     1
 40
1.0
176
     1
 90
        8
176
     1
 62
     7
176
     1
 40
1.0
176
     1
 90
        1
176
     1
 90
        6
176
     1
 90
        2
176
     1
 62
     7
176
     1
 90
        5
176
     1
 90
        0
176
     1
 90
        0
176
     1
290
     0
176
     1
 90
        1
176
     1
 40
0.0
176
     1
 90
        0
176
     1
290
     0
176
     1
290
     1
176
     1
290
     1
176
     1
290
     0
176
     1
290
     0
176
     1
290
     0
176
     1
290
     0
176
     1
290
     0
176
     1
290
     0
176
     1
 90
       50
176
     1
 40
0.0
176
     1
 40
1.0
176
     1
 90
        0
176
     1
 62
    18
420
        0
176
     1
 90
       50
176
     1
 90
        3
176
     1
 62
     5
420
      255
176
     1
290
     0
176
     1
 90
       50
176
     1
 90
       50
176
     1
 90
       50
176
     1
290
     0
176
     1
 90
       50
176
     1
 62
   256
176
     0
 40
1.0
176
     0
 90
        2
176
     1
  1
strokes_ogs.tif
176
     1
290
     0
176
     1
 40
1.0
176
     1
 40
1.0
176
     1
1001
ACAD
1000
AcDbSavedByObjectVersion
1070
     0
  0
VISUALSTYLE
  5
2A
102
{ACAD_REACTORS
330
29
102
}
330
29
100
AcDbVisualStyle
  2

 70
     0
177
     3
291
     1
 70
    58
 90
        2
176
     1
 90
        1
176
     1
 90
        1
176
     1
 90
        2
176
     1
 40
0.6
176
     1
 40
30.0
176
     1
 62
     7
176
     1
 90
        0
176
     1
 90
        0
176
     1
 62
     7
176
     1
 62
   257
176
     1
 90
        1
176
     1
 90
        1
176
     1
 40
1.0
176
     1
 90
        8
176
     1
 62
     7
176
     1
 40
1.0
176
     1
 90
        1
176
     1
 90
        6
176
     1
 90
        2
176
     1
 62
     7
176
     1
 90
        5
176
     1
 90
        0
176
     1
 90
        0
176
     1
290
     0
176
     1
 90
       13
176
     1
 40
0.0
176
     1
 90
        0
176
     1
290
     0
176
     1
290
     1
176
     1
290
     1
176
     1
290
     0
176
     1
290
     0
176
     1
290
     0
176
     1
290
     0
176
     1
290
     0
176
     1
290
     0
176
     1
 90
       50
176
     1
 40
0.0
176
     1
 40
1.0
176
     1
 90
        0
176
     1
 62
    18
420
        0
176
     1
 90
       50
176
     1
 90
        3
176
     1
 62
     5
420
      255
176
     1
290
     0
176
     1
 90
       50
176
     1
 90
       50
176
     1
 90
       50
176
     1
290
     0
176
     1
 90
       50
176
     1
 62
   256
176
     0
 40
1.0
176
     0
 90
        2
176
     1
  1
strokes_ogs.tif
176
     1
290
     0
176
     1
 40
1.0
176
     1
 40
1.0
176
     1
1001
ACAD
1000
AcDbSavedByObjectVersion
1070
     0
  0
VISUALSTYLE
  5
2B
102
{ACAD_REACTORS
330
29
102
}
330
29
100
AcDbVisualStyle
  2

 70
     1
177
     3
291
     1
 70
    58
 90
        2
176
     1
 90
        1
176
     1
 90
        1
176
     1
 90
        2
176
     1
 40
0.6
176
     1
 40
30.0
176
     1
 62
     7
176
     1
 90
        1
176
     1
 90
        0
176
     1
 62
     7
176
     1
 62
   257
176
     1
 90
        1
176
     1
 90
        1
176
     1
 40
1.0
176
     1
 90
        0
176
     1
 62
   257
176
     1
 40
1.0
176
     1
 90
        1
176
     1
 90
        6
176
     1
 90
        2
176
     1
 62
     7
176
     1
 90
        5
176
     1
 90
        0
176
     1
 90
        0
176
     1
290
     0
176
     1
 90
       13
176
     1
 40
0.0
176
     1
 90
        0
176
     1
290
     0
176
     1
290
     1
176
     1
290
     1
176
     1
290
     0
176
     1
290
     0
176
     1
290
     0
176
     1
290
     0
176
     1
290
     0
176
     1
290
     0
176
     1
 90
       50
176
     1
 40
0.0
176
     1
 40
1.0
176
     1
 90
        0
176
     1
 62
    18
420
        0
176
     1
 90
       50
176
     1
 90
        3
176
     1
 62
     5
420
      255
176
     1
290
     0
176
     1
 90
       50
176
     1
 90
       50
176
     1
 90
       50
176
     1
290
     0
176
     1
 90
       50
176
     1
 62
   256
176
     0
 40
1.0
176
     0
 90
        2
176
     1
  1
strokes_ogs.tif
176
     1
290
     0
176
     1
 40
1.0
176
     1
 40
1.0
176
     1
1001
ACAD
1000
AcDbSavedByObjectVersion
1070
     0
  0
VISUALSTYLE
  5
2C
102
{ACAD_REACTORS
330
29
102
}
330
29
100
AcDbVisualStyle
  2

 70
     2
177
     3
291
     1
 70
    58
 90
        2
176
     1
 90
        2
176
     1
 90
        1
176
     1
 90
        2
176
     1
 40
0.6
176
     1
 40
30.0
176
     1
 62
     7
176
     1
 90
        0
176
     1
 90
        0
176
     1
 62
     7
176
     1
 62
   257
176
     1
 90
        1
176
     1
 90
        1
176
     1
 40
1.0
176
     1
 90
        0
176
     1
 62
     7
176
     1
 40
1.0
176
     1
 90
        1
176
     1
 90
        6
176
     1
 90
        2
176
     1
 62
     7
176
     1
 90
        5
176
     1
 90
        0
176
     1
 90
        0
176
     1
290
     0
176
     1
 90
       13
176
     1
 40
0.0
176
     1
 90
        0
176
     1
290
     0
176
     1
290
     1
176
     1
290
     1
176
     1
290
     0
176
     1
290
     0
176
     1
290
     0
176
     1
290
     0
176
     1
290
     0
176
     1
290
     0
176
     1
 90
       50
176
     1
 40
0.0
176
     1
 40
1.0
176
     1
 90
        0
176
     1
 62
    18
420
        0
176
     1
 90
       50
176
     1
 90
        3
176
     1
 62
     5
420
      255
176
     1
290
     0
176
     1
 90
       50
176
     1
 90
       50
176
     1
 90
       50
176
     1
290
     0
176
     1
 90
       50
176
     1
 62
   256
176
     0
 40
1.0
176
     0
 90
        2
176
     1
  1
strokes_ogs.tif
176
     1
290
     0
176
     1
 40
1.0
176
     1
 40
1.0
176
     1
1001
ACAD
1000
AcDbSavedByObjectVersion
1070
     0
  0
VISUALSTYLE
  5
2D
102
{ACAD_REACTORS
330
29
102
}
330
29
100
AcDbVisualStyle
  2

 70
     3
177
     3
291
     1
 70
    58
 90
        2
176
     1
 90
        2
176
     1
 90
        1
176
     1
 90
        2
176
     1
 40
0.6
176
     1
 40
30.0
176
     1
 62
     7
176
     1
 90
        1
176
     1
 90
        0
176
     1
 62
     7
176
     1
 62
   257
176
     1
 90
        1
176
     1
 90
        1
176
     1
 40
1.0
176
     1
 90
        0
176
     1
 62
   257
176
     1
 40
1.0
176
     1
 90
        1
176
     1
 90
        6
176
     1
 90
        2
176
     1
 62
     7
176
     1
 90
        5
176
     1
 90
        0
176
     1
 90
        0
176
     1
290
     0
176
     1
 90
       13
176
     1
 40
0.0
176
     1
 90
        0
176
     1
290
     0
176
     1
290
     1
176
     1
290
     1
176
     1
290
     0
176
     1
290
     0
176
     1
290
     0
176
     1
290
     0
176
     1
290
     0
176
     1
290
     0
176
     1
 90
       50
176
     1
 40
0.0
176
     1
 40
1.0
176
     1
 90
        0
176
     1
 62
    18
420
        0
176
     1
 90
       50
176
     1
 90
        3
176
     1
 62
     5
420
      255
176
     1
290
     0
176
     1
 90
       50
176
     1
 90
       50
176
     1
 90
       50
176
     1
290
     0
176
     1
 90
       50
176
     1
 62
   256
176
     0
 40
1.0
176
     0
 90
        2
176
     1
  1
strokes_ogs.tif
176
     1
290
     0
176
     1
 40
1.0
176
     1
 40
1.0
176
     1
1001
ACAD
1000
AcDbSavedByObjectVersion
1070
     0
  0
VISUALSTYLE
  5
31
102
{ACAD_REACTORS
330
29
102
}
330
29
100
AcDbVisualStyle
  2

 70
     6
177
     3
291
     0
 70
    58
 90
        1
176
     1
 90
        2
176
     1
 90
        2
176
     1
 90
        0
176
     1
 40
0.6
176
     1
 40
30.0
176
     1
 62
     7
176
     1
 90
        2
176
     1
 90
        2
176
     1
 62
     7
176
     1
 62
   257
176
     1
 90
        2
176
     1
 90
        1
176
     1
 40
40.0
176
     1
 90
        0
176
     1
 62
   257
176
     1
 40
1.0
176
     1
 90
        1
176
     1
 90
        6
176
     1
 90
        2
176
     1
 62
     7
176
     1
 90
        3
176
     1
 90
        0
176
     1
 90
        0
176
     1
290
     0
176
     1
 90
        1
176
     1
 40
0.0
176
     1
 90
        0
176
     1
290
     0
176
     1
290
     1
176
     1
290
     1
176
     1
290
     0
176
     1
290
     0
176
     1
290
     0
176
     1
290
     0
176
     1
290
     0
176
     1
290
     0
176
     1
 90
       50
176
     1
 40
0.0
176
     1
 40
1.0
176
     1
 90
        0
176
     1
 62
    18
420
        0
176
     1
 90
       50
176
     1
 90
        3
176
     1
 62
     5
420
      255
176
     1
290
     0
176
     1
 90
       50
176
     1
 90
       50
176
     1
 90
       50
176
     1
290
     0
176
     1
 90
       50
176
     1
 62
   256
176
     0
 40
1.0
176
     0
 90
        2
176
     1
  1
strokes_ogs.tif
176
     1
290
     0
176
     1
 40
1.0
176
     1
 40
1.0
176
     1
1001
ACAD
1000
AcDbSavedByObjectVersion
1070
     0
  0
VISUALSTYLE
  5
3F
102
{ACAD_REACTORS
330
29
102
}
330
29
100
AcDbVisualStyle
  2

 70
    20
177
     3
291
     1
 70
    58
 90
        2
176
     0
 90
        2
176
     0
 90
        0
176
     0
 90
        0
176
     0
 40
0.6
176
     0
 40
30.0
176
     0
 62
     7
176
     0
 90
        1
176
     0
 90
        4
176
     0
 62
     7
176
     0
 62
   257
176
     0
 90
        1
176
     0
 90
        1
176
     0
 40
1.0
176
     0
 90
       10
176
     2
 62
     7
176
     0
 40
1.0
176
     0
 90
        1
176
     0
 90
        6
176
     0
 90
        2
176
     0
 62
     7
176
     0
 90
        5
176
     0
 90
        0
176
     0
 90
        0
176
     0
290
     0
176
     0
 90
        1
176
     0
 40
0.0
176
     0
 90
        0
176
     0
290
     0
176
     1
290
     1
176
     1
290
     1
176
     1
290
     0
176
     1
290
     0
176
     1
290
     0
176
     1
290
     0
176
     1
290
     0
176
     1
290
     0
176
     1
 90
       50
176
     0
 40
0.0
176
     0
 40
1.0
176
     0
 90
        0
176
     0
 62
    18
420
        0
176
     0
 90
       50
176
     0
 90
        3
176
     0
 62
     5
420
      255
176
     0
290
     0
176
     1
 90
       50
176
     0
 90
       50
176
     0
 90
       50
176
     0
290
     0
176
     1
 90
       50
176
     0
 62
   256
176
     0
 40
1.0
176
     0
 90
        2
176
     0
  1
strokes_ogs.tif
176
     0
290
     0
176
     1
 40
1.0
176
     0
 40
1.0
176
     0
1001
ACAD
1000
AcDbSavedByObjectVersion
1070
     0
  0
VISUALSTYLE
  5
37
102
{ACAD_REACTORS
330
29
102
}
330
29
100
AcDbVisualStyle
  2

 70
    14
177
     3
291
     1
 70
    58
 90
        2
176
     1
 90
        2
176
     1
 90
        0
176
     1
 90
        0
176
     1
 40
0.6
176
     1
 40
30.0
176
     1
 62
     7
176
     1
 90
        1
176
     1
 90
        4
176
     1
 62
     7
176
     1
 62
   257
176
     1
 90
        7
176
     1
 90
        7
176
     1
 40
1.0
176
     1
 90
        8
176
     1
 62
     7
176
     1
 40
1.0
176
     1
 90
        1
176
     1
 90
        6
176
     1
 90
        2
176
     1
 62
     7
176
     1
 90
        5
176
     1
 90
        0
176
     1
 90
        0
176
     1
290
     0
176
     1
 90
        1
176
     1
 40
0.0
176
     1
 90
        0
176
     1
290
     0
176
     1
290
     1
176
     1
290
     1
176
     1
290
     0
176
     1
290
     0
176
     1
290
     0
176
     1
290
     0
176
     1
290
     0
176
     1
290
     0
176
     1
 90
       50
176
     1
 40
0.0
176
     1
 40
1.0
176
     1
 90
        0
176
     1
 62
    18
420
        0
176
     1
 90
       50
176
     1
 90
        3
176
     1
 62
     5
420
      255
176
     1
290
     0
176
     1
 90
       50
176
     1
 90
       50
176
     1
 90
       50
176
     1
290
     0
176
     1
 90
       50
176
     1
 62
   256
176
     0
 40
1.0
176
     0
 90
        2
176
     1
  1
strokes_ogs.tif
176
     1
290
     0
176
     1
 40
1.0
176
     1
 40
1.0
176
     1
1001
ACAD
1000
AcDbSavedByObjectVersion
1070
     0
  0
VISUALSTYLE
  5
40
102
{ACAD_REACTORS
330
29
102
}
330
29
100
AcDbVisualStyle
  2

 70
    21
177
     3
291
     1
 70
    58
 90
        2
176
     0
 90
        2
176
     0
 90
        0
176
     0
 90
        0
176
     0
 40
0.6
176
     0
 40
30.0
176
     0
 62
     7
176
     0
 90
        1
176
     0
 90
        4
176
     0
 62
     7
176
     0
 62
   257
176
     0
 90
        1
176
     0
 90
        1
176
     0
 40
1.0
176
     0
 90
        9
176
     2
 62
     7
176
     0
 40
1.0
176
     0
 90
        1
176
     0
 90
        6
176
     0
 90
        2
176
     0
 62
     7
176
     0
 90
        5
176
     0
 90
        0
176
     0
 90
        0
176
     0
290
     0
176
     0
 90
        1
176
     0
 40
0.0
176
     0
 90
        0
176
     0
290
     0
176
     1
290
     1
176
     1
290
     1
176
     1
290
     0
176
     1
290
     0
176
     1
290
     0
176
     1
290
     0
176
     1
290
     0
176
     1
290
     0
176
     1
 90
       50
176
     0
 40
0.0
176
     0
 40
1.0
176
     0
 90
        0
176
     0
 62
    18
420
        0
176
     0
 90
       50
176
     0
 90
        3
176
     0
 62
     5
420
      255
176
     0
290
     0
176
     1
 90
       50
176
     0
 90
       50
176
     0
 90
       50
176
     0
290
     0
176
     1
 90
       50
176
     0
 62
   256
176
     0
 40
1.0
176
     0
 90
        2
176
     0
  1
strokes_ogs.tif
176
     0
290
     0
176
     1
 40
1.0
176
     0
 40
1.0
176
     0
1001
ACAD
1000
AcDbSavedByObjectVersion
1070
     0
  0
VISUALSTYLE
  5
33
102
{ACAD_REACTORS
330
29
102
}
330
29
100
AcDbVisualStyle
  2

 70
     8
177
     3
291
     0
 70
    58
 90
        2
176
     1
 90
        3
176
     1
 90
        0
176
     1
 90
        2
176
     1
 40
0.6
176
     1
 40
30.0
176
     1
 62
     7
176
     1
 90
        0
176
     1
 90
        0
176
     1
 62
     7
176
     1
 62
   257
176
     1
 90
        1
176
     1
 90
        1
176
     1
 40
1.0
176
     1
 90
        8
176
     1
 62
   257
176
     1
 40
1.0
176
     1
 90
        1
176
     1
 90
        6
176
     1
 90
        2
176
     1
 62
     7
176
     1
 90
        3
176
     1
 90
        0
176
     1
 90
        0
176
     1
290
     0
176
     1
 90
       13
176
     1
 40
0.0
176
     1
 90
        0
176
     1
290
     0
176
     1
290
     1
176
     1
290
     1
176
     1
290
     0
176
     1
290
     0
176
     1
290
     0
176
     1
290
     0
176
     1
290
     0
176
     1
290
     0
176
     1
 90
       50
176
     1
 40
0.0
176
     1
 40
1.0
176
     1
 90
        0
176
     1
 62
    18
420
        0
176
     1
 90
       50
176
     1
 90
        3
176
     1
 62
     5
420
      255
176
     1
290
     0
176
     1
 90
       50
176
     1
 90
       50
176
     1
 90
       50
176
     1
290
     0
176
     1
 90
       50
176
     1
 62
   256
176
     0
 40
1.0
176
     0
 90
        2
176
     1
  1
strokes_ogs.tif
176
     1
290
     0
176
     1
 40
1.0
176
     1
 40
1.0
176
     1
1001
ACAD
1000
AcDbSavedByObjectVersion
1070
     0
  0
VISUALSTYLE
  5
3E
102
{ACAD_REACTORS
330
29
102
}
330
29
100
AcDbVisualStyle
  2

 70
    27
177
     3
291
     0
 70
    58
 90
        2
176
     1
 90
        2
176
     1
 90
        1
176
     1
 90
        2
176
     1
 40
0.6
176
     1
 40
30.0
176
     1
 62
     7
176
     1
 90
        0
176
     1
 90
        4
176
     1
 62
     7
176
     1
 62
   257
176
     1
 90
        1
176
     1
 90
        1
176
     1
 40
1.0
176
     1
 90
        8
176
     1
 62
   257
176
     1
 40
1.0
176
     1
 90
        1
176
     1
 90
        6
176
     1
 90
        2
176
     1
 62
     8
176
     1
 90
        3
176
     1
 90
        0
176
     1
 90
        0
176
     1
290
     0
176
     1
 90
        5
176
     1
 40
0.0
176
     1
 90
        0
176
     1
290
     0
176
     1
290
     1
176
     1
290
     1
176
     1
290
     0
176
     1
290
     0
176
     1
290
     0
176
     1
290
     0
176
     1
290
     0
176
     1
290
     0
176
     1
 90
       50
176
     1
 40
0.0
176
     1
 40
1.0
176
     1
 90
        0
176
     1
 62
    18
420
        0
176
     1
 90
       50
176
     1
 90
        3
176
     1
 62
     5
420
      255
176
     1
290
     0
176
     1
 90
       50
176
     1
 90
       50
176
     1
 90
       50
176
     1
290
     0
176
     1
 90
       50
176
     1
 62
   256
176
     0
 40
1.0
176
     0
 90
        2
176
     1
  1
strokes_ogs.tif
176
     1
290
     0
176
     1
 40
1.0
176
     1
 40
1.0
176
     1
1001
ACAD
1000
AcDbSavedByObjectVersion
1070
     0
  0
VISUALSTYLE
  5
3D
102
{ACAD_REACTORS
330
29
102
}
330
29
100
AcDbVisualStyle
  2

 70
    26
177
     3
291
     0
 70
    58
 90
        2
176
     1
 90
        2
176
     1
 90
        1
176
     1
 90
        2
176
     1
 40
0.6
176
     1
 40
30.0
176
     1
 62
     7
176
     1
 90
        1
176
     1
 90
        2
176
     1
 62
     7
176
     1
 62
   257
176
     1
 90
        2
176
     1
 90
        1
176
     1
 40
1.0
176
     1
 90
        8
176
     1
 62
   257
176
     1
 40
1.0
176
     1
 90
        1
176
     1
 90
        6
176
     1
 90
        2
176
     1
 62
     7
176
     1
 90
        3
176
     1
 90
        0
176
     1
 90
        0
176
     1
290
     0
176
     1
 90
        5
176
     1
 40
0.0
176
     1
 90
        0
176
     1
290
     0
176
     1
290
     1
176
     1
290
     1
176
     1
290
     0
176
     1
290
     0
176
     1
290
     0
176
     1
290
     0
176
     1
290
     0
176
     1
290
     0
176
     1
 90
       50
176
     1
 40
0.0
176
     1
 40
1.0
176
     1
 90
        0
176
     1
 62
    18
420
        0
176
     1
 90
       50
176
     1
 90
        3
176
     1
 62
     5
420
      255
176
     1
290
     0
176
     1
 90
       50
176
     1
 90
       50
176
     1
 90
       50
176
     1
290
     0
176
     1
 90
       50
176
     1
 62
   256
176
     0
 40
1.0
176
     0
 90
        2
176
     1
  1
strokes_ogs.tif
176
     1
290
     0
176
     1
 40
1.0
176
     1
 40
1.0
176
     1
1001
ACAD
1000
AcDbSavedByObjectVersion
1070
     0
  0
VISUALSTYLE
  5
3A
102
{ACAD_REACTORS
330
29
102
}
330
29
100
AcDbVisualStyle
  2

 70
    23
177
     3
291
     0
 70
    58
 90
        2
176
     1
 90
        2
176
     1
 90
        3
176
     1
 90
        0
176
     1
 40
0.6
176
     1
 40
30.0
176
     1
 62
     7
176
     1
 90
        2
176
     1
 90
        2
176
     1
 62
     7
176
     1
 62
     7
176
     1
 90
        1
176
     1
 90
        1
176
     1
 40
40.0
176
     1
 90
        8
176
     1
 62
     7
176
     1
 40
1.0
176
     1
 90
        1
176
     1
 90
        6
176
     1
 90
        2
176
     1
 62
     7
176
     1
 90
        3
176
     1
 90
        0
176
     1
 90
        0
176
     1
290
     0
176
     1
 90
        1
176
     1
 40
0.0
176
     1
 90
        0
176
     1
290
     0
176
     1
290
     1
176
     1
290
     1
176
     1
290
     0
176
     1
290
     0
176
     1
290
     0
176
     1
290
     0
176
     1
290
     0
176
     1
290
     0
176
     1
 90
       50
176
     1
 40
0.0
176
     1
 40
1.0
176
     1
 90
        0
176
     1
 62
    18
420
        0
176
     1
 90
       50
176
     1
 90
        3
176
     1
 62
     5
420
      255
176
     1
290
     0
176
     1
 90
       50
176
     1
 90
       50
176
     1
 90
       50
176
     1
290
     0
176
     1
 90
       50
176
     1
 62
   256
176
     0
 40
1.0
176
     0
 90
        2
176
     1
  1
strokes_ogs.tif
176
     1
290
     0
176
     1
 40
1.0
176
     1
 40
1.0
176
     1
1001
ACAD
1000
AcDbSavedByObjectVersion
1070
     0
  0
VISUALSTYLE
  5
3B
102
{ACAD_REACTORS
330
29
102
}
330
29
100
AcDbVisualStyle
  2

 70
    24
177
     3
291
     0
 70
    58
 90
        1
176
     1
 90
        2
176
     1
 90
        2
176
     1
 90
        0
176
     1
 40
0.6
176
     1
 40
30.0
176
     1
 62
     7
176
     1
 90
        2
176
     1
 90
        2
176
     1
 62
     7
176
     1
 62
     7
176
     1
 90
        1
176
     1
 90
        1
176
     1
 40
40.0
176
     1
 90
       11
176
     1
 62
     7
176
     1
 40
1.0
176
     1
 90
        1
176
     1
 90
        6
176
     1
 90
        2
176
     1
 62
     7
176
     1
 90
        6
176
     1
 90
        0
176
     1
 90
        0
176
     1
290
     0
176
     1
 90
        1
176
     1
 40
0.0
176
     1
 90
        0
176
     1
290
     0
176
     1
290
     1
176
     1
290
     1
176
     1
290
     0
176
     1
290
     0
176
     1
290
     0
176
     1
290
     0
176
     1
290
     0
176
     1
290
     0
176
     1
 90
       50
176
     1
 40
0.0
176
     1
 40
1.0
176
     1
 90
        0
176
     1
 62
    18
420
        0
176
     1
 90
       50
176
     1
 90
        3
176
     1
 62
     5
420
      255
176
     1
290
     0
176
     1
 90
       50
176
     1
 90
       50
176
     1
 90
       50
176
     1
290
     0
176
     1
 90
       50
176
     1
 62
   256
176
     0
 40
1.0
176
     0
 90
        2
176
     1
  1
strokes_ogs.tif
176
     1
290
     0
176
     1
 40
1.0
176
     1
 40
1.0
176
     1
1001
ACAD
1000
AcDbSavedByObjectVersion
1070
     0
  0
VISUALSTYLE
  5
36
102
{ACAD_REACTORS
330
29
102
}
330
29
100
AcDbVisualStyle
  2

 70
    13
177
     3
291
     1
 70
    58
 90
        2
176
     1
 90
        2
176
     1
 90
        0
176
     1
 90
        0
176
     1
 40
0.6
176
     1
 40
30.0
176
     1
 62
     7
176
     1
 90
        1
176
     1
 90
        4
176
     1
 62
     7
176
     1
 62
   257
176
     1
 90
        1
176
     1
 90
        1
176
     1
 40
1.0
176
     1
 90
       12
176
     1
 62
     7
176
     1
 40
1.0
176
     1
 90
        1
176
     1
 90
        6
176
     1
 90
        2
176
     1
 62
     7
176
     1
 90
        5
176
     1
 90
        0
176
     1
 90
        0
176
     1
290
     0
176
     1
 90
        1
176
     1
 40
0.0
176
     1
 90
        0
176
     1
290
     0
176
     1
290
     1
176
     1
290
     1
176
     1
290
     0
176
     1
290
     0
176
     1
290
     0
176
     1
290
     0
176
     1
290
     0
176
     1
290
     0
176
     1
 90
       50
176
     1
 40
0.0
176
     1
 40
1.0
176
     1
 90
        0
176
     1
 62
    18
420
        0
176
     1
 90
       50
176
     1
 90
        3
176
     1
 62
     5
420
      255
176
     1
290
     0
176
     1
 90
       50
176
     1
 90
       50
176
     1
 90
       50
176
     1
290
     0
176
     1
 90
       50
176
     1
 62
   256
176
     0
 40
1.0
176
     0
 90
        2
176
     1
  1
strokes_ogs.tif
176
     1
290
     0
176
     1
 40
1.0
176
     1
 40
1.0
176
     1
1001
ACAD
1000
AcDbSavedByObjectVersion
1070
     0
  0
VISUALSTYLE
  5
30
102
{ACAD_REACTORS
330
29
102
}
330
29
100
AcDbVisualStyle
  2

 70
     5
177
     3
291
     0
 70
    58
 90
        0
176
     1
 90
        2
176
     1
 90
        0
176
     1
 90
        0
176
     1
 40
0.6
176
     1
 40
30.0
176
     1
 62
     7
176
     1
 90
        1
176
     1
 90
        4
176
     1
 62
     7
176
     1
 62
   257
176
     1
 90
        1
176
     1
 90
        1
176
     1
 40
1.0
176
     1
 90
        0
176
     1
 62
   257
176
     1
 40
1.0
176
     1
 90
        1
176
     1
 90
        6
176
     1
 90
        2
176
     1
 62
     7
176
     1
 90
        3
176
     1
 90
        0
176
     1
 90
        0
176
     1
290
     0
176
     1
 90
        1
176
     1
 40
0.0
176
     1
 90
        0
176
     1
290
     0
176
     1
290
     1
176
     1
290
     1
176
     1
290
     0
176
     1
290
     0
176
     1
290
     0
176
     1
290
     0
176
     1
290
     0
176
     1
290
     0
176
     1
 90
       50
176
     1
 40
0.0
176
     1
 40
1.0
176
     1
 90
        0
176
     1
 62
    18
420
        0
176
     1
 90
       50
176
     1
 90
        3
176
     1
 62
     5
420
      255
176
     1
290
     0
176
     1
 90
       50
176
     1
 90
       50
176
     1
 90
       50
176
     1
290
     0
176
     1
 90
       50
176
     1
 62
   256
176
     0
 40
1.0
176
     0
 90
        2
176
     1
  1
strokes_ogs.tif
176
     1
290
     0
176
     1
 40
1.0
176
     1
 40
1.0
176
     1
1001
ACAD
1000
AcDbSavedByObjectVersion
1070
     0
  0
VISUALSTYLE
  5
3C
102
{ACAD_REACTORS
330
29
102
}
330
29
100
AcDbVisualStyle
  2

 70
    25
177
     3
291
     0
 70
    58
 90
        2
176
     1
 90
        2
176
     1
 90
        1
176
     1
 90
        1
176
     1
 40
0.5
176
     1
 40
30.0
176
     1
 62
     7
176
     1
 90
        1
176
     1
 90
        0
176
     1
 62
     7
176
     1
 62
   257
176
     1
 90
        1
176
     1
 90
        1
176
     1
 40
1.0
176
     1
 90
        8
176
     1
 62
     7
176
     1
 40
1.0
176
     1
 90
        1
176
     1
 90
        6
176
     1
 90
        2
176
     1
 62
     7
176
     1
 90
        3
176
     1
 90
        0
176
     1
 90
        0
176
     1
290
     0
176
     1
 90
       13
176
     1
 40
0.0
176
     1
 90
        0
176
     1
290
     0
176
     1
290
     1
176
     1
290
     1
176
     1
290
     0
176
     1
290
     0
176
     1
290
     0
176
     1
290
     0
176
     1
290
     0
176
     1
290
     0
176
     1
 90
       50
176
     1
 40
0.0
176
     1
 40
1.0
176
     1
 90
        0
176
     1
 62
    18
420
        0
176
     1
 90
       50
176
     1
 90
        3
176
     1
 62
     5
420
      255
176
     1
290
     0
176
     1
 90
       50
176
     1
 90
       50
176
     1
 90
       50
176
     1
290
     0
176
     1
 90
       50
176
     1
 62
   256
176
     0
 40
1.0
176
     0
 90
        2
176
     1
  1
strokes_ogs.tif
176
     1
290
     0
176
     1
 40
1.0
176
     1
 40
1.0
176
     1
1001
ACAD
1000
AcDbSavedByObjectVersion
1070
     0
  0
DICTIONARYVAR
  5
554
102
{ACAD_REACTORS
330
54F
102
}
330
54F
100
DictionaryVariables
280
     0
  1
1:1
  0
DICTIONARYVAR
  5
551
102
{ACAD_REACTORS
330
54F
102
}
330
54F
100
DictionaryVariables
280
     0
  1
STANDARD
  0
DICTIONARYVAR
  5
550
102
{ACAD_REACTORS
330
54F
102
}
330
54F
100
DictionaryVariables
280
     0
  1
STANDARD
  0
DICTIONARYVAR
  5
552
102
{ACAD_REACTORS
330
54F
102
}
330
54F
100
DictionaryVariables
280
     0
  1
Imperial24
  0
DICTIONARYVAR
  5
553
102
{ACAD_REACTORS
330
54F
102
}
330
54F
100
DictionaryVariables
280
     0
  1
Imperial24
  0
DICTIONARYVAR
  5
557
102
{ACAD_REACTORS
330
54F
102
}
330
54F
100
DictionaryVariables
280
     0
  1
1
  0
DICTIONARYVAR
  5
556
102
{ACAD_REACTORS
330
54F
102
}
330
54F
100
DictionaryVariables
280
     0
  1
0
  0
DICTIONARYVAR
  5
5A8
102
{ACAD_REACTORS
330
54F
102
}
330
54F
100
DictionaryVariables
280
     0
  1
1
  0
DICTIONARYVAR
  5
5A9
102
{ACAD_REACTORS
330
54F
102
}
330
54F
100
DictionaryVariables
280
     0
  1
15
  0
DICTIONARYVAR
  5
5A7
102
{ACAD_REACTORS
330
54F
102
}
330
54F
100
DictionaryVariables
280
     0
  1
0
  0
DICTIONARYVAR
  5
5A6
102
{ACAD_REACTORS
330
54F
102
}
330
54F
100
DictionaryVariables
280
     0
  1
0
  0
DICTIONARYVAR
  5
555
102
{ACAD_REACTORS
330
54F
102
}
330
54F
100
DictionaryVariables
280
     0
  1
127
  0
DICTIONARY
  5
1A
330
19
100
AcDbDictionary
280
     1
281
     1
  3
ACAD_XREC_ROUNDTRIP
360
55F
  3
BUMPTILE
360
1C
  3
DIFFUSETILE
360
1B
  3
OPACITYTILE
360
1F
  3
REFLECTIONTILE
360
1E
  3
REFRACTIONTILE
360
20
  3
SPECULARTILE
360
1D
  0
DICTIONARY
  5
12
330
11
100
AcDbDictionary
280
     1
281
     1
  3
ACAD_XREC_ROUNDTRIP
360
55E
  3
BUMPTILE
360
14
  3
DIFFUSETILE
360
13
  3
OPACITYTILE
360
17
  3
REFLECTIONTILE
360
16
  3
REFRACTIONTILE
360
18
  3
SPECULARTILE
360
15
  0
DICTIONARY
  5
22
330
21
100
AcDbDictionary
280
     1
281
     1
  3
ACAD_XREC_ROUNDTRIP
360
560
  3
BUMPTILE
360
24
  3
DIFFUSETILE
360
23
  3
OPACITYTILE
360
27
  3
REFLECTIONTILE
360
26
  3
REFRACTIONTILE
360
28
  3
SPECULARTILE
360
25
  0
DICTIONARY
  5
55A
330
64
100
AcDbDictionary
280
     1
281
     1
  3
ACAD_ROUNDTRIP_2008_TABLESTYLE_CELLSTYLEMAP
360
5AA
  0
XRECORD
  5
55F
102
{ACAD_REACTORS
330
1A
102
}
330
1A
100
AcDbXrecord
280
     1
102
MATERIAL
148
0.0
149
0.0
149
0.0
 93
        0
 94
      127
282
     0
 72
     0
 77
     0
171
     0
175
     0
179
     0
273
     0
  0
XRECORD
  5
1C
102
{ACAD_REACTORS
330
1A
102
}
330
1A
100
AcDbXrecord
280
     1
270
     1
271
     1
  0
XRECORD
  5
1B
102
{ACAD_REACTORS
330
1A
102
}
330
1A
100
AcDbXrecord
280
     1
270
     1
271
     1
  0
XRECORD
  5
1F
102
{ACAD_REACTORS
330
1A
102
}
330
1A
100
AcDbXrecord
280
     1
270
     1
271
     1
  0
XRECORD
  5
1E
102
{ACAD_REACTORS
330
1A
102
}
330
1A
100
AcDbXrecord
280
     1
270
     1
271
     1
  0
XRECORD
  5
20
102
{ACAD_REACTORS
330
1A
102
}
330
1A
100
AcDbXrecord
280
     1
270
     1
271
     1
  0
XRECORD
  5
1D
102
{ACAD_REACTORS
330
1A
102
}
330
1A
100
AcDbXrecord
280
     1
270
     1
271
     1
  0
XRECORD
  5
55E
102
{ACAD_REACTORS
330
12
102
}
330
12
100
AcDbXrecord
280
     1
102
MATERIAL
148
0.0
149
0.0
149
0.0
 93
        0
 94
      127
282
     0
 72
     0
 77
     0
171
     0
175
     0
179
     0
273
     0
  0
XRECORD
  5
14
102
{ACAD_REACTORS
330
12
102
}
330
12
100
AcDbXrecord
280
     1
270
     1
271
     1
  0
XRECORD
  5
13
102
{ACAD_REACTORS
330
12
102
}
330
12
100
AcDbXrecord
280
     1
270
     1
271
     1
  0
XRECORD
  5
17
102
{ACAD_REACTORS
330
12
102
}
330
12
100
AcDbXrecord
280
     1
270
     1
271
     1
  0
XRECORD
  5
16
102
{ACAD_REACTORS
330
12
102
}
330
12
100
AcDbXrecord
280
     1
270
     1
271
     1
  0
XRECORD
  5
18
102
{ACAD_REACTORS
330
12
102
}
330
12
100
AcDbXrecord
280
     1
270
     1
271
     1
  0
XRECORD
  5
15
102
{ACAD_REACTORS
330
12
102
}
330
12
100
AcDbXrecord
280
     1
270
     1
271
     1
  0
XRECORD
  5
560
102
{ACAD_REACTORS
330
22
102
}
330
22
100
AcDbXrecord
280
     1
102
MATERIAL
148
0.0
149
0.0
149
0.0
 93
        0
 94
      127
282
     0
 72
     0
 77
     0
171
     0
175
     0
179
     0
273
     0
  0
XRECORD
  5
24
102
{ACAD_REACTORS
330
22
102
}
330
22
100
AcDbXrecord
280
     1
270
     1
271
     1
  0
XRECORD
  5
23
102
{ACAD_REACTORS
330
22
102
}
330
22
100
AcDbXrecord
280
     1
270
     1
271
     1
  0
XRECORD
  5
27
102
{ACAD_REACTORS
330
22
102
}
330
22
100
AcDbXrecord
280
     1
270
     1
271
     1
  0
XRECORD
  5
26
102
{ACAD_REACTORS
330
22
102
}
330
22
100
AcDbXrecord
280
     1
270
     1
271
     1
  0
XRECORD
  5
28
102
{ACAD_REACTORS
330
22
102
}
330
22
100
AcDbXrecord
280
     1
270
     1
271
     1
  0
XRECORD
  5
25
102
{ACAD_REACTORS
330
22
102
}
330
22
100
AcDbXrecord
280
     1
270
     1
271
     1
  0
CELLSTYLEMAP
  5
5AA
102
{ACAD_REACTORS
330
55A
102
}
330
55A
100
AcDbCellStyleMap
 90
        3
300
CELLSTYLE
  1
TABLEFORMAT_BEGIN
 90
        5
170
     1
 91
        0
 92
    32768
 62
   257
 93
        1
300
CONTENTFORMAT
  1
CONTENTFORMAT_BEGIN
 90
        0
 91
        0
 92
      512
 93
        0
300

 40
0.0
140
1.0
 94
        5
 62
     0
340
55
144
0.25
309
CONTENTFORMAT_END
171
     1
301
MARGIN
  1
CELLMARGIN_BEGIN
 40
0.06
 40
0.06
 40
0.06
 40
0.06
 40
0.18
 40
0.18
309
CELLMARGIN_END
 94
        6
 95
        1
302
GRIDFORMAT
  1
GRIDFORMAT_BEGIN
 90
        0
 91
        1
 62
     0
 92
       -2
340
0
 93
        0
 40
0.045
309
GRIDFORMAT_END
 95
        2
302
GRIDFORMAT
  1
GRIDFORMAT_BEGIN
 90
        0
 91
        1
 62
     0
 92
       -2
340
0
 93
        0
 40
0.045
309
GRIDFORMAT_END
 95
        4
302
GRIDFORMAT
  1
GRIDFORMAT_BEGIN
 90
        0
 91
        1
 62
     0
 92
       -2
340
0
 93
        0
 40
0.045
309
GRIDFORMAT_END
 95
        8
302
GRIDFORMAT
  1
GRIDFORMAT_BEGIN
 90
        0
 91
        1
 62
     0
 92
       -2
340
0
 93
        0
 40
0.045
309
GRIDFORMAT_END
 95
       16
302
GRIDFORMAT
  1
GRIDFORMAT_BEGIN
 90
        0
 91
        1
 62
     0
 92
       -2
340
0
 93
        0
 40
0.045
309
GRIDFORMAT_END
 95
       32
302
GRIDFORMAT
  1
GRIDFORMAT_BEGIN
 90
        0
 91
        1
 62
     0
 92
       -2
340
0
 93
        0
 40
0.045
309
GRIDFORMAT_END
309
TABLEFORMAT_END
  1
CELLSTYLE_BEGIN
 90
        1
 91
        1
300
_TITLE
309
CELLSTYLE_END
300
CELLSTYLE
  1
TABLEFORMAT_BEGIN
 90
        5
170
     1
 91
        0
 92
        0
 62
   257
 93
        1
300
CONTENTFORMAT
  1
CONTENTFORMAT_BEGIN
 90
        0
 91
        0
 92
      512
 93
        0
300

 40
0.0
140
1.0
 94
        5
 62
     0
340
55
144
0.18
309
CONTENTFORMAT_END
171
     1
301
MARGIN
  1
CELLMARGIN_BEGIN
 40
0.06
 40
0.06
 40
0.06
 40
0.06
 40
0.18
 40
0.18
309
CELLMARGIN_END
 94
        6
 95
        1
302
GRIDFORMAT
  1
GRIDFORMAT_BEGIN
 90
        0
 91
        1
 62
     0
 92
       -2
340
0
 93
        0
 40
0.045
309
GRIDFORMAT_END
 95
        2
302
GRIDFORMAT
  1
GRIDFORMAT_BEGIN
 90
        0
 91
        1
 62
     0
 92
       -2
340
0
 93
        0
 40
0.045
309
GRIDFORMAT_END
 95
        4
302
GRIDFORMAT
  1
GRIDFORMAT_BEGIN
 90
        0
 91
        1
 62
     0
 92
       -2
340
0
 93
        0
 40
0.045
309
GRIDFORMAT_END
 95
        8
302
GRIDFORMAT
  1
GRIDFORMAT_BEGIN
 90
        0
 91
        1
 62
     0
 92
       -2
340
0
 93
        0
 40
0.045
309
GRIDFORMAT_END
 95
       16
302
GRIDFORMAT
  1
GRIDFORMAT_BEGIN
 90
        0
 91
        1
 62
     0
 92
       -2
340
0
 93
        0
 40
0.045
309
GRIDFORMAT_END
 95
       32
302
GRIDFORMAT
  1
GRIDFORMAT_BEGIN
 90
        0
 91
        1
 62
     0
 92
       -2
340
0
 93
        0
 40
0.045
309
GRIDFORMAT_END
309
TABLEFORMAT_END
  1
CELLSTYLE_BEGIN
 90
        2
 91
        1
300
_HEADER
309
CELLSTYLE_END
300
CELLSTYLE
  1
TABLEFORMAT_BEGIN
 90
        5
170
     1
 91
        0
 92
        0
 62
   257
 93
        1
300
CONTENTFORMAT
  1
CONTENTFORMAT_BEGIN
 90
        0
 91
        0
 92
      512
 93
        0
300

 40
0.0
140
1.0
 94
        2
 62
     0
340
55
144
0.18
309
CONTENTFORMAT_END
171
     1
301
MARGIN
  1
CELLMARGIN_BEGIN
 40
0.06
 40
0.06
 40
0.06
 40
0.06
 40
0.18
 40
0.18
309
CELLMARGIN_END
 94
        6
 95
        1
302
GRIDFORMAT
  1
GRIDFORMAT_BEGIN
 90
        0
 91
        1
 62
     0
 92
       -2
340
0
 93
        0
 40
0.045
309
GRIDFORMAT_END
 95
        2
302
GRIDFORMAT
  1
GRIDFORMAT_BEGIN
 90
        0
 91
        1
 62
     0
 92
       -2
340
0
 93
        0
 40
0.045
309
GRIDFORMAT_END
 95
        4
302
GRIDFORMAT
  1
GRIDFORMAT_BEGIN
 90
        0
 91
        1
 62
     0
 92
       -2
340
0
 93
        0
 40
0.045
309
GRIDFORMAT_END
 95
        8
302
GRIDFORMAT
  1
GRIDFORMAT_BEGIN
 90
        0
 91
        1
 62
     0
 92
       -2
340
0
 93
        0
 40
0.045
309
GRIDFORMAT_END
 95
       16
302
GRIDFORMAT
  1
GRIDFORMAT_BEGIN
 90
        0
 91
        1
 62
     0
 92
       -2
340
0
 93
        0
 40
0.045
309
GRIDFORMAT_END
 95
       32
302
GRIDFORMAT
  1
GRIDFORMAT_BEGIN
 90
        0
 91
        1
 62
     0
 92
       -2
340
0
 93
        0
 40
0.045
309
GRIDFORMAT_END
309
TABLEFORMAT_END
  1
CELLSTYLE_BEGIN
 90
        3
 91
        2
300
_DATA
309
CELLSTYLE_END
  0
ENDSEC
  0
EOF
