  0
SECTION
  2
HEADER
  9
$ACADVER
  1
AC1032
  9
$ACADMAINTVER
 90
      197
  9
$DWGCODEPAGE
  3
ANSI_932
  9
$LASTSAVEDBY
  1
hiro-ichiyama
  9
$REQUIREDVERSIONS
160
                 0
  9
$INSBASE
 10
0.0
 20
0.0
 30
0.0
  9
$EXTMIN
 10
33.21607020415422
 20
27.50035294226882
 30
-0.0000000349181948
  9
$EXTMAX
 10
793.6254795757941
 20
574.6841904908465
 30
0.0000000814935747
  9
$LIMMIN
 10
0.0
 20
0.0
  9
$LIMMAX
 10
594.0
 20
841.0
  9
$ORTHOMODE
 70
     0
  9
$REGENMODE
 70
     1
  9
$FILLMODE
 70
     1
  9
$QTEXTMODE
 70
     0
  9
$MIRRTEXT
 70
     0
  9
$LTSCALE
 40
20.0
  9
$ATTMODE
 70
     1
  9
$TEXTSIZE
 40
4.0
  9
$TRACEWID
 40
0.05
  9
$TEXTSTYLE
  7
STANDARD
  9
$CLAYER
  8
0
  9
$CELTYPE
  6
CONTINUOUS
  9
$CECOLOR
 62
   256
  9
$CELTSCALE
 40
1.0
  9
$DISPSILH
 70
     0
  9
$DIMSCALE
 40
1.0
  9
$DIMASZ
 40
1.0
  9
$DIMEXO
 40
0.8
  9
$DIMDLI
 40
0.38
  9
$DIMRND
 40
0.0
  9
$DIMDLE
 40
0.0
  9
$DIMEXE
 40
2.0
  9
$DIMTP
 40
0.0
  9
$DIMTM
 40
0.0
  9
$DIMTXT
 40
3.1
  9
$DIMCEN
 40
0.09
  9
$DIMTSZ
 40
0.0
  9
$DIMTOL
 70
     0
  9
$DIMLIM
 70
     0
  9
$DIMTIH
 70
     0
  9
$DIMTOH
 70
     0
  9
$DIMSE1
 70
     0
  9
$DIMSE2
 70
     0
  9
$DIMTAD
 70
     1
  9
$DIMZIN
 70
     0
  9
$DIMBLK
  1

  9
$DIMASO
 70
     1
  9
$DIMSHO
 70
     1
  9
$DIMPOST
  1

  9
$DIMAPOST
  1

  9
$DIMALT
 70
     0
  9
$DIMALTD
 70
     2
  9
$DIMALTF
 40
25.4
  9
$DIMLFAC
 40
1.0
  9
$DIMTOFL
 70
     0
  9
$DIMTVP
 40
0.5
  9
$DIMTIX
 70
     0
  9
$DIMSOXD
 70
     0
  9
$DIMSAH
 70
     0
  9
$DIMBLK1
  1

  9
$DIMBLK2
  1

  9
$DIMSTYLE
  2
Standard
  9
$DIMCLRD
 70
     0
  9
$DIMCLRE
 70
     0
  9
$DIMCLRT
 70
     0
  9
$DIMTFAC
 40
1.0
  9
$DIMGAP
 40
0.09
  9
$DIMJUST
 70
     0
  9
$DIMSD1
 70
     0
  9
$DIMSD2
 70
     0
  9
$DIMTOLJ
 70
     1
  9
$DIMTZIN
 70
     0
  9
$DIMALTZ
 70
     0
  9
$DIMALTTZ
 70
     0
  9
$DIMUPT
 70
     0
  9
$DIMDEC
 70
     4
  9
$DIMTDEC
 70
     4
  9
$DIMALTU
 70
     2
  9
$DIMALTTD
 70
     2
  9
$DIMTXSTY
  7
STANDARD
  9
$DIMAUNIT
 70
     0
  9
$DIMADEC
 70
     0
  9
$DIMALTRND
 40
0.0
  9
$DIMAZIN
 70
     0
  9
$DIMDSEP
 70
    46
  9
$DIMATFIT
 70
     3
  9
$DIMFRAC
 70
     0
  9
$DIMLDRBLK
  1

  9
$DIMLUNIT
 70
     2
  9
$DIMLWD
 70
    -2
  9
$DIMLWE
 70
    -2
  9
$DIMTMOVE
 70
     0
  9
$DIMFXL
 40
1.0
  9
$DIMFXLON
 70
     0
  9
$DIMJOGANG
 40
0.7853981633974483
  9
$DIMTFILL
 70
     0
  9
$DIMTFILLCLR
 70
     0
  9
$DIMARCSYM
 70
     0
  9
$DIMLTYPE
  6

  9
$DIMLTEX1
  6

  9
$DIMLTEX2
  6

  9
$DIMTXTDIRECTION
 70
     0
  9
$LUNITS
 70
     2
  9
$LUPREC
 70
     4
  9
$SKETCHINC
 40
0.1
  9
$FILLETRAD
 40
0.0
  9
$AUNITS
 70
     0
  9
$AUPREC
 70
     0
  9
$MENU
  1
.
  9
$ELEVATION
 40
0.0
  9
$PELEVATION
 40
0.0
  9
$THICKNESS
 40
0.0
  9
$LIMCHECK
 70
     0
  9
$CHAMFERA
 40
0.0
  9
$CHAMFERB
 40
0.0
  9
$CHAMFERC
 40
0.0
  9
$CHAMFERD
 40
0.0
  9
$SKPOLY
 70
     0
  9
$TDCREATE
 40
2459010.394027778
  9
$TDUCREATE
 40
2459010.019027778
  9
$TDUPDATE
 40
2459991.692280093
  9
$TDUUPDATE
 40
2459991.317280093
  9
$TDINDWG
 40
0.0050694444
  9
$TDUSRTIMER
 40
0.0050694444
  9
$USRTIMER
 70
     1
  9
$ANGBASE
 50
0.0
  9
$ANGDIR
 70
     0
  9
$PDMODE
 70
     0
  9
$PDSIZE
 40
0.0
  9
$PLINEWID
 40
0.0
  9
$SPLFRAME
 70
     0
  9
$SPLINETYPE
 70
     6
  9
$SPLINESEGS
 70
     8
  9
$HANDSEED
  5
657
  9
$SURFTAB1
 70
     6
  9
$SURFTAB2
 70
     6
  9
$SURFTYPE
 70
     6
  9
$SURFU
 70
     6
  9
$SURFV
 70
     6
  9
$UCSBASE
  2

  9
$UCSNAME
  2

  9
$UCSORG
 10
0.0
 20
0.0
 30
0.0
  9
$UCSXDIR
 10
1.0
 20
0.0
 30
0.0
  9
$UCSYDIR
 10
0.0
 20
1.0
 30
0.0
  9
$UCSORTHOREF
  2

  9
$UCSORTHOVIEW
 70
     0
  9
$UCSORGTOP
 10
0.0
 20
0.0
 30
0.0
  9
$UCSORGBOTTOM
 10
0.0
 20
0.0
 30
0.0
  9
$UCSORGLEFT
 10
0.0
 20
0.0
 30
0.0
  9
$UCSORGRIGHT
 10
0.0
 20
0.0
 30
0.0
  9
$UCSORGFRONT
 10
0.0
 20
0.0
 30
0.0
  9
$UCSORGBACK
 10
0.0
 20
0.0
 30
0.0
  9
$PUCSBASE
  2

  9
$PUCSNAME
  2

  9
$PUCSORG
 10
0.0
 20
0.0
 30
0.0
  9
$PUCSXDIR
 10
1.0
 20
0.0
 30
0.0
  9
$PUCSYDIR
 10
0.0
 20
1.0
 30
0.0
  9
$PUCSORTHOREF
  2

  9
$PUCSORTHOVIEW
 70
     0
  9
$PUCSORGTOP
 10
0.0
 20
0.0
 30
0.0
  9
$PUCSORGBOTTOM
 10
0.0
 20
0.0
 30
0.0
  9
$PUCSORGLEFT
 10
0.0
 20
0.0
 30
0.0
  9
$PUCSORGRIGHT
 10
0.0
 20
0.0
 30
0.0
  9
$PUCSORGFRONT
 10
0.0
 20
0.0
 30
0.0
  9
$PUCSORGBACK
 10
0.0
 20
0.0
 30
0.0
  9
$USERI1
 70
     0
  9
$USERI2
 70
     0
  9
$USERI3
 70
     0
  9
$USERI4
 70
     0
  9
$USERI5
 70
     0
  9
$USERR1
 40
0.0
  9
$USERR2
 40
0.0
  9
$USERR3
 40
0.0
  9
$USERR4
 40
0.0
  9
$USERR5
 40
0.0
  9
$WORLDVIEW
 70
     1
  9
$SHADEDGE
 70
     3
  9
$SHADEDIF
 70
    70
  9
$TILEMODE
 70
     1
  9
$MAXACTVP
 70
    64
  9
$PINSBASE
 10
0.0
 20
0.0
 30
0.0
  9
$PLIMCHECK
 70
     0
  9
$PEXTMIN
 10
1.000000000000000E+20
 20
1.000000000000000E+20
 30
1.000000000000000E+20
  9
$PEXTMAX
 10
-1.000000000000000E+20
 20
-1.000000000000000E+20
 30
-1.000000000000000E+20
  9
$PLIMMIN
 10
0.0
 20
0.0
  9
$PLIMMAX
 10
12.0
 20
9.0
  9
$UNITMODE
 70
     0
  9
$VISRETAIN
 70
     1
  9
$PLINEGEN
 70
     0
  9
$PSLTSCALE
 70
     1
  9
$TREEDEPTH
 70
  3020
  9
$CMLSTYLE
  2
Standard
  9
$CMLJUST
 70
     0
  9
$CMLSCALE
 40
1.0
  9
$PROXYGRAPHICS
 70
     1
  9
$MEASUREMENT
 70
     1
  9
$CELWEIGHT
370
    -1
  9
$ENDCAPS
280
     0
  9
$JOINSTYLE
280
     0
  9
$LWDISPLAY
290
     0
  9
$INSUNITS
 70
     0
  9
$HYPERLINKBASE
  1

  9
$STYLESHEET
  1

  9
$XEDIT
290
     1
  9
$CEPSNTYPE
380
     0
  9
$PSTYLEMODE
290
     1
  9
$FINGERPRINTGUID
  2
{001AA947-8EA5-C845-9A6F-263E8A3E0574}
  9
$VERSIONGUID
  2
{561D1FC1-4B98-A04F-93F5-D1F275DFDA19}
  9
$EXTNAMES
290
     1
  9
$PSVPSCALE
 40
0.0
  9
$OLESTARTUP
290
     0
  9
$SORTENTS
280
   127
  9
$INDEXCTL
280
     0
  9
$HIDETEXT
280
     0
  9
$XCLIPFRAME
280
     2
  9
$HALOGAP
280
     0
  9
$OBSCOLOR
 70
   257
  9
$OBSLTYPE
280
     0
  9
$INTERSECTIONDISPLAY
280
     0
  9
$INTERSECTIONCOLOR
 70
   257
  9
$DIMASSOC
280
     1
  9
$PROJECTNAME
  1

  9
$CAMERADISPLAY
290
     0
  9
$LENSLENGTH
 40
50.0
  9
$CAMERAHEIGHT
 40
0.0
  9
$STEPSPERSEC
 40
2.0
  9
$STEPSIZE
 40
6.0
  9
$3DDWFPREC
 40
2.0
  9
$PSOLWIDTH
 40
0.25
  9
$PSOLHEIGHT
 40
4.0
  9
$LOFTANG1
 40
1.570796326794896
  9
$LOFTANG2
 40
1.570796326794896
  9
$LOFTMAG1
 40
0.0
  9
$LOFTMAG2
 40
0.0
  9
$LOFTPARAM
 70
     7
  9
$LOFTNORMALS
280
     1
  9
$LATITUDE
 40
37.795
  9
$LONGITUDE
 40
-122.394
  9
$NORTHDIRECTION
 40
0.0
  9
$TIMEZONE
 70
 -8000
  9
$LIGHTGLYPHDISPLAY
280
     1
  9
$TILEMODELIGHTSYNCH
280
     1
  9
$CMATERIAL
347
11
  9
$SOLIDHIST
280
     0
  9
$SHOWHIST
280
     1
  9
$DWFFRAME
280
     2
  9
$DGNFRAME
280
     0
  9
$REALWORLDSCALE
290
     1
  9
$INTERFERECOLOR
 62
     1
  9
$INTERFEREOBJVS
345
33
  9
$INTERFEREVPVS
346
30
  9
$CSHADOW
280
     0
  9
$SHADOWPLANELOCATION
 40
0.0
  0
ENDSEC
  0
SECTION
  2
CLASSES
  0
CLASS
  1
ACDBDICTIONARYWDFLT
  2
AcDbDictionaryWithDefault
  3
ObjectDBX Classes
 90
        0
 91
        1
280
     0
281
     0
  0
CLASS
  1
MATERIAL
  2
AcDbMaterial
  3
ObjectDBX Classes
 90
     1153
 91
        3
280
     0
281
     0
  0
CLASS
  1
VISUALSTYLE
  2
AcDbVisualStyle
  3
ObjectDBX Classes
 90
     4095
 91
       24
280
     0
281
     0
  0
CLASS
  1
SCALE
  2
AcDbScale
  3
ObjectDBX Classes
 90
     1153
 91
       17
280
     0
281
     0
  0
CLASS
  1
TABLESTYLE
  2
AcDbTableStyle
  3
ObjectDBX Classes
 90
     4095
 91
        1
280
     0
281
     0
  0
CLASS
  1
MLEADERSTYLE
  2
AcDbMLeaderStyle
  3
ACDB_MLEADERSTYLE_CLASS
 90
     4095
 91
        1
280
     0
281
     0
  0
CLASS
  1
ACDBSECTIONVIEWSTYLE
  2
AcDbSectionViewStyle
  3
ObjectDBX Classes
 90
     1025
 91
        2
280
     0
281
     0
  0
CLASS
  1
ACDBDETAILVIEWSTYLE
  2
AcDbDetailViewStyle
  3
ObjectDBX Classes
 90
     1025
 91
        2
280
     0
281
     0
  0
CLASS
  1
DICTIONARYVAR
  2
AcDbDictionaryVar
  3
ObjectDBX Classes
 90
        0
 91
       13
280
     0
281
     0
  0
CLASS
  1
CELLSTYLEMAP
  2
AcDbCellStyleMap
  3
ObjectDBX Classes
 90
     1152
 91
        2
280
     0
281
     0
  0
ENDSEC
  0
SECTION
  2
TABLES
  0
TABLE
  2
VPORT
  5
8
330
0
100
AcDbSymbolTable
 70
     1
  0
VPORT
  5
84
330
8
100
AcDbSymbolTableRecord
100
AcDbViewportTableRecord
  2
*Active
 70
     0
 10
0.0
 20
0.0
 11
1.0
 21
1.0
 12
413.4207748899741
 22
301.0922717165577
 13
0.0
 23
0.0
 14
1.0
 24
1.0
 15
0.0
 25
0.0
 16
0.0
 26
0.0
 36
1.0
 17
0.0
 27
0.0
 37
0.0
 40
551.1585385477198
 41
2.295757575757575
 42
50.0
 43
0.0
 44
0.0
 50
0.0
 51
0.0
 71
     0
 72
   100
 73
     1
 74
     0
 75
     1
 76
     0
 77
     0
 78
     0
281
     0
 65
     1
110
0.0
120
0.0
130
0.0
111
1.0
121
0.0
131
0.0
112
0.0
122
1.0
132
0.0
 79
     0
146
0.0
348
2F
 60
     3
 61
     5
292
     1
282
     1
141
0.0
142
0.0
 63
   250
421
  3355443
1001
ACAD_NAV_VCDISPLAY
1070
     3
  0
ENDTAB
  0
TABLE
  2
LTYPE
  5
5
330
0
100
AcDbSymbolTable
 70
     4
  0
LTYPE
  5
5A
330
5
100
AcDbSymbolTableRecord
100
AcDbLinetypeTableRecord
  2
ByBlock
 70
     0
  3

 72
    65
 73
     0
 40
0.0
  0
LTYPE
  5
5B
330
5
100
AcDbSymbolTableRecord
100
AcDbLinetypeTableRecord
  2
ByLayer
 70
     0
  3

 72
    65
 73
     0
 40
0.0
  0
LTYPE
  5
5C
330
5
100
AcDbSymbolTableRecord
100
AcDbLinetypeTableRecord
  2
CONTINUOUS
 70
     0
  3
Solid line (NEC CAE2D for Win R14.2 : 2018.11.21)
 72
    65
 73
     0
 40
0.0
  0
LTYPE
  5
73
330
5
100
AcDbSymbolTableRecord
100
AcDbLinetypeTableRecord
  2
HIDDEN
 70
     0
  3
__ __ __ __ __ __ __ __ __ __ __ __ __ __
 72
    65
 73
     2
 40
0.375
 49
0.25
 74
     0
 49
-0.125
 74
     0
  0
LTYPE
  5
74
330
5
100
AcDbSymbolTableRecord
100
AcDbLinetypeTableRecord
  2
CENTER
 70
     0
  3
____ _ ____ _ ____ _ ____ _ ____ _ ____
 72
    65
 73
     4
 40
2.0
 49
1.25
 74
     0
 49
-0.25
 74
     0
 49
0.25
 74
     0
 49
-0.25
 74
     0
  0
ENDTAB
  0
TABLE
  2
LAYER
  5
2
330
0
100
AcDbSymbolTable
 70
     8
  0
LAYER
  5
54
102
{ACAD_XDICTIONARY
360
5D3
102
}
330
2
100
AcDbSymbolTableRecord
100
AcDbLayerTableRecord
  2
0
 70
     0
 62
     7
  6
CONTINUOUS
370
    -3
390
F
347
21
348
0
  0
LAYER
  5
76
102
{ACAD_XDICTIONARY
360
5D5
102
}
330
2
100
AcDbSymbolTableRecord
100
AcDbLayerTableRecord
  2
LOUVER
 70
     0
 62
     4
  6
CONTINUOUS
370
    -3
390
F
347
21
348
0
  0
LAYER
  5
77
102
{ACAD_XDICTIONARY
360
5D7
102
}
330
2
100
AcDbSymbolTableRecord
100
AcDbLayerTableRecord
  2
UKEZAI
 70
     0
 62
     5
  6
CONTINUOUS
370
    -3
390
F
347
21
348
0
  0
LAYER
  5
78
102
{ACAD_XDICTIONARY
360
5D9
102
}
330
2
100
AcDbSymbolTableRecord
100
AcDbLayerTableRecord
  2
ANCHOR
 70
     0
 62
     2
  6
CONTINUOUS
370
    -3
390
F
347
21
348
0
  0
LAYER
  5
79
102
{ACAD_XDICTIONARY
360
5DB
102
}
330
2
100
AcDbSymbolTableRecord
100
AcDbLayerTableRecord
  2
KUTAI
 70
     0
 62
     6
  6
CONTINUOUS
370
    -3
390
F
347
21
348
0
  0
LAYER
  5
7A
102
{ACAD_XDICTIONARY
360
5DD
102
}
330
2
100
AcDbSymbolTableRecord
100
AcDbLayerTableRecord
  2
WASHER
 70
     0
 62
     2
  6
CONTINUOUS
370
    -3
390
F
347
21
348
0
  0
LAYER
  5
7B
102
{ACAD_XDICTIONARY
360
5DF
102
}
330
2
100
AcDbSymbolTableRecord
100
AcDbLayerTableRecord
  2
COMMENT
 70
     0
 62
     3
  6
CONTINUOUS
370
    -3
390
F
347
21
348
0
  0
LAYER
  5
7C
102
{ACAD_XDICTIONARY
360
5E1
102
}
330
2
100
AcDbSymbolTableRecord
100
AcDbLayerTableRecord
  2
WAKU
 70
     0
 62
     1
  6
CONTINUOUS
370
    -3
390
F
347
21
348
0
  0
ENDTAB
  0
TABLE
  2
STYLE
  5
3
330
0
100
AcDbSymbolTable
 70
     5
  0
STYLE
  5
55
330
3
100
AcDbSymbolTableRecord
100
AcDbTextStyleTableRecord
  2
STANDARD
 70
     0
 40
0.0
 41
1.0
 50
0.0
 71
     0
 42
4.0
  3
TXT
  4

  0
STYLE
  5
59
330
3
100
AcDbSymbolTableRecord
100
AcDbTextStyleTableRecord
  2
Annotative
 70
     0
 40
0.0
 41
1.0
 50
0.0
 71
     0
 42
0.2
  3
txt
  4

1001
AcadAnnotative
1000
AnnotativeData
1002
{
1070
     1
1070
     1
1002
}
  0
STYLE
  5
7F
330
3
100
AcDbSymbolTableRecord
100
AcDbTextStyleTableRecord
  2
ANKTATE
 70
     4
 40
0.0
 41
1.0
 50
0.0
 71
     0
 42
4.0
  3
TXT
  4

  0
STYLE
  5
80
330
3
100
AcDbSymbolTableRecord
100
AcDbTextStyleTableRecord
  2
KNJYOKO
 70
     0
 40
0.0
 41
1.0
 50
0.0
 71
     0
 42
4.0
  3
TXT
  4
BIGFONT
  0
STYLE
  5
81
330
3
100
AcDbSymbolTableRecord
100
AcDbTextStyleTableRecord
  2
KNJTATE
 70
     4
 40
0.0
 41
1.0
 50
0.0
 71
     0
 42
4.0
  3
TXT
  4
BIGFONT
  0
ENDTAB
  0
TABLE
  2
VIEW
  5
6
330
0
100
AcDbSymbolTable
 70
     0
  0
ENDTAB
  0
TABLE
  2
UCS
  5
7
330
0
100
AcDbSymbolTable
 70
     0
  0
ENDTAB
  0
TABLE
  2
APPID
  5
9
330
0
100
AcDbSymbolTable
 70
     5
  0
APPID
  5
56
330
9
100
AcDbSymbolTableRecord
100
AcDbRegAppTableRecord
  2
ACAD
 70
     0
  0
APPID
  5
5D
330
9
100
AcDbSymbolTableRecord
100
AcDbRegAppTableRecord
  2
AcadAnnotative
 70
     0
  0
APPID
  5
5D1
330
9
100
AcDbSymbolTableRecord
100
AcDbRegAppTableRecord
  2
ACAD_EXEMPT_FROM_CAD_STANDARDS
 70
     0
  0
APPID
  5
5ED
330
9
100
AcDbSymbolTableRecord
100
AcDbRegAppTableRecord
  2
ACAD_NAV_VCDISPLAY
 70
     0
  0
APPID
  5
626
330
9
100
AcDbSymbolTableRecord
100
AcDbRegAppTableRecord
  2
ACAD_MLEADERVER
 70
     0
  0
ENDTAB
  0
TABLE
  2
DIMSTYLE
  5
A
330
0
100
AcDbSymbolTable
 70
     2
100
AcDbDimStyleTable
 71
     0
  0
DIMSTYLE
105
57
330
A
100
AcDbSymbolTableRecord
100
AcDbDimStyleTableRecord
  2
Standard
 70
     0
340
55
  0
DIMSTYLE
105
58
330
A
100
AcDbSymbolTableRecord
100
AcDbDimStyleTableRecord
  2
Annotative
 70
     0
340
55
1001
AcadAnnotative
1000
AnnotativeData
1002
{
1070
     1
1070
     1
1002
}
  0
ENDTAB
  0
TABLE
  2
BLOCK_RECORD
  5
1
330
0
100
AcDbSymbolTable
 70
     2
  0
BLOCK_RECORD
  5
6F
330
1
100
AcDbSymbolTableRecord
100
AcDbBlockTableRecord
  2
*Model_Space
340
72
 70
     0
280
     1
281
     0
  0
BLOCK_RECORD
  5
6B
330
1
100
AcDbSymbolTableRecord
100
AcDbBlockTableRecord
  2
*Paper_Space
340
6E
 70
     0
280
     1
281
     0
  0
BLOCK_RECORD
  5
85
330
1
100
AcDbSymbolTableRecord
100
AcDbBlockTableRecord
  2
*X0
340
0
102
{BLKREFS
331
10D
102
}
 70
     0
280
     1
281
     0
  0
ENDTAB
  0
ENDSEC
  0
SECTION
  2
BLOCKS
  0
BLOCK
  5
70
330
6F
100
AcDbEntity
  8
0
100
AcDbBlockBegin
  2
*Model_Space
 70
     0
 10
0.0
 20
0.0
 30
0.0
  3
*Model_Space
  1

  0
ENDBLK
  5
71
330
6F
100
AcDbEntity
  8
0
100
AcDbBlockEnd
  0
BLOCK
  5
6C
330
6B
100
AcDbEntity
 67
     1
  8
0
100
AcDbBlockBegin
  2
*Paper_Space
 70
     0
 10
0.0
 20
0.0
 30
0.0
  3
*Paper_Space
  1

  0
ENDBLK
  5
6D
330
6B
100
AcDbEntity
 67
     1
  8
0
100
AcDbBlockEnd
  0
BLOCK
  5
86
330
85
100
AcDbEntity
  8
KUTAI
  6
ByBlock
 62
    12
100
AcDbBlockBegin
  2
*X0
 70
     1
 10
0.0
 20
0.0
 30
0.0
  3
*X0
  1

  0
LINE
  5
87
330
85
100
AcDbEntity
  8
KUTAI
  6
ByBlock
 62
     0
100
AcDbLine
 10
227.7273721234332
 20
47.3364496096256
 30
0.0
 11
229.3273721234318
 21
48.93644960962371
 31
0.0
  0
LINE
  5
88
330
85
100
AcDbEntity
  8
KUTAI
  6
ByBlock
 62
     0
100
AcDbLine
 10
228.0509278357716
 20
46.24579175751659
 30
0.0
 11
229.3908846518856
 21
47.58574857507473
 31
0.0
  0
LINE
  5
89
330
85
100
AcDbEntity
  8
KUTAI
  6
ByBlock
 62
     0
100
AcDbLine
 10
227.7273721234332
 20
68.549653045222
 30
0.0
 11
229.3273721234303
 21
70.14965304521961
 31
0.0
  0
LINE
  5
8A
330
85
100
AcDbEntity
  8
KUTAI
  6
ByBlock
 62
     0
100
AcDbLine
 10
256.1273721234334
 20
96.94965304522213
 30
0.0
 11
257.7273721234319
 21
98.54965304522073
 31
0.0
  0
LINE
  5
8B
330
85
100
AcDbEntity
  8
KUTAI
  6
ByBlock
 62
     0
100
AcDbLine
 10
227.7273721234328
 20
67.1354394828478
 30
0.0
 11
229.3273721234318
 21
68.73543948284731
 31
0.0
  0
LINE
  5
8C
330
85
100
AcDbEntity
  8
KUTAI
  6
ByBlock
 62
     0
100
AcDbLine
 10
256.1273721234338
 20
95.53543948284936
 30
0.0
 11
257.7273721234333
 21
97.13543948284879
 31
0.0
  0
LINE
  5
8D
330
85
100
AcDbEntity
  8
KUTAI
  6
ByBlock
 62
     0
100
AcDbLine
 10
227.7273721234315
 20
89.76285648081654
 30
0.0
 11
229.3273721234309
 21
91.36285648081601
 31
0.0
  0
LINE
  5
8E
330
85
100
AcDbEntity
  8
KUTAI
  6
ByBlock
 62
     0
100
AcDbLine
 10
241.7009652522406
 20
103.7364496096258
 30
0.0
 11
243.3009652522401
 21
105.3364496096252
 31
0.0
  0
LINE
  5
8F
330
85
100
AcDbEntity
  8
KUTAI
  6
ByBlock
 62
     0
100
AcDbLine
 10
227.7273721234324
 20
88.34864291844416
 30
0.0
 11
229.3273721234314
 21
89.94864291844269
 31
0.0
  0
LINE
  5
90
330
85
100
AcDbEntity
  8
KUTAI
  6
ByBlock
 62
     0
100
AcDbLine
 10
243.1151788146158
 20
103.7364496096272
 30
0.0
 11
244.7151788146125
 21
105.3364496096244
 31
0.0
  0
LINE
  5
91
330
85
100
AcDbEntity
  8
KUTAI
  6
ByBlock
 62
     0
100
AcDbLine
 10
246.940575559029
 20
45.33644960962518
 30
0.0
 11
248.5405755590272
 21
46.93644960962278
 31
0.0
  0
LINE
  5
92
330
85
100
AcDbEntity
  8
KUTAI
  6
ByBlock
 62
     0
100
AcDbLine
 10
256.1273721234341
 20
54.52324617403021
 30
0.0
 11
256.9405755590263
 21
55.3364496096224
 31
0.0
  0
LINE
  5
93
330
85
100
AcDbEntity
  8
KUTAI
  6
ByBlock
 62
     0
100
AcDbLine
 10
248.3547891214028
 20
45.33644960962559
 30
0.0
 11
249.9547891214004
 21
46.9364496096232
 31
0.0
  0
LINE
  5
94
330
85
100
AcDbEntity
  8
KUTAI
  6
ByBlock
 62
     0
100
AcDbLine
 10
256.1273721234347
 20
53.10903261165702
 30
0.0
 11
257.727372123431
 21
54.7090326116537
 31
0.0
  0
ENDBLK
  5
95
330
85
100
AcDbEntity
  8
KUTAI
  6
ByBlock
 62
    12
100
AcDbBlockEnd
  0
ENDSEC
  0
SECTION
  2
ENTITIES
  0
LINE
  5
96
330
6F
100
AcDbEntity
  8
WASHER
  6
HIDDEN
100
AcDbLine
 10
239.5273721234329
 20
372.2555691123014
 30
0.0
 11
239.5273721234329
 21
374.2555691122947
 31
0.0
  0
LINE
  5
97
330
6F
100
AcDbEntity
  8
WASHER
  6
HIDDEN
100
AcDbLine
 10
245.9273721234328
 20
372.2555691123014
 30
0.0
 11
245.9273721234328
 21
374.2555691123081
 31
0.0
  0
LINE
  5
98
330
6F
100
AcDbEntity
  8
KUTAI
  6
Continuous
100
AcDbLine
 10
284.0129803851768
 20
334.6987978358873
 30
0.0
 11
320.0697516615908
 21
370.7555691123013
 31
0.0
  0
LINE
  5
99
330
6F
100
AcDbEntity
  8
KUTAI
  6
Continuous
100
AcDbLine
 10
276.941912573311
 20
334.698797835887
 30
0.0
 11
312.9986838497251
 21
370.7555691123013
 31
0.0
  0
LINE
  5
9A
330
6F
100
AcDbEntity
  8
KUTAI
  6
Continuous
100
AcDbLine
 10
269.8708447614457
 20
334.6987978358873
 30
0.0
 11
305.9276160378598
 21
370.7555691123013
 31
0.0
  0
LINE
  5
9B
330
6F
100
AcDbEntity
  8
KUTAI
  6
Continuous
100
AcDbLine
 10
148.4647851474592
 20
334.6987978358872
 30
0.0
 11
184.5215564238731
 21
370.7555691123012
 31
0.0
  0
LINE
  5
9C
330
6F
100
AcDbEntity
  8
KUTAI
  6
Continuous
100
AcDbLine
 10
141.3937173355937
 20
334.6987978358873
 30
0.0
 11
177.4504886120079
 21
370.7555691123013
 31
0.0
  0
LINE
  5
9D
330
6F
100
AcDbEntity
  8
KUTAI
  6
Continuous
100
AcDbLine
 10
134.3226495237282
 20
334.6987978358872
 30
0.0
 11
170.3794208001425
 21
370.7555691123014
 31
0.0
  0
LINE
  5
C4
330
6F
100
AcDbEntity
  8
KUTAI
  6
Continuous
100
AcDbLine
 10
132.4720475945935
 20
108.336449609626
 30
0.0
 11
334.6456117066339
 21
108.336449609626
 31
0.0
  0
LINE
  5
C5
330
6F
100
AcDbEntity
  8
LOUVER
  6
CENTER
100
AcDbLine
 10
242.7273721234328
 20
61.76639405043101
 30
0.0
 11
242.7273721234328
 21
121.8068162692732
 31
0.0
  0
LINE
  5
C6
330
6F
100
AcDbEntity
  8
WASHER
  6
Continuous
100
AcDbLine
 10
227.7273721234328
 20
111.8364496096258
 30
0.0
 11
257.7273721234328
 21
111.8364496096258
 31
0.0
  0
LINE
  5
C7
330
6F
100
AcDbEntity
  8
WASHER
  6
Continuous
100
AcDbLine
 10
257.7273721234328
 20
109.8364496096258
 30
0.0
 11
257.7273721234328
 21
111.8364496096258
 31
0.0
  0
LINE
  5
C8
330
6F
100
AcDbEntity
  8
WASHER
  6
Continuous
100
AcDbLine
 10
227.7273721234328
 20
109.8364496096258
 30
0.0
 11
227.7273721234328
 21
111.8364496096258
 31
0.0
  0
LINE
  5
C9
330
6F
100
AcDbEntity
  8
LOUVER
  6
CENTER
100
AcDbLine
 10
236.7877330595507
 20
118.3364496096092
 30
0.0
 11
218.3387701989777
 21
118.3364496096309
 31
0.0
  0
LINE
  5
CA
330
6F
100
AcDbEntity
  8
ANCHOR
  6
HIDDEN
100
AcDbLine
 10
232.2273721249208
 20
120.3364496097352
 30
0.0
 11
222.727372123592
 21
120.3364496097755
 31
0.0
  0
LINE
  5
CB
330
6F
100
AcDbEntity
  8
ANCHOR
  6
HIDDEN
100
AcDbLine
 10
232.2273721254759
 20
116.3364496097352
 30
0.0
 11
222.7273721235764
 21
116.3364496097755
 31
0.0
  0
LINE
  5
CC
330
6F
100
AcDbEntity
  8
ANCHOR
  6
HIDDEN
100
AcDbLine
 10
235.150021855686
 20
119.3364496097437
 30
0.0
 11
233.2273721249314
 21
119.3364496097398
 31
0.0
  0
LINE
  5
CD
330
6F
100
AcDbEntity
  8
ANCHOR
  6
HIDDEN
100
AcDbLine
 10
235.1500218558819
 20
117.3364496097437
 30
0.0
 11
233.2273721254694
 21
117.3364496097398
 31
0.0
  0
LINE
  5
CE
330
6F
100
AcDbEntity
  8
ANCHOR
  6
HIDDEN
100
AcDbLine
 10
235.7273721249738
 20
118.3364496095836
 30
0.0
 11
235.1500218556863
 21
119.3364496097443
 31
0.0
  0
LINE
  5
CF
330
6F
100
AcDbEntity
  8
ANCHOR
  6
HIDDEN
100
AcDbLine
 10
235.1500218558826
 20
117.336449609745
 30
0.0
 11
235.7273721249743
 21
118.3364496095839
 31
0.0
  0
ARC
  5
D0
330
6F
100
AcDbEntity
  8
ANCHOR
  6
HIDDEN
100
AcDbCircle
 10
233.7273721254787
 20
118.3364496097421
 30
0.0
 40
0.5
100
AcDbArc
 50
97.20679386168658
 51
262.7932061387912
  0
LINE
  5
D1
330
6F
100
AcDbEntity
  8
ANCHOR
  6
HIDDEN
100
AcDbLine
 10
233.6646466890138
 20
117.840399693281
 30
0.0
 11
235.150021855882
 21
117.3364496097432
 31
0.0
  0
LINE
  5
D2
330
6F
100
AcDbEntity
  8
ANCHOR
  6
HIDDEN
100
AcDbLine
 10
233.6646466890101
 20
118.8324995262019
 30
0.0
 11
235.150021855686
 21
119.3364496097439
 31
0.0
  0
LINE
  5
D3
330
6F
100
AcDbEntity
  8
ANCHOR
  6
HIDDEN
100
AcDbLine
 10
233.2273721249297
 20
119.3364496097394
 30
0.0
 11
232.2273721249204
 21
120.3364496097367
 31
0.0
  0
LINE
  5
D4
330
6F
100
AcDbEntity
  8
ANCHOR
  6
HIDDEN
100
AcDbLine
 10
232.2273721254759
 20
116.3364496097385
 30
0.0
 11
233.2273721254686
 21
117.3364496097387
 31
0.0
  0
LINE
  5
D5
330
6F
100
AcDbEntity
  8
ANCHOR
  6
HIDDEN
100
AcDbLine
 10
232.2273721252073
 20
116.3364496097375
 30
0.0
 11
232.2273721251925
 21
120.3364496097375
 31
0.0
  0
LINE
  5
D6
330
6F
100
AcDbEntity
  8
ANCHOR
  6
HIDDEN
100
AcDbLine
 10
233.2273721249726
 20
117.3364496097376
 30
0.0
 11
233.2273721249634
 21
119.3364496097376
 31
0.0
  0
LINE
  5
D7
330
6F
100
AcDbEntity
  8
ANCHOR
  6
HIDDEN
100
AcDbLine
 10
233.0273721254709
 20
117.136449609738
 30
0.0
 11
222.7273721235803
 21
117.1364496097791
 31
0.0
  0
LINE
  5
D8
330
6F
100
AcDbEntity
  8
ANCHOR
  6
HIDDEN
100
AcDbLine
 10
233.0273721249297
 20
119.5364496097376
 30
0.0
 11
222.7273721235894
 21
119.5364496097787
 31
0.0
  0
LINE
  5
D9
330
6F
100
AcDbEntity
  8
ANCHOR
  6
Continuous
100
AcDbLine
 10
220.7050615424424
 20
118.8346478573679
 30
0.0
 11
220.7050615424429
 21
117.8382513618857
 31
0.0
  0
LINE
  5
DA
330
6F
100
AcDbEntity
  8
ANCHOR
  6
Continuous
100
AcDbLine
 10
220.7050615424421
 20
118.8346478573681
 30
0.0
 11
220.2273721237678
 21
118.8346478573681
 31
0.0
  0
LINE
  5
DB
330
6F
100
AcDbEntity
  8
ANCHOR
  6
Continuous
100
AcDbLine
 10
220.7050615424426
 20
117.8382513618859
 30
0.0
 11
220.2273721237682
 21
117.8382513618859
 31
0.0
  0
LINE
  5
DC
330
6F
100
AcDbEntity
  8
ANCHOR
  6
Continuous
100
AcDbLine
 10
222.2273721237846
 20
113.6364496096248
 30
0.0
 11
222.7273721237846
 21
113.6364496096252
 31
0.0
  0
ARC
  5
DD
330
6F
100
AcDbEntity
  8
ANCHOR
  6
Continuous
100
AcDbCircle
 10
226.3188375180907
 20
118.1608181763096
 30
0.0
 40
6.099999999999998
100
AcDbArc
 50
183.0312034848472
 51
227.876411461438
  0
LINE
  5
DE
330
6F
100
AcDbEntity
  8
ANCHOR
  6
Continuous
100
AcDbLine
 10
222.2273721237506
 20
123.0364496096268
 30
0.0
 11
222.2273721237854
 21
113.6364496096252
 31
0.0
  0
ARC
  5
DF
330
6F
100
AcDbEntity
  8
ANCHOR
  6
Continuous
100
AcDbCircle
 10
226.3188375180907
 20
118.5120810429472
 30
0.0
 40
6.099999999999998
100
AcDbArc
 50
132.1235885386251
 51
176.9687965152159
  0
LINE
  5
E0
330
6F
100
AcDbEntity
  8
ANCHOR
  6
Continuous
100
AcDbLine
 10
222.7273721237515
 20
123.0364496096282
 30
0.0
 11
222.7273721237862
 21
113.6364496096267
 31
0.0
  0
LINE
  5
E1
330
6F
100
AcDbEntity
  8
ANCHOR
  6
Continuous
100
AcDbLine
 10
222.2273721237803
 20
123.0364496096265
 30
0.0
 11
222.7273721237803
 21
123.0364496096269
 31
0.0
  0
LINE
  5
E2
330
6F
100
AcDbEntity
  8
WASHER
  6
Continuous
100
AcDbLine
 10
227.7273721234328
 20
109.8364496096258
 30
0.0
 11
257.7273721234328
 21
109.8364496096258
 31
0.0
  0
LINE
  5
E3
330
6F
100
AcDbEntity
  8
WASHER
  6
HIDDEN
100
AcDbLine
 10
245.9273721234329
 20
109.8364496096256
 30
0.0
 11
245.9273721234329
 21
111.8364496096323
 31
0.0
  0
LINE
  5
E4
330
6F
100
AcDbEntity
  8
WASHER
  6
HIDDEN
100
AcDbLine
 10
239.527372123433
 20
109.8364496096256
 30
0.0
 11
239.527372123433
 21
111.8364496096188
 31
0.0
  0
LINE
  5
E5
330
6F
100
AcDbEntity
  8
ANCHOR
  6
Continuous
100
AcDbLine
 10
248.2273721234651
 20
111.8364496096299
 30
0.0
 11
237.2273721234651
 21
111.8364496096218
 31
0.0
  0
LINE
  5
E6
330
6F
100
AcDbEntity
  8
ANCHOR
  6
Continuous
100
AcDbLine
 10
248.2273721234645
 20
111.8364496096304
 30
0.0
 11
248.2273721234648
 21
112.6364496096301
 31
0.0
  0
LINE
  5
E7
330
6F
100
AcDbEntity
  8
ANCHOR
  6
Continuous
100
AcDbLine
 10
237.2273721234645
 20
111.8364496096219
 30
0.0
 11
237.2273721234648
 21
112.6364496096221
 31
0.0
  0
LINE
  5
E8
330
6F
100
AcDbEntity
  8
ANCHOR
  6
Continuous
100
AcDbLine
 10
248.2273721234645
 20
112.6364496096301
 30
0.0
 11
237.2273721234645
 21
112.636449609622
 31
0.0
  0
ARC
  5
E9
330
6F
100
AcDbEntity
  8
ANCHOR
  6
Continuous
100
AcDbCircle
 10
242.7273721234668
 20
108.7805672566849
 30
0.0
 40
5.555882352941173
100
AcDbArc
 50
43.94901598298635
 51
136.0509840170985
  0
LINE
  5
EA
330
6F
100
AcDbEntity
  8
ANCHOR
  6
HIDDEN
100
AcDbLine
 10
240.7273721233263
 20
75.3364496096783
 30
0.0
 11
240.7273721232859
 21
111.8364496098018
 31
0.0
  0
LINE
  5
EB
330
6F
100
AcDbEntity
  8
ANCHOR
  6
HIDDEN
100
AcDbLine
 10
244.7273721233263
 20
75.33644960912321
 30
0.0
 11
244.7273721232859
 21
111.8364496098174
 31
0.0
  0
LINE
  5
EC
330
6F
100
AcDbEntity
  8
ANCHOR
  6
HIDDEN
100
AcDbLine
 10
241.7273721233181
 20
72.4137998789131
 30
0.0
 11
241.727372123322
 21
74.33644960966759
 31
0.0
  0
LINE
  5
ED
330
6F
100
AcDbEntity
  8
ANCHOR
  6
HIDDEN
100
AcDbLine
 10
243.7273721233181
 20
72.4137998787172
 30
0.0
 11
243.727372123322
 21
74.3364496091297
 31
0.0
  0
LINE
  5
EE
330
6F
100
AcDbEntity
  8
ANCHOR
  6
HIDDEN
100
AcDbLine
 10
242.7273721234784
 20
71.83644960962505
 30
0.0
 11
241.7273721233177
 21
72.41379987891244
 31
0.0
  0
LINE
  5
EF
330
6F
100
AcDbEntity
  8
ANCHOR
  6
HIDDEN
100
AcDbLine
 10
243.727372123317
 20
72.41379987871681
 30
0.0
 11
242.7273721234781
 21
71.83644960962502
 31
0.0
  0
ARC
  5
F0
330
6F
100
AcDbEntity
  8
ANCHOR
  6
HIDDEN
100
AcDbCircle
 10
242.7273721233194
 20
73.8364496091199
 30
0.0
 40
0.5
100
AcDbArc
 50
7.206793861208892
 51
172.7932061383134
  0
LINE
  5
F1
330
6F
100
AcDbEntity
  8
ANCHOR
  6
HIDDEN
100
AcDbLine
 10
243.2234220397803
 20
73.89917504558479
 30
0.0
 11
243.7273721233181
 21
72.4137998787164
 31
0.0
  0
LINE
  5
F2
330
6F
100
AcDbEntity
  8
ANCHOR
  6
HIDDEN
100
AcDbLine
 10
242.2313222068599
 20
73.89917504558829
 30
0.0
 11
241.7273721233178
 21
72.41379987891281
 31
0.0
  0
LINE
  5
F3
330
6F
100
AcDbEntity
  8
ANCHOR
  6
HIDDEN
100
AcDbLine
 10
241.7273721233227
 20
74.33644960966958
 30
0.0
 11
240.7273721233254
 21
75.33644960967897
 31
0.0
  0
LINE
  5
F4
330
6F
100
AcDbEntity
  8
ANCHOR
  6
HIDDEN
100
AcDbLine
 10
244.7273721233234
 20
75.33644960912325
 30
0.0
 11
243.7273721233232
 21
74.33644960913075
 31
0.0
  0
LINE
  5
F5
330
6F
100
AcDbEntity
  8
ANCHOR
  6
HIDDEN
100
AcDbLine
 10
244.727372123324
 20
75.3364496093916
 30
0.0
 11
240.727372123324
 21
75.3364496094064
 31
0.0
  0
LINE
  5
F6
330
6F
100
AcDbEntity
  8
ANCHOR
  6
HIDDEN
100
AcDbLine
 10
243.7273721233241
 20
74.3364496096263
 30
0.0
 11
241.7273721233241
 21
74.33644960963547
 31
0.0
  0
LINE
  5
F7
330
6F
100
AcDbEntity
  8
ANCHOR
  6
HIDDEN
100
AcDbLine
 10
243.9273721233238
 20
74.5364496091281
 30
0.0
 11
243.9273721232827
 21
111.8364496098135
 31
0.0
  0
LINE
  5
F8
330
6F
100
AcDbEntity
  8
ANCHOR
  6
HIDDEN
100
AcDbLine
 10
241.5273721233242
 20
74.53644960966932
 30
0.0
 11
241.5273721232831
 21
111.8364496098043
 31
0.0
  0
LINE
  5
F9
330
6F
100
AcDbEntity
  8
KUTAI
  6
Continuous
100
AcDbLine
 10
227.7273721234328
 20
47.33644960962595
 30
0.0
 11
227.7273721234328
 21
103.336449609626
 31
0.0
  0
LINE
  5
FA
330
6F
100
AcDbEntity
  8
KUTAI
  6
Continuous
100
AcDbLine
 10
229.7273721234328
 20
45.33644960962596
 30
0.0
 11
255.7273721234328
 21
45.33644960962596
 31
0.0
  0
LINE
  5
FB
330
6F
100
AcDbEntity
  8
KUTAI
  6
Continuous
100
AcDbLine
 10
230.3273721234328
 20
103.736449609626
 30
0.0
 11
255.1273721234328
 21
103.736449609626
 31
0.0
  0
LINE
  5
FC
330
6F
100
AcDbEntity
  8
KUTAI
  6
Continuous
100
AcDbLine
 10
229.3273721234328
 20
47.93644960962595
 30
0.0
 11
229.3273721234328
 21
102.736449609626
 31
0.0
  0
LINE
  5
FD
330
6F
100
AcDbEntity
  8
KUTAI
  6
Continuous
100
AcDbLine
 10
230.3273721234328
 20
46.93644960962595
 30
0.0
 11
255.1273721234329
 21
46.93644960962595
 31
0.0
  0
LINE
  5
FE
330
6F
100
AcDbEntity
  8
KUTAI
  6
Continuous
100
AcDbLine
 10
256.1273721234328
 20
95.336449609626
 30
0.0
 11
257.7273721234328
 21
95.336449609626
 31
0.0
  0
LINE
  5
FF
330
6F
100
AcDbEntity
  8
KUTAI
  6
Continuous
100
AcDbLine
 10
256.1273721234328
 20
55.33644960962599
 30
0.0
 11
257.7273721234328
 21
55.33644960962599
 31
0.0
  0
LINE
  5
100
330
6F
100
AcDbEntity
  8
KUTAI
  6
Continuous
100
AcDbLine
 10
256.1273721234328
 20
47.93644960962595
 30
0.0
 11
256.1273721234328
 21
55.33644960962599
 31
0.0
  0
LINE
  5
101
330
6F
100
AcDbEntity
  8
KUTAI
  6
Continuous
100
AcDbLine
 10
256.1273721234328
 20
95.336449609626
 30
0.0
 11
256.1273721234328
 21
102.736449609626
 31
0.0
  0
LINE
  5
102
330
6F
100
AcDbEntity
  8
KUTAI
  6
Continuous
100
AcDbLine
 10
257.7273721234328
 20
47.33644960962595
 30
0.0
 11
257.7273721234328
 21
55.33644960962599
 31
0.0
  0
LINE
  5
103
330
6F
100
AcDbEntity
  8
KUTAI
  6
Continuous
100
AcDbLine
 10
257.7273721234328
 20
95.336449609626
 30
0.0
 11
257.7273721234328
 21
103.336449609626
 31
0.0
  0
ARC
  5
104
330
6F
100
AcDbEntity
  8
KUTAI
  6
Continuous
100
AcDbCircle
 10
255.7273721234328
 20
103.336449609626
 30
0.0
 40
2.0
100
AcDbArc
 50
0.0
 51
90.0
  0
ARC
  5
105
330
6F
100
AcDbEntity
  8
KUTAI
  6
Continuous
100
AcDbCircle
 10
229.7273721234328
 20
103.336449609626
 30
0.0
 40
2.0
100
AcDbArc
 50
90.0
 51
180.0
  0
ARC
  5
106
330
6F
100
AcDbEntity
  8
KUTAI
  6
Continuous
100
AcDbCircle
 10
229.7273721234328
 20
47.33644960962595
 30
0.0
 40
2.0
100
AcDbArc
 50
180.0
 51
270.0
  0
ARC
  5
107
330
6F
100
AcDbEntity
  8
KUTAI
  6
Continuous
100
AcDbCircle
 10
255.7273721234328
 20
47.33644960962595
 30
0.0
 40
2.0
100
AcDbArc
 50
270.0
 51
0.0
  0
ARC
  5
108
330
6F
100
AcDbEntity
  8
KUTAI
  6
Continuous
100
AcDbCircle
 10
255.1273721234329
 20
47.93644960962595
 30
0.0
 40
1.0
100
AcDbArc
 50
270.0
 51
0.0
  0
ARC
  5
109
330
6F
100
AcDbEntity
  8
KUTAI
  6
Continuous
100
AcDbCircle
 10
255.1273721234328
 20
102.736449609626
 30
0.0
 40
1.0
100
AcDbArc
 50
0.0
 51
90.0
  0
ARC
  5
10A
330
6F
100
AcDbEntity
  8
KUTAI
  6
Continuous
100
AcDbCircle
 10
230.3273721234328
 20
102.736449609626
 30
0.0
 40
1.0
100
AcDbArc
 50
90.0
 51
180.0
  0
ARC
  5
10B
330
6F
100
AcDbEntity
  8
KUTAI
  6
Continuous
100
AcDbCircle
 10
230.3273721234328
 20
47.93644960962595
 30
0.0
 40
1.0
100
AcDbArc
 50
180.0
 51
270.0
  0
LINE
  5
10C
330
6F
100
AcDbEntity
  8
KUTAI
  6
Continuous
100
AcDbLine
 10
132.4720475945935
 20
105.336449609626
 30
0.0
 11
334.6456117066339
 21
105.336449609626
 31
0.0
  0
INSERT
  5
10D
330
6F
100
AcDbEntity
  8
KUTAI
  6
Continuous
100
AcDbBlockReference
  2
*X0
 10
0.0
 20
0.0
 30
0.0
  0
TEXT
  5
10E
330
6F
100
AcDbEntity
  8
COMMENT
  6
Continuous
100
AcDbText
 10
349.9418172490461
 20
322.2594101746117
 30
0.0
 40
6.0
  1
RC納まり図
  7
KNJYOKO
100
AcDbText
  0
LINE
  5
10F
330
6F
100
AcDbEntity
  8
COMMENT
  6
Continuous
100
AcDbLine
 10
343.7194436660042
 20
316.0977062953458
 30
0.0
 11
393.4272863119038
 21
316.0977062953458
 31
0.0
  0
LINE
  5
110
330
6F
100
AcDbEntity
  8
COMMENT
  6
Continuous
100
AcDbLine
 10
393.4272863119038
 20
316.0977062953458
 30
0.0
 11
393.4272863119038
 21
332.4572886387153
 31
0.0
  0
LINE
  5
111
330
6F
100
AcDbEntity
  8
COMMENT
  6
Continuous
100
AcDbLine
 10
393.4272863119038
 20
332.4572886387153
 30
0.0
 11
343.7194436660042
 21
332.4572886387153
 31
0.0
  0
LINE
  5
112
330
6F
100
AcDbEntity
  8
COMMENT
  6
Continuous
100
AcDbLine
 10
343.7194436660042
 20
332.4572886387153
 30
0.0
 11
343.7194436660042
 21
316.0977062953458
 31
0.0
  0
TEXT
  5
11D
330
6F
100
AcDbEntity
  8
COMMENT
  6
Continuous
100
AcDbText
 10
349.941817249046
 20
53.68204903107908
 30
0.0
 40
6.0
  1
鉄骨納まり図
  7
KNJYOKO
100
AcDbText
  0
LINE
  5
11E
330
6F
100
AcDbEntity
  8
COMMENT
  6
Continuous
100
AcDbLine
 10
343.7194436660041
 20
47.52034515181314
 30
0.0
 11
393.4272863119038
 21
47.52034515181314
 31
0.0
  0
LINE
  5
11F
330
6F
100
AcDbEntity
  8
COMMENT
  6
Continuous
100
AcDbLine
 10
393.4272863119038
 20
47.52034515181314
 30
0.0
 11
393.4272863119038
 21
63.87992749518264
 31
0.0
  0
LINE
  5
120
330
6F
100
AcDbEntity
  8
COMMENT
  6
Continuous
100
AcDbLine
 10
393.4272863119038
 20
63.87992749518264
 30
0.0
 11
343.7194436660041
 21
63.87992749518264
 31
0.0
  0
LINE
  5
121
330
6F
100
AcDbEntity
  8
COMMENT
  6
Continuous
100
AcDbLine
 10
343.7194436660041
 20
63.87992749518264
 30
0.0
 11
343.7194436660041
 21
47.52034515181314
 31
0.0
  0
LINE
  5
122
330
6F
100
AcDbEntity
  8
WAKU
  6
Continuous
100
AcDbLine
 10
33.25789717601344
 20
27.52034515181316
 30
0.0
 11
793.5966754467925
 21
27.52034515181316
 31
0.0
  0
LINE
  5
123
330
6F
100
AcDbEntity
  8
WAKU
  6
Continuous
100
AcDbLine
 10
793.5966754467925
 20
27.52034515181316
 30
0.0
 11
793.5966754467925
 21
574.6750674359868
 31
0.0
  0
LINE
  5
124
330
6F
100
AcDbEntity
  8
WAKU
  6
Continuous
100
AcDbLine
 10
33.25789717601344
 20
574.6750674359868
 30
0.0
 11
33.25789717601344
 21
27.52034515181316
 31
0.0
  0
LINE
  5
125
330
6F
100
AcDbEntity
  8
WAKU
  6
Continuous
100
AcDbLine
 10
793.5966754467925
 20
296.0977062953458
 30
0.0
 11
33.25789717601344
 21
296.0977062953458
 31
0.0
  0
LINE
  5
126
330
6F
100
AcDbEntity
  8
WAKU
  6
Continuous
100
AcDbLine
 10
413.4272863119038
 20
27.52034515181315
 30
0.0
 11
413.4272863119038
 21
549.6750674359868
 31
0.0
  0
LINE
  5
127
330
6F
100
AcDbEntity
  8
WAKU
  6
Continuous
100
AcDbLine
 10
793.5966754467925
 20
574.6750674359868
 30
0.0
 11
33.25789717601344
 21
574.6750674359868
 31
0.0
  0
LINE
  5
128
330
6F
100
AcDbEntity
  8
WAKU
  6
Continuous
100
AcDbLine
 10
793.5966754467925
 20
549.6750674359868
 30
0.0
 11
33.25789717601344
 21
549.6750674359868
 31
0.0
  0
LINE
  5
143
330
6F
100
AcDbEntity
  8
UKEZAI
  6
Continuous
100
AcDbLine
 10
259.4273721245311
 20
111.336449609626
 30
0.0
 11
259.4273721245311
 21
118.336449609626
 31
0.0
  0
LINE
  5
144
330
6F
100
AcDbEntity
  8
UKEZAI
  6
Continuous
100
AcDbLine
 10
260.9273721245829
 20
108.3364496096258
 30
0.0
 11
260.9273721245851
 21
110.336449609339
 31
0.0
  0
LINE
  5
145
330
6F
100
AcDbEntity
  8
UKEZAI
  6
Continuous
100
AcDbLine
 10
257.9273721245311
 20
109.836449609626
 30
0.0
 11
257.9273721245311
 21
122.586449609626
 31
0.0
  0
LINE
  5
146
330
6F
100
AcDbEntity
  8
UKEZAI
  6
Continuous
100
AcDbLine
 10
259.4273721245311
 20
118.3364496095804
 30
0.0
 11
260.7273721238
 21
118.3364496095815
 31
0.0
  0
LINE
  5
147
330
6F
100
AcDbEntity
  8
UKEZAI
  6
Continuous
100
AcDbLine
 10
259.4273721245311
 20
111.336449609626
 30
0.0
 11
260.7273721245863
 21
111.336449609626
 31
0.0
  0
LINE
  5
148
330
6F
100
AcDbEntity
  8
UKEZAI
  6
Continuous
100
AcDbLine
 10
226.0273721245312
 20
111.336449609626
 30
0.0
 11
226.0273721245312
 21
118.336449609626
 31
0.0
  0
LINE
  5
149
330
6F
100
AcDbEntity
  8
UKEZAI
  6
Continuous
100
AcDbLine
 10
224.5273721244793
 20
108.336449609626
 30
0.0
 11
224.527372124477
 21
110.336449609336
 31
0.0
  0
LINE
  5
14A
330
6F
100
AcDbEntity
  8
UKEZAI
  6
Continuous
100
AcDbLine
 10
227.5273721245312
 20
109.836449609626
 30
0.0
 11
227.5273721245312
 21
122.586449609626
 31
0.0
  0
ARC
  5
14B
330
6F
100
AcDbEntity
  8
UKEZAI
  6
Continuous
100
AcDbCircle
 10
226.7773721245312
 20
122.586449609626
 30
0.0
 40
0.75
100
AcDbArc
 50
0.0
 51
160.1120357041571
  0
LINE
  5
14C
330
6F
100
AcDbEntity
  8
UKEZAI
  6
Continuous
100
AcDbLine
 10
226.0273721245311
 20
118.3364496095807
 30
0.0
 11
224.7273721252621
 21
118.3364496095817
 31
0.0
  0
LINE
  5
14D
330
6F
100
AcDbEntity
  8
UKEZAI
  6
Continuous
100
AcDbLine
 10
226.0273721245312
 20
111.336449609626
 30
0.0
 11
224.727372124476
 21
111.336449609626
 31
0.0
  0
LINE
  5
14E
330
6F
100
AcDbEntity
  8
UKEZAI
  6
Continuous
100
AcDbLine
 10
224.5273721244798
 20
108.336449609626
 30
0.0
 11
260.9273721245829
 21
108.336449609626
 31
0.0
  0
ARC
  5
14F
330
6F
100
AcDbEntity
  8
UKEZAI
  6
Continuous
100
AcDbCircle
 10
242.727372124531
 20
109.836449609626
 30
0.0
 40
0.3
100
AcDbArc
 50
180.0
 51
0.0
  0
ARC
  5
150
330
6F
100
AcDbEntity
  8
UKEZAI
  6
Continuous
100
AcDbCircle
 10
258.6773721245311
 20
122.586449609626
 30
0.0
 40
0.75
100
AcDbArc
 50
19.8879642958426
 51
180.0
  0
LINE
  5
151
330
6F
100
AcDbEntity
  8
UKEZAI
  6
Continuous
100
AcDbLine
 10
260.9273721245851
 20
110.336449609339
 30
0.0
 11
260.7273721245862
 21
111.336449609626
 31
0.0
  0
LINE
  5
152
330
6F
100
AcDbEntity
  8
UKEZAI
  6
Continuous
100
AcDbLine
 10
224.5273721244772
 20
110.3364496093389
 30
0.0
 11
224.7273721244761
 21
111.3364496096259
 31
0.0
  0
ARC
  5
153
330
6F
100
AcDbEntity
  8
UKEZAI
  6
Continuous
100
AcDbCircle
 10
224.7273721252623
 20
118.5364496095816
 30
0.0
 40
0.2
100
AcDbArc
 50
160.1120357041559
 51
270.0
  0
LINE
  5
154
330
6F
100
AcDbEntity
  8
UKEZAI
  6
Continuous
100
AcDbLine
 10
224.5393002038023
 20
118.6044860142366
 30
0.0
 11
226.0721024190563
 21
122.841586127082
 31
0.0
  0
ARC
  5
155
330
6F
100
AcDbEntity
  8
UKEZAI
  6
Continuous
100
AcDbCircle
 10
260.7273721238
 20
118.5364496095816
 30
0.0
 40
0.2
100
AcDbArc
 50
270.0
 51
19.88796429584412
  0
LINE
  5
156
330
6F
100
AcDbEntity
  8
UKEZAI
  6
Continuous
100
AcDbLine
 10
260.91544404526
 20
118.6044860142366
 30
0.0
 11
259.382641830006
 21
122.8415861270819
 31
0.0
  0
ARC
  5
157
330
6F
100
AcDbEntity
  8
UKEZAI
  6
Continuous
100
AcDbCircle
 10
244.727372124531
 20
109.836449609626
 30
0.0
 40
0.3
100
AcDbArc
 50
0.0
 51
180.0
  0
LINE
  5
158
330
6F
100
AcDbEntity
  8
UKEZAI
  6
Continuous
100
AcDbLine
 10
243.0273721245312
 20
109.836449609626
 30
0.0
 11
244.4273721245313
 21
109.836449609626
 31
0.0
  0
LINE
  5
159
330
6F
100
AcDbEntity
  8
UKEZAI
  6
Continuous
100
AcDbLine
 10
245.0273721245312
 20
109.836449609626
 30
0.0
 11
257.9273721245311
 21
109.836449609626
 31
0.0
  0
ARC
  5
15A
330
6F
100
AcDbEntity
  8
UKEZAI
  6
Continuous
100
AcDbCircle
 10
240.727372124531
 20
109.836449609626
 30
0.0
 40
0.3
100
AcDbArc
 50
0.0
 51
180.0
  0
LINE
  5
15B
330
6F
100
AcDbEntity
  8
UKEZAI
  6
Continuous
100
AcDbLine
 10
227.5273721245312
 20
109.836449609626
 30
0.0
 11
240.4273721245314
 21
109.836449609626
 31
0.0
  0
LINE
  5
15C
330
6F
100
AcDbEntity
  8
UKEZAI
  6
Continuous
100
AcDbLine
 10
241.0273721245312
 20
109.836449609626
 30
0.0
 11
242.4273721245313
 21
109.836449609626
 31
0.0
  0
LINE
  5
15D
330
6F
100
AcDbEntity
  8
UKEZAI
  6
Continuous
100
AcDbLine
 10
259.4273721245311
 20
373.7555691123014
 30
0.0
 11
259.4273721245311
 21
380.7555691123014
 31
0.0
  0
LINE
  5
15E
330
6F
100
AcDbEntity
  8
UKEZAI
  6
Continuous
100
AcDbLine
 10
260.9273721245829
 20
370.7555691123012
 30
0.0
 11
260.9273721245851
 21
372.7555691120144
 31
0.0
  0
LINE
  5
15F
330
6F
100
AcDbEntity
  8
UKEZAI
  6
Continuous
100
AcDbLine
 10
257.9273721245311
 20
372.2555691123014
 30
0.0
 11
257.9273721245311
 21
385.0055691123015
 31
0.0
  0
LINE
  5
160
330
6F
100
AcDbEntity
  8
UKEZAI
  6
Continuous
100
AcDbLine
 10
259.4273721245311
 20
380.7555691122558
 30
0.0
 11
260.7273721238
 21
380.7555691122567
 31
0.0
  0
LINE
  5
161
330
6F
100
AcDbEntity
  8
UKEZAI
  6
Continuous
100
AcDbLine
 10
259.4273721245311
 20
373.7555691123014
 30
0.0
 11
260.7273721245863
 21
373.7555691123014
 31
0.0
  0
LINE
  5
162
330
6F
100
AcDbEntity
  8
UKEZAI
  6
Continuous
100
AcDbLine
 10
226.0273721245312
 20
373.7555691123014
 30
0.0
 11
226.0273721245312
 21
380.7555691123014
 31
0.0
  0
LINE
  5
163
330
6F
100
AcDbEntity
  8
UKEZAI
  6
Continuous
100
AcDbLine
 10
224.5273721244793
 20
370.7555691123013
 30
0.0
 11
224.527372124477
 21
372.7555691120114
 31
0.0
  0
LINE
  5
164
330
6F
100
AcDbEntity
  8
UKEZAI
  6
Continuous
100
AcDbLine
 10
227.5273721245312
 20
372.2555691123014
 30
0.0
 11
227.5273721245312
 21
385.0055691123015
 31
0.0
  0
ARC
  5
165
330
6F
100
AcDbEntity
  8
UKEZAI
  6
Continuous
100
AcDbCircle
 10
226.7773721245312
 20
385.0055691123015
 30
0.0
 40
0.75
100
AcDbArc
 50
0.0
 51
160.1120357041571
  0
LINE
  5
166
330
6F
100
AcDbEntity
  8
UKEZAI
  6
Continuous
100
AcDbLine
 10
226.0273721245311
 20
380.7555691122561
 30
0.0
 11
224.7273721252622
 21
380.7555691122569
 31
0.0
  0
LINE
  5
167
330
6F
100
AcDbEntity
  8
UKEZAI
  6
Continuous
100
AcDbLine
 10
226.0273721245312
 20
373.7555691123014
 30
0.0
 11
224.727372124476
 21
373.7555691123014
 31
0.0
  0
LINE
  5
168
330
6F
100
AcDbEntity
  8
UKEZAI
  6
Continuous
100
AcDbLine
 10
224.5273721244798
 20
370.7555691123014
 30
0.0
 11
260.9273721245829
 21
370.7555691123014
 31
0.0
  0
ARC
  5
169
330
6F
100
AcDbEntity
  8
UKEZAI
  6
Continuous
100
AcDbCircle
 10
242.727372124531
 20
372.2555691123014
 30
0.0
 40
0.3
100
AcDbArc
 50
180.0
 51
0.0
  0
ARC
  5
16A
330
6F
100
AcDbEntity
  8
UKEZAI
  6
Continuous
100
AcDbCircle
 10
258.6773721245311
 20
385.0055691123015
 30
0.0
 40
0.75
100
AcDbArc
 50
19.8879642958426
 51
180.0
  0
LINE
  5
16B
330
6F
100
AcDbEntity
  8
UKEZAI
  6
Continuous
100
AcDbLine
 10
260.9273721245849
 20
372.7555691120144
 30
0.0
 11
260.7273721245861
 21
373.7555691123013
 31
0.0
  0
LINE
  5
16C
330
6F
100
AcDbEntity
  8
UKEZAI
  6
Continuous
100
AcDbLine
 10
224.5273721244772
 20
372.7555691120141
 30
0.0
 11
224.7273721244761
 21
373.7555691123013
 31
0.0
  0
ARC
  5
16D
330
6F
100
AcDbEntity
  8
UKEZAI
  6
Continuous
100
AcDbCircle
 10
224.7273721252623
 20
380.955569112257
 30
0.0
 40
0.2
100
AcDbArc
 50
160.1120357041559
 51
270.0
  0
LINE
  5
16E
330
6F
100
AcDbEntity
  8
UKEZAI
  6
Continuous
100
AcDbLine
 10
224.5393002038022
 20
381.0236055169119
 30
0.0
 11
226.0721024190562
 21
385.2607056297572
 31
0.0
  0
ARC
  5
16F
330
6F
100
AcDbEntity
  8
UKEZAI
  6
Continuous
100
AcDbCircle
 10
260.7273721238
 20
380.955569112257
 30
0.0
 40
0.2
100
AcDbArc
 50
270.0
 51
19.88796429584412
  0
LINE
  5
170
330
6F
100
AcDbEntity
  8
UKEZAI
  6
Continuous
100
AcDbLine
 10
260.9154440452601
 20
381.023605516912
 30
0.0
 11
259.382641830006
 21
385.2607056297572
 31
0.0
  0
ARC
  5
171
330
6F
100
AcDbEntity
  8
UKEZAI
  6
Continuous
100
AcDbCircle
 10
244.727372124531
 20
372.2555691123014
 30
0.0
 40
0.3
100
AcDbArc
 50
0.0
 51
180.0
  0
LINE
  5
172
330
6F
100
AcDbEntity
  8
UKEZAI
  6
Continuous
100
AcDbLine
 10
243.0273721245312
 20
372.2555691123014
 30
0.0
 11
244.4273721245313
 21
372.2555691123014
 31
0.0
  0
LINE
  5
173
330
6F
100
AcDbEntity
  8
UKEZAI
  6
Continuous
100
AcDbLine
 10
245.0273721245312
 20
372.2555691123014
 30
0.0
 11
257.9273721245311
 21
372.2555691123014
 31
0.0
  0
ARC
  5
174
330
6F
100
AcDbEntity
  8
UKEZAI
  6
Continuous
100
AcDbCircle
 10
240.727372124531
 20
372.2555691123014
 30
0.0
 40
0.3
100
AcDbArc
 50
0.0
 51
180.0
  0
LINE
  5
175
330
6F
100
AcDbEntity
  8
UKEZAI
  6
Continuous
100
AcDbLine
 10
227.5273721245312
 20
372.2555691123014
 30
0.0
 11
240.4273721245314
 21
372.2555691123014
 31
0.0
  0
LINE
  5
176
330
6F
100
AcDbEntity
  8
UKEZAI
  6
Continuous
100
AcDbLine
 10
241.0273721245312
 20
372.2555691123014
 30
0.0
 11
242.4273721245313
 21
372.2555691123014
 31
0.0
  0
LINE
  5
183
330
6F
100
AcDbEntity
  8
COMMENT
  6
Continuous
100
AcDbLine
 10
262.7273721245351
 20
261.0121825968354
 30
0.0
 11
262.7273721245351
 21
278.536449609626
 31
0.0
  0
LINE
  5
184
330
6F
100
AcDbEntity
  8
COMMENT
  6
Continuous
100
AcDbLine
 10
262.7273721245351
 20
277.536449609626
 30
0.0
 11
222.7273721245351
 21
277.536449609626
 31
0.0
  0
CIRCLE
  5
185
330
6F
100
AcDbEntity
  8
COMMENT
  6
Continuous
100
AcDbCircle
 10
262.7273721245351
 20
277.536449609626
 30
0.0
 40
0.5
  0
CIRCLE
  5
186
330
6F
100
AcDbEntity
  8
COMMENT
  6
Continuous
100
AcDbCircle
 10
222.7273721245351
 20
277.536449609626
 30
0.0
 40
0.5
  0
TEXT
  5
187
330
6F
100
AcDbEntity
  8
COMMENT
  6
Continuous
100
AcDbText
 10
240.1273720410886
 20
278.036449609626
 30
0.0
 40
3.099999904632568
  1
40
100
AcDbText
  0
LINE
  5
188
330
6F
100
AcDbEntity
  8
COMMENT
  6
Continuous
100
AcDbLine
 10
222.7273721245351
 20
261.0121825968354
 30
0.0
 11
222.7273721245351
 21
278.536449609626
 31
0.0
  0
LINE
  5
189
330
6F
100
AcDbEntity
  8
COMMENT
  6
Continuous
100
AcDbLine
 10
262.7273721245351
 20
521.6017657177761
 30
0.0
 11
262.7273721245351
 21
540.9555691122931
 31
0.0
  0
LINE
  5
18A
330
6F
100
AcDbEntity
  8
COMMENT
  6
Continuous
100
AcDbLine
 10
262.7273721245351
 20
539.9555691122931
 30
0.0
 11
222.7273721245351
 21
539.9555691122931
 31
0.0
  0
CIRCLE
  5
18B
330
6F
100
AcDbEntity
  8
COMMENT
  6
Continuous
100
AcDbCircle
 10
262.7273721245351
 20
539.9555691122931
 30
0.0
 40
0.5
  0
CIRCLE
  5
18C
330
6F
100
AcDbEntity
  8
COMMENT
  6
Continuous
100
AcDbCircle
 10
222.7273721245351
 20
539.9555691122931
 30
0.0
 40
0.5
  0
TEXT
  5
18D
330
6F
100
AcDbEntity
  8
COMMENT
  6
Continuous
100
AcDbText
 10
240.1273720410886
 20
540.4555691122931
 30
0.0
 40
3.099999904632568
  1
40
100
AcDbText
  0
LINE
  5
18E
330
6F
100
AcDbEntity
  8
COMMENT
  6
Continuous
100
AcDbLine
 10
222.7273721245351
 20
521.6017657177761
 30
0.0
 11
222.7273721245351
 21
540.9555691122931
 31
0.0
  0
LINE
  5
194
330
6F
100
AcDbEntity
  8
COMMENT
  6
Continuous
100
AcDbLine
 10
221.9273721126142
 20
520.7555691123149
 30
0.0
 11
194.3142080451761
 21
520.7555691123149
 31
0.0
  0
LINE
  5
195
330
6F
100
AcDbEntity
  8
COMMENT
  6
Continuous
100
AcDbLine
 10
195.3142080451761
 20
520.7555691123149
 30
0.0
 11
195.3142080451761
 21
370.7555691123014
 31
0.0
  0
CIRCLE
  5
196
330
6F
100
AcDbEntity
  8
COMMENT
  6
Continuous
100
AcDbCircle
 10
195.3142080451761
 20
520.7555691123149
 30
0.0
 40
0.5
  0
CIRCLE
  5
197
330
6F
100
AcDbEntity
  8
COMMENT
  6
Continuous
100
AcDbCircle
 10
195.3142080451761
 20
370.7555691123014
 30
0.0
 40
0.5
  0
TEXT
  5
198
330
6F
100
AcDbEntity
  8
COMMENT
  6
Continuous
100
AcDbText
 10
194.8142080451761
 20
443.1555690288616
 30
0.0
 40
3.099999904632568
  1
150
 50
90.0
100
AcDbText
  0
LINE
  5
19E
330
6F
100
AcDbEntity
  8
COMMENT
  6
Continuous
100
AcDbLine
 10
221.9273721126142
 20
258.3364496096397
 30
0.0
 11
193.5482670750466
 21
258.3364496096397
 31
0.0
  0
LINE
  5
19F
330
6F
100
AcDbEntity
  8
COMMENT
  6
Continuous
100
AcDbLine
 10
194.5482670750465
 20
258.3364496096397
 30
0.0
 11
194.5482670750465
 21
108.336449609626
 31
0.0
  0
CIRCLE
  5
1A0
330
6F
100
AcDbEntity
  8
COMMENT
  6
Continuous
100
AcDbCircle
 10
194.5482670750465
 20
258.3364496096397
 30
0.0
 40
0.5
  0
CIRCLE
  5
1A1
330
6F
100
AcDbEntity
  8
COMMENT
  6
Continuous
100
AcDbCircle
 10
194.5482670750465
 20
108.336449609626
 30
0.0
 40
0.5
  0
TEXT
  5
1A2
330
6F
100
AcDbEntity
  8
COMMENT
  6
Continuous
100
AcDbText
 10
194.0482670750465
 20
180.7364495261863
 30
0.0
 40
3.099999904632568
  1
150
 50
90.0
100
AcDbText
  0
LINE
  5
1AF
330
6F
100
AcDbEntity
  8
COMMENT
  6
Continuous
100
AcDbLine
 10
217.5387701870565
 20
380.7555691123051
 30
0.0
 11
205.3158592603857
 21
380.755569112283
 31
0.0
  0
LINE
  5
1B0
330
6F
100
AcDbEntity
  8
COMMENT
  6
Continuous
100
AcDbLine
 10
206.3158592603857
 20
380.7555691122848
 30
0.0
 11
206.3158592603857
 21
370.7555691123014
 31
0.0
  0
CIRCLE
  5
1B1
330
6F
100
AcDbEntity
  8
COMMENT
  6
Continuous
100
AcDbCircle
 10
206.3158592603857
 20
380.7555691122848
 30
0.0
 40
0.5
  0
CIRCLE
  5
1B2
330
6F
100
AcDbEntity
  8
COMMENT
  6
Continuous
100
AcDbCircle
 10
206.3158592603857
 20
370.7555691123014
 30
0.0
 40
0.5
  0
TEXT
  5
1B3
330
6F
100
AcDbEntity
  8
COMMENT
  6
Continuous
100
AcDbText
 10
205.8158592603857
 20
373.1555690288466
 30
0.0
 40
3.099999904632568
  1
10
 50
90.0
100
AcDbText
  0
LINE
  5
1B4
330
6F
100
AcDbEntity
  8
COMMENT
  6
Continuous
100
AcDbLine
 10
221.9273721126106
 20
371.7555691123159
 30
0.0
 11
214.6600535063528
 21
371.7555691123159
 31
0.0
  0
LINE
  5
1B5
330
6F
100
AcDbEntity
  8
COMMENT
  6
Continuous
100
AcDbLine
 10
215.6600535063528
 20
375.9026628852041
 30
0.0
 11
215.6600535063528
 21
370.7555691123014
 31
0.0
  0
CIRCLE
  5
1B6
330
6F
100
AcDbEntity
  8
COMMENT
  6
Continuous
100
AcDbCircle
 10
215.6600535063528
 20
371.7555691123159
 30
0.0
 40
0.5
  0
CIRCLE
  5
1B7
330
6F
100
AcDbEntity
  8
COMMENT
  6
Continuous
100
AcDbCircle
 10
215.6600535063528
 20
370.7555691123014
 30
0.0
 40
0.5
  0
TEXT
  5
1B8
330
6F
100
AcDbEntity
  8
COMMENT
  6
Continuous
100
AcDbText
 10
215.1600535063528
 20
373.3026628949307
 30
0.0
 40
3.099999904632568
  1
1
 50
90.0
100
AcDbText
  0
LINE
  5
1B9
330
6F
100
AcDbEntity
  8
COMMENT
  6
Continuous
100
AcDbLine
 10
217.5387701870568
 20
118.3364496096294
 30
0.0
 11
205.5159255313686
 21
118.3364496096074
 31
0.0
  0
LINE
  5
1BA
330
6F
100
AcDbEntity
  8
COMMENT
  6
Continuous
100
AcDbLine
 10
206.5159255313686
 20
118.3364496096092
 30
0.0
 11
206.5159255313686
 21
108.336449609626
 31
0.0
  0
CIRCLE
  5
1BB
330
6F
100
AcDbEntity
  8
COMMENT
  6
Continuous
100
AcDbCircle
 10
206.5159255313686
 20
118.3364496096092
 30
0.0
 40
0.5
  0
CIRCLE
  5
1BC
330
6F
100
AcDbEntity
  8
COMMENT
  6
Continuous
100
AcDbCircle
 10
206.5159255313686
 20
108.336449609626
 30
0.0
 40
0.5
  0
TEXT
  5
1BD
330
6F
100
AcDbEntity
  8
COMMENT
  6
Continuous
100
AcDbText
 10
206.0159255313686
 20
110.7364495261711
 30
0.0
 40
3.099999904632568
  1
10
 50
90.0
100
AcDbText
  0
LINE
  5
1BE
330
6F
100
AcDbEntity
  8
COMMENT
  6
Continuous
100
AcDbLine
 10
223.7273721125589
 20
108.336449609626
 30
0.0
 11
205.5159255313686
 21
108.336449609626
 31
0.0
  0
LINE
  5
1BF
330
6F
100
AcDbEntity
  8
COMMENT
  6
Continuous
100
AcDbLine
 10
221.9273721126108
 20
109.3364496096385
 30
0.0
 11
214.8538725858647
 21
109.3364496096385
 31
0.0
  0
LINE
  5
1C0
330
6F
100
AcDbEntity
  8
COMMENT
  6
Continuous
100
AcDbLine
 10
215.8538725858647
 20
113.5875506266368
 30
0.0
 11
215.8538725858647
 21
108.336449609626
 31
0.0
  0
CIRCLE
  5
1C1
330
6F
100
AcDbEntity
  8
COMMENT
  6
Continuous
100
AcDbCircle
 10
215.8538725858647
 20
109.3364496096385
 30
0.0
 40
0.5
  0
CIRCLE
  5
1C2
330
6F
100
AcDbEntity
  8
COMMENT
  6
Continuous
100
AcDbCircle
 10
215.8538725858647
 20
108.336449609626
 30
0.0
 40
0.5
  0
TEXT
  5
1C3
330
6F
100
AcDbEntity
  8
COMMENT
  6
Continuous
100
AcDbText
 10
215.3538725858647
 20
110.9875506121348
 30
0.0
 40
3.099999904632568
  1
1
 50
90.0
100
AcDbText
  0
LINE
  5
1C4
330
6F
100
AcDbEntity
  8
COMMENT
  6
Continuous
100
AcDbLine
 10
223.7273721125589
 20
108.336449609626
 30
0.0
 11
214.8538725858647
 21
108.336449609626
 31
0.0
  0
LINE
  5
1CF
330
6F
100
AcDbEntity
  8
COMMENT
  6
Continuous
100
AcDbLine
 10
222.7273721245317
 20
370.955569100393
 30
0.0
 11
222.7273721245317
 21
310.2634290956092
 31
0.0
  0
LINE
  5
1D0
330
6F
100
AcDbEntity
  8
COMMENT
  6
Continuous
100
AcDbLine
 10
222.7273721245317
 20
311.2634290956092
 30
0.0
 11
242.7273721234328
 21
311.2634290956092
 31
0.0
  0
CIRCLE
  5
1D1
330
6F
100
AcDbEntity
  8
COMMENT
  6
Continuous
100
AcDbCircle
 10
222.7273721245317
 20
311.2634290956092
 30
0.0
 40
0.5
  0
CIRCLE
  5
1D2
330
6F
100
AcDbEntity
  8
COMMENT
  6
Continuous
100
AcDbCircle
 10
242.7273721234328
 20
311.2634290956092
 30
0.0
 40
0.5
  0
TEXT
  5
1D3
330
6F
100
AcDbEntity
  8
COMMENT
  6
Continuous
100
AcDbText
 10
230.1273720405358
 20
311.7634290956092
 30
0.0
 40
3.099999904632568
  1
20
100
AcDbText
  0
LINE
  5
1D4
330
6F
100
AcDbEntity
  8
COMMENT
  6
Continuous
100
AcDbLine
 10
242.7273721234328
 20
311.2634290956092
 30
0.0
 11
262.7273721245309
 21
311.2634290956092
 31
0.0
  0
CIRCLE
  5
1D5
330
6F
100
AcDbEntity
  8
COMMENT
  6
Continuous
100
AcDbCircle
 10
242.7273721234328
 20
311.2634290956092
 30
0.0
 40
0.5
  0
CIRCLE
  5
1D6
330
6F
100
AcDbEntity
  8
COMMENT
  6
Continuous
100
AcDbCircle
 10
262.7273721245309
 20
311.2634290956092
 30
0.0
 40
0.5
  0
TEXT
  5
1D7
330
6F
100
AcDbEntity
  8
COMMENT
  6
Continuous
100
AcDbText
 10
250.1273720405354
 20
311.7634290956092
 30
0.0
 40
3.099999904632568
  1
20
100
AcDbText
  0
LINE
  5
1D8
330
6F
100
AcDbEntity
  8
COMMENT
  6
Continuous
100
AcDbLine
 10
262.7273721245309
 20
370.9555691003777
 30
0.0
 11
262.7273721245309
 21
310.2634290956092
 31
0.0
  0
LINE
  5
1D9
330
6F
100
AcDbEntity
  8
COMMENT
  6
Continuous
100
AcDbLine
 10
222.7273721245317
 20
108.5364495977175
 30
0.0
 11
222.7273721245317
 21
62.9690970986311
 31
0.0
  0
LINE
  5
1DA
330
6F
100
AcDbEntity
  8
COMMENT
  6
Continuous
100
AcDbLine
 10
222.7273721245317
 20
63.9690970986311
 30
0.0
 11
242.7273721234328
 21
63.9690970986311
 31
0.0
  0
CIRCLE
  5
1DB
330
6F
100
AcDbEntity
  8
COMMENT
  6
Continuous
100
AcDbCircle
 10
222.7273721245317
 20
63.9690970986311
 30
0.0
 40
0.5
  0
CIRCLE
  5
1DC
330
6F
100
AcDbEntity
  8
COMMENT
  6
Continuous
100
AcDbCircle
 10
242.7273721234328
 20
63.9690970986311
 30
0.0
 40
0.5
  0
TEXT
  5
1DD
330
6F
100
AcDbEntity
  8
COMMENT
  6
Continuous
100
AcDbText
 10
230.1273720405358
 20
64.46909709863111
 30
0.0
 40
3.099999904632568
  1
20
100
AcDbText
  0
LINE
  5
1DE
330
6F
100
AcDbEntity
  8
COMMENT
  6
Continuous
100
AcDbLine
 10
242.7273721234328
 20
63.9690970986311
 30
0.0
 11
262.7273721245309
 21
63.9690970986311
 31
0.0
  0
CIRCLE
  5
1DF
330
6F
100
AcDbEntity
  8
COMMENT
  6
Continuous
100
AcDbCircle
 10
242.7273721234328
 20
63.9690970986311
 30
0.0
 40
0.5
  0
CIRCLE
  5
1E0
330
6F
100
AcDbEntity
  8
COMMENT
  6
Continuous
100
AcDbCircle
 10
262.7273721245309
 20
63.9690970986311
 30
0.0
 40
0.5
  0
TEXT
  5
1E1
330
6F
100
AcDbEntity
  8
COMMENT
  6
Continuous
100
AcDbText
 10
250.1273720405353
 20
64.46909709863111
 30
0.0
 40
3.099999904632568
  1
20
100
AcDbText
  0
LINE
  5
1E2
330
6F
100
AcDbEntity
  8
COMMENT
  6
Continuous
100
AcDbLine
 10
262.7273721245309
 20
108.5364495977022
 30
0.0
 11
262.7273721245309
 21
62.9690970986311
 31
0.0
  0
TEXT
  5
245
330
6F
100
AcDbEntity
  8
WAKU
  6
Continuous
100
AcDbText
 10
38.64675006063919
 20
555.4024753726626
 30
0.0
 40
12.0
  1
直付タイプ
  7
KNJYOKO
100
AcDbText
  0
LINE
  5
246
330
6F
100
AcDbEntity
  8
LOUVER
  6
CENTER
100
AcDbLine
 10
242.7273721234328
 20
309.5441334540212
 30
0.0
 11
242.7273721234328
 21
384.1898308268228
 31
0.0
  0
LINE
  5
247
330
6F
100
AcDbEntity
  8
WASHER
  6
Continuous
100
AcDbLine
 10
227.7273721234328
 20
374.2555691123016
 30
0.0
 11
257.7273721234328
 21
374.2555691123016
 31
0.0
  0
LINE
  5
248
330
6F
100
AcDbEntity
  8
WASHER
  6
Continuous
100
AcDbLine
 10
257.7273721234328
 20
372.2555691123016
 30
0.0
 11
257.7273721234328
 21
374.2555691123016
 31
0.0
  0
LINE
  5
249
330
6F
100
AcDbEntity
  8
WASHER
  6
Continuous
100
AcDbLine
 10
227.7273721234328
 20
372.2555691123016
 30
0.0
 11
227.7273721234328
 21
374.2555691123016
 31
0.0
  0
LINE
  5
24A
330
6F
100
AcDbEntity
  8
KUTAI
  6
Continuous
100
AcDbLine
 10
335.1307796053935
 20
370.7555691123014
 30
0.0
 11
132.957215493353
 21
370.7555691123014
 31
0.0
  0
LINE
  5
24B
330
6F
100
AcDbEntity
  8
LOUVER
  6
CENTER
100
AcDbLine
 10
236.7877330595503
 20
380.7555691122848
 30
0.0
 11
218.3387701989774
 21
380.7555691123066
 31
0.0
  0
LINE
  5
24C
330
6F
100
AcDbEntity
  8
ANCHOR
  6
HIDDEN
100
AcDbLine
 10
232.2273721249207
 20
382.7555691124107
 30
0.0
 11
222.7273721235919
 21
382.7555691124511
 31
0.0
  0
LINE
  5
24D
330
6F
100
AcDbEntity
  8
ANCHOR
  6
HIDDEN
100
AcDbLine
 10
232.2273721254757
 20
378.7555691124107
 30
0.0
 11
222.7273721235763
 21
378.7555691124511
 31
0.0
  0
LINE
  5
24E
330
6F
100
AcDbEntity
  8
ANCHOR
  6
HIDDEN
100
AcDbLine
 10
235.1500218556861
 20
381.7555691124194
 30
0.0
 11
233.2273721249313
 21
381.7555691124155
 31
0.0
  0
LINE
  5
24F
330
6F
100
AcDbEntity
  8
ANCHOR
  6
HIDDEN
100
AcDbLine
 10
235.150021855882
 20
379.7555691124194
 30
0.0
 11
233.2273721254693
 21
379.7555691124155
 31
0.0
  0
LINE
  5
250
330
6F
100
AcDbEntity
  8
ANCHOR
  6
HIDDEN
100
AcDbLine
 10
235.7273721249735
 20
380.7555691122591
 30
0.0
 11
235.150021855686
 21
381.7555691124201
 31
0.0
  0
LINE
  5
251
330
6F
100
AcDbEntity
  8
ANCHOR
  6
HIDDEN
100
AcDbLine
 10
235.1500218558827
 20
379.755569112421
 30
0.0
 11
235.7273721249745
 21
380.7555691122599
 31
0.0
  0
ARC
  5
252
330
6F
100
AcDbEntity
  8
ANCHOR
  6
HIDDEN
100
AcDbCircle
 10
233.7273721254787
 20
380.7555691124179
 30
0.0
 40
0.5
100
AcDbArc
 50
97.20679386168658
 51
262.7932061387912
  0
LINE
  5
253
330
6F
100
AcDbEntity
  8
ANCHOR
  6
HIDDEN
100
AcDbLine
 10
233.6646466890137
 20
380.259519195957
 30
0.0
 11
235.150021855882
 21
379.7555691124193
 31
0.0
  0
LINE
  5
254
330
6F
100
AcDbEntity
  8
ANCHOR
  6
HIDDEN
100
AcDbLine
 10
233.6646466890102
 20
381.2516190288781
 30
0.0
 11
235.1500218556859
 21
381.7555691124201
 31
0.0
  0
LINE
  5
255
330
6F
100
AcDbEntity
  8
ANCHOR
  6
HIDDEN
100
AcDbLine
 10
233.2273721249298
 20
381.7555691124148
 30
0.0
 11
232.2273721249204
 21
382.7555691124123
 31
0.0
  0
LINE
  5
256
330
6F
100
AcDbEntity
  8
ANCHOR
  6
HIDDEN
100
AcDbLine
 10
232.2273721254762
 20
378.7555691124146
 30
0.0
 11
233.2273721254686
 21
379.7555691124147
 31
0.0
  0
LINE
  5
257
330
6F
100
AcDbEntity
  8
ANCHOR
  6
HIDDEN
100
AcDbLine
 10
232.2273721252072
 20
378.7555691124132
 30
0.0
 11
232.2273721251924
 21
382.7555691124132
 31
0.0
  0
LINE
  5
258
330
6F
100
AcDbEntity
  8
ANCHOR
  6
HIDDEN
100
AcDbLine
 10
233.2273721249732
 20
379.7555691124134
 30
0.0
 11
233.2273721249639
 21
381.7555691124134
 31
0.0
  0
LINE
  5
259
330
6F
100
AcDbEntity
  8
ANCHOR
  6
HIDDEN
100
AcDbLine
 10
233.0273721254709
 20
379.5555691124135
 30
0.0
 11
222.7273721235803
 21
379.5555691124546
 31
0.0
  0
LINE
  5
25A
330
6F
100
AcDbEntity
  8
ANCHOR
  6
HIDDEN
100
AcDbLine
 10
233.0273721249297
 20
381.9555691124132
 30
0.0
 11
222.7273721235894
 21
381.9555691124543
 31
0.0
  0
LINE
  5
25B
330
6F
100
AcDbEntity
  8
ANCHOR
  6
Continuous
100
AcDbLine
 10
220.7050615424423
 20
381.2537673600436
 30
0.0
 11
220.7050615424428
 21
380.2573708645614
 31
0.0
  0
LINE
  5
25C
330
6F
100
AcDbEntity
  8
ANCHOR
  6
Continuous
100
AcDbLine
 10
220.7050615424421
 20
381.2537673600439
 30
0.0
 11
220.2273721237677
 21
381.2537673600439
 31
0.0
  0
LINE
  5
25D
330
6F
100
AcDbEntity
  8
ANCHOR
  6
Continuous
100
AcDbLine
 10
220.7050615424425
 20
380.2573708645616
 30
0.0
 11
220.2273721237682
 21
380.2573708645616
 31
0.0
  0
LINE
  5
25E
330
6F
100
AcDbEntity
  8
ANCHOR
  6
Continuous
100
AcDbLine
 10
222.2273721237847
 20
376.0555691123007
 30
0.0
 11
222.7273721237847
 21
376.055569112301
 31
0.0
  0
ARC
  5
25F
330
6F
100
AcDbEntity
  8
ANCHOR
  6
Continuous
100
AcDbCircle
 10
226.3188375180907
 20
380.5799376789855
 30
0.0
 40
6.099999999999998
100
AcDbArc
 50
183.0312034848472
 51
227.876411461438
  0
LINE
  5
260
330
6F
100
AcDbEntity
  8
ANCHOR
  6
Continuous
100
AcDbLine
 10
222.2273721237507
 20
385.4555691123026
 30
0.0
 11
222.2273721237855
 21
376.0555691123011
 31
0.0
  0
ARC
  5
261
330
6F
100
AcDbEntity
  8
ANCHOR
  6
Continuous
100
AcDbCircle
 10
226.3188375180907
 20
380.9312005456231
 30
0.0
 40
6.099999999999998
100
AcDbArc
 50
132.1235885386251
 51
176.9687965152159
  0
LINE
  5
262
330
6F
100
AcDbEntity
  8
ANCHOR
  6
Continuous
100
AcDbLine
 10
222.7273721237513
 20
385.455569112304
 30
0.0
 11
222.727372123786
 21
376.0555691123025
 31
0.0
  0
LINE
  5
263
330
6F
100
AcDbEntity
  8
ANCHOR
  6
Continuous
100
AcDbLine
 10
222.2273721237802
 20
385.4555691123023
 30
0.0
 11
222.7273721237802
 21
385.4555691123027
 31
0.0
  0
LINE
  5
264
330
6F
100
AcDbEntity
  8
WASHER
  6
Continuous
100
AcDbLine
 10
227.7273721234328
 20
372.2555691123016
 30
0.0
 11
257.7273721234328
 21
372.2555691123016
 31
0.0
  0
LINE
  5
265
330
6F
100
AcDbEntity
  8
ANCHOR
  6
HIDDEN
100
AcDbLine
 10
242.7273721234749
 20
363.7555691123123
 30
0.0
 11
243.0273721234833
 21
363.7555691123123
 31
0.0
  0
LINE
  5
266
330
6F
100
AcDbEntity
  8
ANCHOR
  6
HIDDEN
100
AcDbLine
 10
243.0273721235101
 20
338.2555691123125
 30
0.0
 11
243.0273721234819
 21
363.7555691123126
 31
0.0
  0
LINE
  5
267
330
6F
100
AcDbEntity
  8
ANCHOR
  6
HIDDEN
100
AcDbLine
 10
241.0689159441696
 20
330.4272652920454
 30
0.0
 11
238.6982166493243
 21
330.6863360534823
 31
0.0
  0
LINE
  5
268
330
6F
100
AcDbEntity
  8
ANCHOR
  6
HIDDEN
100
AcDbLine
 10
238.7273721234807
 20
365.7555691123033
 30
0.0
 11
238.0273721234753
 21
370.7555691123014
 31
0.0
  0
LINE
  5
269
330
6F
100
AcDbEntity
  8
ANCHOR
  6
HIDDEN
100
AcDbLine
 10
242.7273721234893
 20
363.7555691123116
 30
0.0
 11
242.4273721234827
 21
363.7555691123109
 31
0.0
  0
LINE
  5
26A
330
6F
100
AcDbEntity
  8
ANCHOR
  6
HIDDEN
100
AcDbLine
 10
242.4273721235109
 20
338.2555691123109
 30
0.0
 11
242.4273721234825
 21
363.7555691123114
 31
0.0
  0
LINE
  5
26B
330
6F
100
AcDbEntity
  8
ANCHOR
  6
HIDDEN
100
AcDbLine
 10
238.7273721234866
 20
360.2555691123031
 30
0.0
 11
239.7273721234865
 21
359.7555691123056
 31
0.0
  0
LINE
  5
26C
330
6F
100
AcDbEntity
  8
ANCHOR
  6
HIDDEN
100
AcDbLine
 10
239.7273721234872
 20
359.755569112306
 30
0.0
 11
239.9773721234958
 21
351.7555691123066
 31
0.0
  0
LINE
  5
26D
330
6F
100
AcDbEntity
  8
ANCHOR
  6
HIDDEN
100
AcDbLine
 10
238.7273721234875
 20
360.2555691123035
 30
0.0
 11
238.7273721234759
 21
370.7555691123035
 31
0.0
  0
LINE
  5
26E
330
6F
100
AcDbEntity
  8
ANCHOR
  6
HIDDEN
100
AcDbLine
 10
241.8918576058291
 20
333.3551940858354
 30
0.0
 11
237.6324027755069
 21
333.8206686437424
 31
0.0
  0
LINE
  5
26F
330
6F
100
AcDbEntity
  8
ANCHOR
  6
HIDDEN
100
AcDbLine
 10
242.0004911829198
 20
334.3492759466139
 30
0.0
 11
238.3871895621033
 21
334.7441386794126
 31
0.0
  0
LINE
  5
270
330
6F
100
AcDbEntity
  8
ANCHOR
  6
HIDDEN
100
AcDbLine
 10
238.6982166493256
 20
330.6863360534812
 30
0.0
 11
237.6324027755075
 21
333.8206686437418
 31
0.0
  0
LINE
  5
271
330
6F
100
AcDbEntity
  8
ANCHOR
  6
HIDDEN
100
AcDbLine
 10
237.6324027755063
 20
333.8206686437414
 30
0.0
 11
238.3871895621033
 21
334.7441386794122
 31
0.0
  0
LINE
  5
272
330
6F
100
AcDbEntity
  8
ANCHOR
  6
HIDDEN
100
AcDbLine
 10
242.1091247600114
 20
335.3433578073914
 30
0.0
 11
237.8496699296875
 21
335.8088323652983
 31
0.0
  0
LINE
  5
273
330
6F
100
AcDbEntity
  8
ANCHOR
  6
HIDDEN
100
AcDbLine
 10
238.3871895621041
 20
334.7441386794113
 30
0.0
 11
237.8496699296887
 21
335.8088323652977
 31
0.0
  0
LINE
  5
274
330
6F
100
AcDbEntity
  8
ANCHOR
  6
HIDDEN
100
AcDbLine
 10
242.2720751256486
 20
336.8344805985589
 30
0.0
 11
238.0126202953246
 21
337.299955156466
 31
0.0
  0
LINE
  5
275
330
6F
100
AcDbEntity
  8
ANCHOR
  6
HIDDEN
100
AcDbLine
 10
237.8496699296879
 20
335.8088323652983
 30
0.0
 11
238.0126202953238
 21
337.2999551564657
 31
0.0
  0
LINE
  5
276
330
6F
100
AcDbEntity
  8
ANCHOR
  6
HIDDEN
100
AcDbLine
 10
238.1918656975244
 20
338.9401902267449
 30
0.0
 11
238.4471546036878
 21
341.2762825995788
 31
0.0
  0
LINE
  5
277
330
6F
100
AcDbEntity
  8
ANCHOR
  6
HIDDEN
100
AcDbLine
 10
242.3263919141914
 20
337.3315215289492
 30
0.0
 11
238.7130902933712
 21
337.7263842617482
 31
0.0
  0
LINE
  5
278
330
6F
100
AcDbEntity
  8
ANCHOR
  6
HIDDEN
100
AcDbLine
 10
242.3807087027381
 20
337.8285624593377
 30
0.0
 11
238.7674070819162
 21
338.2234251921369
 31
0.0
  0
LINE
  5
279
330
6F
100
AcDbEntity
  8
ANCHOR
  6
HIDDEN
100
AcDbLine
 10
238.713090293372
 20
337.7263842617474
 30
0.0
 11
238.0126202953234
 21
337.2999551564658
 31
0.0
  0
LINE
  5
27A
330
6F
100
AcDbEntity
  8
ANCHOR
  6
HIDDEN
100
AcDbLine
 10
238.7130902933732
 20
337.7263842617471
 30
0.0
 11
238.7674070819173
 21
338.2234251921364
 31
0.0
  0
LINE
  5
27B
330
6F
100
AcDbEntity
  8
ANCHOR
  6
HIDDEN
100
AcDbLine
 10
238.7674070819151
 20
338.223425192137
 30
0.0
 11
238.1918656975218
 21
338.9401902267455
 31
0.0
  0
LINE
  5
27C
330
6F
100
AcDbEntity
  8
ANCHOR
  6
HIDDEN
100
AcDbLine
 10
242.0258493024886
 20
340.8852017220569
 30
0.0
 11
238.4471546036859
 21
341.2762825995792
 31
0.0
  0
LINE
  5
27D
330
6F
100
AcDbEntity
  8
ANCHOR
  6
HIDDEN
100
AcDbLine
 10
239.0933078131907
 20
341.2056707744712
 30
0.0
 11
239.1476246017349
 21
341.70271170486
 31
0.0
  0
LINE
  5
27E
330
6F
100
AcDbEntity
  8
ANCHOR
  6
HIDDEN
100
AcDbLine
 10
242.0801660910341
 20
341.3822426524466
 30
0.0
 11
239.1476246017333
 21
341.7027117048613
 31
0.0
  0
LINE
  5
27F
330
6F
100
AcDbEntity
  8
ANCHOR
  6
HIDDEN
100
AcDbLine
 10
239.1476246017321
 20
341.702711704859
 30
0.0
 11
238.5720832173386
 21
342.4194767394674
 31
0.0
  0
LINE
  5
280
330
6F
100
AcDbEntity
  8
ANCHOR
  6
HIDDEN
100
AcDbLine
 10
238.8273721235076
 20
342.4055691122989
 30
0.0
 11
238.8273721235049
 21
344.7555691123039
 31
0.0
  0
LINE
  5
281
330
6F
100
AcDbEntity
  8
ANCHOR
  6
HIDDEN
100
AcDbLine
 10
242.4273721235044
 20
344.7555691123111
 30
0.0
 11
238.8273721235041
 21
344.7555691123032
 31
0.0
  0
LINE
  5
282
330
6F
100
AcDbEntity
  8
ANCHOR
  6
HIDDEN
100
AcDbLine
 10
239.4773721234997
 20
344.7555691123043
 30
0.0
 11
239.477372123498
 21
345.2555691123043
 31
0.0
  0
LINE
  5
283
330
6F
100
AcDbEntity
  8
ANCHOR
  6
HIDDEN
100
AcDbLine
 10
242.4273721235045
 20
345.2555691123116
 30
0.0
 11
239.4773721234983
 21
345.255569112305
 31
0.0
  0
LINE
  5
284
330
6F
100
AcDbEntity
  8
ANCHOR
  6
HIDDEN
100
AcDbLine
 10
239.4773721234978
 20
345.2555691123055
 30
0.0
 11
238.8273721235016
 21
345.905569112299
 31
0.0
  0
LINE
  5
285
330
6F
100
AcDbEntity
  8
ANCHOR
  6
HIDDEN
100
AcDbLine
 10
238.8273721235035
 20
345.9055691122987
 30
0.0
 11
238.8273721235008
 21
348.2555691123037
 31
0.0
  0
LINE
  5
286
330
6F
100
AcDbEntity
  8
ANCHOR
  6
HIDDEN
100
AcDbLine
 10
242.427372123501
 20
348.2555691123121
 30
0.0
 11
238.8273721235007
 21
348.255569112304
 31
0.0
  0
LINE
  5
287
330
6F
100
AcDbEntity
  8
ANCHOR
  6
HIDDEN
100
AcDbLine
 10
239.4773721234977
 20
348.2555691123051
 30
0.0
 11
239.4773721234961
 21
348.7555691123051
 31
0.0
  0
LINE
  5
288
330
6F
100
AcDbEntity
  8
ANCHOR
  6
HIDDEN
100
AcDbLine
 10
242.4273721235005
 20
348.7555691123121
 30
0.0
 11
239.4773721234961
 21
348.7555691123055
 31
0.0
  0
LINE
  5
289
330
6F
100
AcDbEntity
  8
ANCHOR
  6
HIDDEN
100
AcDbLine
 10
239.4773721234946
 20
348.755569112305
 30
0.0
 11
238.8273721234982
 21
349.4055691122983
 31
0.0
  0
LINE
  5
28A
330
6F
100
AcDbEntity
  8
ANCHOR
  6
HIDDEN
100
AcDbLine
 10
238.8273721235006
 20
348.2555691123037
 30
0.0
 11
238.8273721234967
 21
351.7555691123042
 31
0.0
  0
LINE
  5
28B
330
6F
100
AcDbEntity
  8
ANCHOR
  6
HIDDEN
100
AcDbLine
 10
242.4273721234962
 20
351.7555691123116
 30
0.0
 11
238.7273721233555
 21
351.7555691123034
 31
0.0
  0
LINE
  5
28C
330
6F
100
AcDbEntity
  8
ANCHOR
  6
HIDDEN
100
AcDbLine
 10
242.4273721234953
 20
352.2555691123118
 30
0.0
 11
239.9617471234946
 21
352.2555691123063
 31
0.0
  0
LINE
  5
28D
330
6F
100
AcDbEntity
  8
ANCHOR
  6
HIDDEN
100
AcDbLine
 10
242.4273721234893
 20
355.2555691123123
 30
0.0
 11
239.8679971234922
 21
355.2555691123066
 31
0.0
  0
LINE
  5
28E
330
6F
100
AcDbEntity
  8
ANCHOR
  6
HIDDEN
100
AcDbLine
 10
242.4273721234866
 20
355.7555691123118
 30
0.0
 11
239.8523721234913
 21
355.7555691123062
 31
0.0
  0
LINE
  5
28F
330
6F
100
AcDbEntity
  8
ANCHOR
  6
HIDDEN
100
AcDbLine
 10
242.4273721234815
 20
358.7555691123114
 30
0.0
 11
239.758622123488
 21
358.7555691123055
 31
0.0
  0
LINE
  5
290
330
6F
100
AcDbEntity
  8
ANCHOR
  6
HIDDEN
100
AcDbLine
 10
242.4273721234794
 20
359.2555691123118
 30
0.0
 11
239.7429971234878
 21
359.2555691123059
 31
0.0
  0
LINE
  5
291
330
6F
100
AcDbEntity
  8
ANCHOR
  6
HIDDEN
100
AcDbLine
 10
242.4273721235093
 20
338.2555691122993
 30
0.0
 11
241.6202736631017
 21
330.8699894338886
 31
0.0
  0
ARC
  5
292
330
6F
100
AcDbEntity
  8
ANCHOR
  6
HIDDEN
100
AcDbCircle
 10
241.123232732715
 20
330.9243062224343
 30
0.0
 40
0.5
100
AcDbArc
 50
263.7634467283077
 51
353.7634467282444
  0
LINE
  5
293
330
6F
100
AcDbEntity
  8
ANCHOR
  6
HIDDEN
100
AcDbLine
 10
242.7273720779525
 20
363.7555691123127
 30
0.0
 11
242.4273720779441
 21
363.7555691123101
 31
0.0
  0
LINE
  5
294
330
6F
100
AcDbEntity
  8
ANCHOR
  6
HIDDEN
100
AcDbLine
 10
242.4273720781444
 20
338.2555691123096
 30
0.0
 11
242.4273720779464
 21
363.7555691123097
 31
0.0
  0
LINE
  5
295
330
6F
100
AcDbEntity
  8
ANCHOR
  6
HIDDEN
100
AcDbLine
 10
244.3858282575542
 20
330.4272652920598
 30
0.0
 11
246.7565275523972
 21
330.6863360535178
 31
0.0
  0
LINE
  5
296
330
6F
100
AcDbEntity
  8
ANCHOR
  6
HIDDEN
100
AcDbLine
 10
246.7273720779321
 20
365.7555691123387
 30
0.0
 11
247.4273720778932
 21
370.7555691123437
 31
0.0
  0
LINE
  5
297
330
6F
100
AcDbEntity
  8
ANCHOR
  6
HIDDEN
100
AcDbLine
 10
242.7273720779369
 20
363.7555691123117
 30
0.0
 11
243.0273720779452
 21
363.7555691123138
 31
0.0
  0
LINE
  5
298
330
6F
100
AcDbEntity
  8
ANCHOR
  6
HIDDEN
100
AcDbLine
 10
243.0273720781441
 20
338.2555691123139
 30
0.0
 11
243.0273720779462
 21
363.7555691123138
 31
0.0
  0
LINE
  5
299
330
6F
100
AcDbEntity
  8
ANCHOR
  6
HIDDEN
100
AcDbLine
 10
246.7273720779745
 20
360.255569112339
 30
0.0
 11
245.7273720779772
 21
359.7555691123321
 31
0.0
  0
LINE
  5
29A
330
6F
100
AcDbEntity
  8
ANCHOR
  6
HIDDEN
100
AcDbLine
 10
245.7273720779774
 20
359.755569112332
 30
0.0
 11
245.4773720780397
 21
351.7555691123305
 31
0.0
  0
LINE
  5
29B
330
6F
100
AcDbEntity
  8
ANCHOR
  6
HIDDEN
100
AcDbLine
 10
246.727372077972
 20
360.2555691123393
 30
0.0
 11
246.7273720778905
 21
370.7555691123394
 31
0.0
  0
LINE
  5
29C
330
6F
100
AcDbEntity
  8
ANCHOR
  6
HIDDEN
100
AcDbLine
 10
243.5628865958693
 20
333.3551940858422
 30
0.0
 11
247.8223414261872
 21
333.820668643787
 31
0.0
  0
LINE
  5
29D
330
6F
100
AcDbEntity
  8
ANCHOR
  6
HIDDEN
100
AcDbLine
 10
243.4542530187665
 20
334.3492759466191
 30
0.0
 11
247.0675546395795
 21
334.7441386794498
 31
0.0
  0
LINE
  5
29E
330
6F
100
AcDbEntity
  8
ANCHOR
  6
HIDDEN
100
AcDbLine
 10
246.7565275523973
 20
330.6863360535178
 30
0.0
 11
247.8223414261875
 21
333.8206686437874
 31
0.0
  0
LINE
  5
29F
330
6F
100
AcDbEntity
  8
ANCHOR
  6
HIDDEN
100
AcDbLine
 10
247.8223414261858
 20
333.8206686437875
 30
0.0
 11
247.0675546395812
 21
334.7441386794509
 31
0.0
  0
LINE
  5
2A0
330
6F
100
AcDbEntity
  8
ANCHOR
  6
HIDDEN
100
AcDbLine
 10
243.3456194416708
 20
335.3433578073973
 30
0.0
 11
247.6050742719883
 21
335.8088323653418
 31
0.0
  0
LINE
  5
2A1
330
6F
100
AcDbEntity
  8
ANCHOR
  6
HIDDEN
100
AcDbLine
 10
247.0675546395805
 20
334.7441386794516
 30
0.0
 11
247.6050742719866
 21
335.8088323653429
 31
0.0
  0
LINE
  5
2A2
330
6F
100
AcDbEntity
  8
ANCHOR
  6
HIDDEN
100
AcDbLine
 10
243.1826690760211
 20
336.8344805985626
 30
0.0
 11
247.442123906341
 21
337.2999551565072
 31
0.0
  0
LINE
  5
2A3
330
6F
100
AcDbEntity
  8
ANCHOR
  6
HIDDEN
100
AcDbLine
 10
247.6050742719885
 20
335.8088323653417
 30
0.0
 11
247.4421239063395
 21
337.2999551565077
 31
0.0
  0
LINE
  5
2A4
330
6F
100
AcDbEntity
  8
ANCHOR
  6
HIDDEN
100
AcDbLine
 10
247.2628785041255
 20
338.940190226785
 30
0.0
 11
247.0075895979413
 21
341.2762825996169
 31
0.0
  0
LINE
  5
2A5
330
6F
100
AcDbEntity
  8
ANCHOR
  6
HIDDEN
100
AcDbLine
 10
243.1283522874705
 20
337.3315215289523
 30
0.0
 11
246.7416539082872
 21
337.7263842617832
 31
0.0
  0
LINE
  5
2A6
330
6F
100
AcDbEntity
  8
ANCHOR
  6
HIDDEN
100
AcDbLine
 10
243.0740354989202
 20
337.8285624593408
 30
0.0
 11
246.6873371197386
 21
338.2234251921722
 31
0.0
  0
LINE
  5
2A7
330
6F
100
AcDbEntity
  8
ANCHOR
  6
HIDDEN
100
AcDbLine
 10
246.7416539082859
 20
337.7263842617834
 30
0.0
 11
247.4421239063382
 21
337.299955156508
 31
0.0
  0
LINE
  5
2A8
330
6F
100
AcDbEntity
  8
ANCHOR
  6
HIDDEN
100
AcDbLine
 10
246.7416539082867
 20
337.7263842617829
 30
0.0
 11
246.6873371197381
 21
338.2234251921719
 31
0.0
  0
LINE
  5
2A9
330
6F
100
AcDbEntity
  8
ANCHOR
  6
HIDDEN
100
AcDbLine
 10
246.6873371197379
 20
338.2234251921718
 30
0.0
 11
247.2628785041248
 21
338.9401902267853
 31
0.0
  0
LINE
  5
2AA
330
6F
100
AcDbEntity
  8
ANCHOR
  6
HIDDEN
100
AcDbLine
 10
243.4288948991427
 20
340.885201722063
 30
0.0
 11
247.007589597942
 21
341.2762825996168
 31
0.0
  0
LINE
  5
2AB
330
6F
100
AcDbEntity
  8
ANCHOR
  6
HIDDEN
100
AcDbLine
 10
246.3614363884375
 20
341.2056707745029
 30
0.0
 11
246.3071195998889
 21
341.7027117048919
 31
0.0
  0
LINE
  5
2AC
330
6F
100
AcDbEntity
  8
ANCHOR
  6
HIDDEN
100
AcDbLine
 10
243.3745781105925
 20
341.3822426524523
 30
0.0
 11
246.3071195998905
 21
341.7027117048929
 31
0.0
  0
LINE
  5
2AD
330
6F
100
AcDbEntity
  8
ANCHOR
  6
HIDDEN
100
AcDbLine
 10
246.3071195998911
 20
341.7027117048917
 30
0.0
 11
246.8826609842781
 21
342.4194767395053
 31
0.0
  0
LINE
  5
2AE
330
6F
100
AcDbEntity
  8
ANCHOR
  6
HIDDEN
100
AcDbLine
 10
246.6273720781127
 20
342.4055691123329
 30
0.0
 11
246.6273720780944
 21
344.7555691123378
 31
0.0
  0
LINE
  5
2AF
330
6F
100
AcDbEntity
  8
ANCHOR
  6
HIDDEN
100
AcDbLine
 10
243.027372078093
 20
344.7555691123138
 30
0.0
 11
246.6273720780934
 21
344.7555691123378
 31
0.0
  0
LINE
  5
2B0
330
6F
100
AcDbEntity
  8
ANCHOR
  6
HIDDEN
100
AcDbLine
 10
245.977372078096
 20
344.7555691123339
 30
0.0
 11
245.9773720780933
 21
345.2555691123339
 31
0.0
  0
LINE
  5
2B1
330
6F
100
AcDbEntity
  8
ANCHOR
  6
HIDDEN
100
AcDbLine
 10
243.0273720780882
 20
345.255569112315
 30
0.0
 11
245.9773720780926
 21
345.2555691123346
 31
0.0
  0
LINE
  5
2B2
330
6F
100
AcDbEntity
  8
ANCHOR
  6
HIDDEN
100
AcDbLine
 10
245.9773720780936
 20
345.255569112332
 30
0.0
 11
246.627372078084
 21
345.905569112331
 31
0.0
  0
LINE
  5
2B3
330
6F
100
AcDbEntity
  8
ANCHOR
  6
HIDDEN
100
AcDbLine
 10
246.6273720780855
 20
345.9055691123329
 30
0.0
 11
246.6273720780672
 21
348.2555691123378
 31
0.0
  0
LINE
  5
2B4
330
6F
100
AcDbEntity
  8
ANCHOR
  6
HIDDEN
100
AcDbLine
 10
243.0273720780668
 20
348.2555691123138
 30
0.0
 11
246.6273720780671
 21
348.2555691123378
 31
0.0
  0
LINE
  5
2B5
330
6F
100
AcDbEntity
  8
ANCHOR
  6
HIDDEN
100
AcDbLine
 10
245.9773720780699
 20
348.2555691123334
 30
0.0
 11
245.9773720780672
 21
348.7555691123334
 31
0.0
  0
LINE
  5
2B6
330
6F
100
AcDbEntity
  8
ANCHOR
  6
HIDDEN
100
AcDbLine
 10
243.0273720780612
 20
348.7555691123147
 30
0.0
 11
245.9773720780656
 21
348.7555691123343
 31
0.0
  0
LINE
  5
2B7
330
6F
100
AcDbEntity
  8
ANCHOR
  6
HIDDEN
100
AcDbLine
 10
245.9773720780664
 20
348.7555691123338
 30
0.0
 11
246.6273720780569
 21
349.405569112333
 31
0.0
  0
LINE
  5
2B8
330
6F
100
AcDbEntity
  8
ANCHOR
  6
HIDDEN
100
AcDbLine
 10
246.6273720780676
 20
348.2555691123384
 30
0.0
 11
246.6273720780405
 21
351.7555691123388
 31
0.0
  0
LINE
  5
2B9
330
6F
100
AcDbEntity
  8
ANCHOR
  6
HIDDEN
100
AcDbLine
 10
243.0273720780384
 20
351.7555691123145
 30
0.0
 11
246.727372078181
 21
351.7555691123391
 31
0.0
  0
LINE
  5
2BA
330
6F
100
AcDbEntity
  8
ANCHOR
  6
HIDDEN
100
AcDbLine
 10
243.0273720780355
 20
352.2555691123142
 30
0.0
 11
245.4929970780345
 21
352.2555691123307
 31
0.0
  0
LINE
  5
2BB
330
6F
100
AcDbEntity
  8
ANCHOR
  6
HIDDEN
100
AcDbLine
 10
243.0273720780167
 20
355.2555691123147
 30
0.0
 11
245.586747078012
 21
355.2555691123318
 31
0.0
  0
LINE
  5
2BC
330
6F
100
AcDbEntity
  8
ANCHOR
  6
HIDDEN
100
AcDbLine
 10
243.027372078013
 20
355.7555691123138
 30
0.0
 11
245.6023720780082
 21
355.755569112331
 31
0.0
  0
LINE
  5
2BD
330
6F
100
AcDbEntity
  8
ANCHOR
  6
HIDDEN
100
AcDbLine
 10
243.0273720779926
 20
358.7555691123137
 30
0.0
 11
245.6961220779842
 21
358.7555691123314
 31
0.0
  0
LINE
  5
2BE
330
6F
100
AcDbEntity
  8
ANCHOR
  6
HIDDEN
100
AcDbLine
 10
243.0273720779903
 20
359.255569112314
 30
0.0
 11
245.7117470779819
 21
359.2555691123318
 31
0.0
  0
LINE
  5
2BF
330
6F
100
AcDbEntity
  8
ANCHOR
  6
HIDDEN
100
AcDbLine
 10
243.0273720781426
 20
338.2555691123027
 30
0.0
 11
243.8344705386157
 21
330.8699894338989
 31
0.0
  0
ARC
  5
2C0
330
6F
100
AcDbEntity
  8
ANCHOR
  6
HIDDEN
100
AcDbCircle
 10
244.3315114690056
 20
330.9243062224484
 30
0.0
 40
0.5
100
AcDbArc
 50
186.2365532722638
 51
276.2365532722005
  0
LINE
  5
2C1
330
6F
100
AcDbEntity
  8
ANCHOR
  6
HIDDEN
100
AcDbLine
 10
238.727372123356
 20
351.755569112304
 30
0.0
 11
237.1158880971461
 21
359.5915833560878
 31
0.0
  0
LINE
  5
2C2
330
6F
100
AcDbEntity
  8
ANCHOR
  6
HIDDEN
100
AcDbLine
 10
238.2116887197266
 20
359.2275032425848
 30
0.0
 11
237.1158880971752
 21
359.5915833559481
 31
0.0
  0
LINE
  5
2C3
330
6F
100
AcDbEntity
  8
ANCHOR
  6
HIDDEN
100
AcDbLine
 10
239.7482993129742
 20
351.7555691123058
 30
0.0
 11
238.2116887197266
 21
359.2275032425848
 31
0.0
  0
LINE
  5
2C4
330
6F
100
AcDbEntity
  8
ANCHOR
  6
HIDDEN
100
AcDbLine
 10
246.7273720781786
 20
351.7555691123098
 30
0.0
 11
248.3388561043711
 21
359.5915833560975
 31
0.0
  0
LINE
  5
2C5
330
6F
100
AcDbEntity
  8
ANCHOR
  6
HIDDEN
100
AcDbLine
 10
247.2430554817933
 20
359.2275032425914
 30
0.0
 11
248.338856104344
 21
359.5915833559574
 31
0.0
  0
LINE
  5
2C6
330
6F
100
AcDbEntity
  8
ANCHOR
  6
HIDDEN
100
AcDbLine
 10
245.7064448885615
 20
351.7555691123091
 30
0.0
 11
247.2430554817922
 21
359.2275032425911
 31
0.0
  0
LINE
  5
2C7
330
6F
100
AcDbEntity
  8
ANCHOR
  6
HIDDEN
100
AcDbLine
 10
242.7273721689338
 20
318.7555691123113
 30
0.0
 11
239.9773721344775
 21
329.0187089614263
 31
0.0
  0
LINE
  5
2C8
330
6F
100
AcDbEntity
  8
ANCHOR
  6
HIDDEN
100
AcDbLine
 10
242.7273721234753
 20
318.755569112311
 30
0.0
 11
245.4773721342489
 21
329.0187088734047
 31
0.0
  0
LINE
  5
2C9
330
6F
100
AcDbEntity
  8
ANCHOR
  6
HIDDEN
100
AcDbLine
 10
239.977372134479
 20
329.0187089614267
 30
0.0
 11
239.9773721339327
 21
330.5465495414958
 31
0.0
  0
LINE
  5
2CA
330
6F
100
AcDbEntity
  8
ANCHOR
  6
HIDDEN
100
AcDbLine
 10
245.477372134249
 20
329.0187088734045
 30
0.0
 11
245.4773721338875
 21
330.5465495487437
 31
0.0
  0
ARC
  5
2CB
330
6F
100
AcDbEntity
  8
ANCHOR
  6
Continuous
100
AcDbCircle
 10
242.727372123424
 20
364.1555691123021
 30
0.0
 40
14.0
100
AcDbArc
 50
74.63751496329646
 51
105.3624850364064
  0
LINE
  5
2CC
330
6F
100
AcDbEntity
  8
ANCHOR
  6
Continuous
100
AcDbLine
 10
237.4773721234012
 20
374.8555691122911
 30
0.0
 11
237.485713432094
 21
374.9179062927615
 31
0.0
  0
LINE
  5
2CD
330
6F
100
AcDbEntity
  8
ANCHOR
  6
Continuous
100
AcDbLine
 10
247.977372123405
 20
374.8555691123132
 30
0.0
 11
247.8257322491111
 21
375.9888208066533
 31
0.0
  0
ARC
  5
2CE
330
6F
100
AcDbEntity
  8
ANCHOR
  6
Continuous
100
AcDbCircle
 10
245.9329623227175
 20
375.8232248953987
 30
0.0
 40
1.9
100
AcDbArc
 50
5.000000000119887
 51
74.63751496329646
  0
LINE
  5
2CF
330
6F
100
AcDbEntity
  8
ANCHOR
  6
Continuous
100
AcDbLine
 10
249.2273721234341
 20
374.8555691123153
 30
0.0
 11
236.2273721234414
 21
374.855569112288
 31
0.0
  0
LINE
  5
2D0
330
6F
100
AcDbEntity
  8
ANCHOR
  6
Continuous
100
AcDbLine
 10
236.2273721234336
 20
374.2555691122892
 30
0.0
 11
236.2273721234337
 21
374.2899579990402
 31
0.0
  0
LINE
  5
2D1
330
6F
100
AcDbEntity
  8
ANCHOR
  6
Continuous
100
AcDbLine
 10
249.2273721234325
 20
374.2555691123162
 30
0.0
 11
249.227372123433
 21
374.8555691123161
 31
0.0
  0
LINE
  5
2D2
330
6F
100
AcDbEntity
  8
ANCHOR
  6
HIDDEN
100
AcDbLine
 10
245.4773721246137
 20
369.2555691121238
 30
0.0
 11
245.4773721234311
 21
374.2555691123079
 31
0.0
  0
LINE
  5
2D3
330
6F
100
AcDbEntity
  8
ANCHOR
  6
HIDDEN
100
AcDbLine
 10
239.9773721252206
 20
369.255569112138
 30
0.0
 11
239.9773721234328
 21
374.2555691122967
 31
0.0
  0
LINE
  5
2D4
330
6F
100
AcDbEntity
  8
ANCHOR
  6
Continuous
100
AcDbLine
 10
249.2273721234336
 20
374.255569112315
 30
0.0
 11
236.2273721234336
 21
374.2555691122876
 31
0.0
  0
LINE
  5
2D5
330
6F
100
AcDbEntity
  8
ANCHOR
  6
Continuous
100
AcDbLine
 10
237.4773721234735
 20
374.8555691123848
 30
0.0
 11
237.6290119977819
 21
375.9888208067217
 31
0.0
  0
ARC
  5
2D6
330
6F
100
AcDbEntity
  8
ANCHOR
  6
Continuous
100
AcDbCircle
 10
239.5217819241686
 20
375.8232248954422
 30
0.0
 40
1.9
100
AcDbArc
 50
105.3624850359274
 51
174.999999999104
  0
LINE
  5
2D7
330
6F
100
AcDbEntity
  8
ANCHOR
  6
Continuous
100
AcDbLine
 10
236.2273721234348
 20
374.2555691124042
 30
0.0
 11
236.2273721234426
 21
374.8555691124041
 31
0.0
  0
LINE
  5
3AF
330
6F
100
AcDbEntity
  8
LOUVER
  6
Continuous
100
AcDbLine
 10
260.9273721236804
 20
109.336449609626
 30
0.0
 11
260.9273721236815
 21
114.3364496093139
 31
0.0
  0
LINE
  5
3B0
330
6F
100
AcDbEntity
  8
LOUVER
  6
Continuous
100
AcDbLine
 10
260.9273721236776
 20
109.336449609626
 30
0.0
 11
262.7273721236261
 21
109.336449609626
 31
0.0
  0
LINE
  5
3B1
330
6F
100
AcDbEntity
  8
LOUVER
  6
Continuous
100
AcDbLine
 10
262.7273721236261
 20
258.336449609626
 30
0.0
 11
242.7273721236261
 21
258.336449609626
 31
0.0
  0
LINE
  5
3B2
330
6F
100
AcDbEntity
  8
LOUVER
  6
Continuous
100
AcDbLine
 10
261.327372123626
 20
123.336449609627
 30
0.0
 11
258.027372123626
 21
123.3364496096282
 31
0.0
  0
LINE
  5
3B3
330
6F
100
AcDbEntity
  8
LOUVER
  6
Continuous
100
AcDbLine
 10
261.2273721236261
 20
155.836449609626
 30
0.0
 11
246.0844541899441
 21
155.836449609626
 31
0.0
  0
LINE
  5
3B4
330
6F
100
AcDbEntity
  8
LOUVER
  6
Continuous
100
AcDbLine
 10
261.3273721236261
 20
124.536449609627
 30
0.0
 11
258.0273721236264
 21
124.5364496096282
 31
0.0
  0
LINE
  5
3B5
330
6F
100
AcDbEntity
  8
LOUVER
  6
Continuous
100
AcDbLine
 10
260.3273721236261
 20
154.336449609626
 30
0.0
 11
242.7273721236261
 21
154.336449609626
 31
0.0
  0
LINE
  5
3B6
330
6F
100
AcDbEntity
  8
LOUVER
  6
Continuous
100
AcDbLine
 10
261.2273721236261
 20
155.836449609626
 30
0.0
 11
261.2273721236261
 21
256.836449609626
 31
0.0
  0
LINE
  5
3B7
330
6F
100
AcDbEntity
  8
LOUVER
  6
Continuous
100
AcDbLine
 10
261.3273721236261
 20
118.1364496096098
 30
0.0
 11
261.3273721236261
 21
123.3364496096269
 31
0.0
  0
LINE
  5
3B8
330
6F
100
AcDbEntity
  8
LOUVER
  6
Continuous
100
AcDbLine
 10
261.3273721236261
 20
124.5364496096269
 30
0.0
 11
261.3273721236261
 21
153.336449609626
 31
0.0
  0
LINE
  5
3B9
330
6F
100
AcDbEntity
  8
LOUVER
  6
Continuous
100
AcDbLine
 10
222.7273721236252
 20
109.3364496096261
 30
0.0
 11
222.7273721236253
 21
258.3364496096262
 31
0.0
  0
LINE
  5
3BA
330
6F
100
AcDbEntity
  8
LOUVER
  6
Continuous
100
AcDbLine
 10
225.1480201626847
 20
118.1364496096098
 30
0.0
 11
224.1273721236252
 21
118.1364496096098
 31
0.0
  0
LINE
  5
3BB
330
6F
100
AcDbEntity
  8
LOUVER
  6
Continuous
100
AcDbLine
 10
224.5273721235708
 20
109.3364496096261
 30
0.0
 11
224.5273721235697
 21
114.3364496093141
 31
0.0
  0
LINE
  5
3BC
330
6F
100
AcDbEntity
  8
LOUVER
  6
Continuous
100
AcDbLine
 10
224.5273721235738
 20
109.336449609626
 30
0.0
 11
222.7273721236252
 21
109.336449609626
 31
0.0
  0
LINE
  5
3BD
330
6F
100
AcDbEntity
  8
LOUVER
  6
Continuous
100
AcDbLine
 10
222.7273721236252
 20
258.336449609626
 30
0.0
 11
242.7273721236252
 21
258.336449609626
 31
0.0
  0
LINE
  5
3BE
330
6F
100
AcDbEntity
  8
LOUVER
  6
Continuous
100
AcDbLine
 10
224.1273721236253
 20
123.3364496096265
 30
0.0
 11
227.4273721236254
 21
123.3364496096277
 31
0.0
  0
LINE
  5
3BF
330
6F
100
AcDbEntity
  8
LOUVER
  6
Continuous
100
AcDbLine
 10
224.2273721236252
 20
155.836449609626
 30
0.0
 11
239.3702900573063
 21
155.836449609626
 31
0.0
  0
LINE
  5
3C0
330
6F
100
AcDbEntity
  8
LOUVER
  6
Continuous
100
AcDbLine
 10
224.1273721236254
 20
124.5364496096265
 30
0.0
 11
227.4273721236251
 21
124.5364496096277
 31
0.0
  0
LINE
  5
3C1
330
6F
100
AcDbEntity
  8
LOUVER
  6
Continuous
100
AcDbLine
 10
225.1273721236252
 20
154.336449609626
 30
0.0
 11
242.7273721236252
 21
154.336449609626
 31
0.0
  0
LINE
  5
3C2
330
6F
100
AcDbEntity
  8
LOUVER
  6
Continuous
100
AcDbLine
 10
224.2273721236252
 20
155.836449609626
 30
0.0
 11
224.2273721236252
 21
256.8364496095929
 31
0.0
  0
LINE
  5
3C3
330
6F
100
AcDbEntity
  8
LOUVER
  6
Continuous
100
AcDbLine
 10
224.1273721236252
 20
118.1364496096098
 30
0.0
 11
224.1273721236252
 21
123.3364496096269
 31
0.0
  0
LINE
  5
3C4
330
6F
100
AcDbEntity
  8
LOUVER
  6
Continuous
100
AcDbLine
 10
224.1273721236252
 20
124.5364496096266
 30
0.0
 11
224.1273721236252
 21
153.336449609626
 31
0.0
  0
POINT
  5
3C5
330
6F
100
AcDbEntity
  8
LOUVER
  6
Continuous
100
AcDbPoint
 10
242.7273721236251
 20
254.836449609626
 30
0.0
  0
POINT
  5
3C6
330
6F
100
AcDbEntity
  8
LOUVER
  6
Continuous
100
AcDbPoint
 10
242.7273721236251
 20
157.636449609626
 30
0.0
  0
LINE
  5
3C7
330
6F
100
AcDbEntity
  8
LOUVER
  6
Continuous
100
AcDbLine
 10
261.2273721236261
 20
256.836449609626
 30
0.0
 11
252.7273721234919
 21
256.836449609626
 31
0.0
  0
LINE
  5
3C8
330
6F
100
AcDbEntity
  8
LOUVER
  6
Continuous
100
AcDbLine
 10
262.7273721227987
 20
258.3364496096261
 30
0.0
 11
262.7273721221779
 21
109.336449609626
 31
0.0
  0
POINT
  5
3C9
330
6F
100
AcDbEntity
  8
LOUVER
  6
Continuous
100
AcDbPoint
 10
240.0144401301127
 20
256.3364496091516
 30
0.0
  0
POINT
  5
3CA
330
6F
100
AcDbEntity
  8
LOUVER
  6
Continuous
100
AcDbPoint
 10
245.4403041171375
 20
256.3364496091516
 30
0.0
  0
LINE
  5
3CB
330
6F
100
AcDbEntity
  8
LOUVER
  6
Continuous
100
AcDbLine
 10
252.727372123492
 20
256.8364496096261
 30
0.0
 11
246.1369307246756
 21
256.3842484363063
 31
0.0
  0
LINE
  5
3CC
330
6F
100
AcDbEntity
  8
LOUVER
  6
Continuous
100
AcDbLine
 10
232.7273721238117
 20
256.836449609612
 30
0.0
 11
239.3178135226291
 21
256.3842484363015
 31
0.0
  0
LINE
  5
3CD
330
6F
100
AcDbEntity
  8
LOUVER
  6
Continuous
100
AcDbLine
 10
224.2273721236776
 20
256.8364496095929
 30
0.0
 11
232.7273721238119
 21
256.8364496096119
 31
0.0
  0
LINE
  5
3CE
330
6F
100
AcDbEntity
  8
LOUVER
  6
Continuous
100
AcDbLine
 10
260.3067240845656
 20
118.1364496096324
 30
0.0
 11
261.32737212381
 21
118.1364496096334
 31
0.0
  0
POINT
  5
3CF
330
6F
100
AcDbEntity
  8
LOUVER
  6
Continuous
100
AcDbPoint
 10
242.7273721236251
 20
157.636449609626
 30
0.0
  0
ARC
  5
3D0
330
6F
100
AcDbEntity
  8
LOUVER
  6
Continuous
100
AcDbCircle
 10
242.7273721236251
 20
157.636449609626
 30
0.0
 40
2.1
100
AcDbArc
 50
351.042328421765
 51
8.95767158078419
  0
ARC
  5
3D1
330
6F
100
AcDbEntity
  8
LOUVER
  6
Continuous
100
AcDbCircle
 10
242.7273721236251
 20
157.636449609626
 30
0.0
 40
1.8
100
AcDbArc
 50
20.35999519008635
 51
42.7186445082694
  0
ARC
  5
3D2
330
6F
100
AcDbEntity
  8
LOUVER
  6
Continuous
100
AcDbCircle
 10
244.6041990399815
 20
157.932288630109
 30
0.0
 40
0.2
100
AcDbArc
 50
8.957671580785854
 51
89.99999999982035
  0
ARC
  5
3D3
330
6F
100
AcDbEntity
  8
LOUVER
  6
Continuous
100
AcDbCircle
 10
244.6041990399947
 20
157.3406105892261
 30
0.0
 40
0.2
100
AcDbArc
 50
269.9999999998204
 51
351.0423284217637
  0
ARC
  5
3D4
330
6F
100
AcDbEntity
  8
LOUVER
  6
Continuous
100
AcDbCircle
 10
244.6024224025875
 20
156.9406145347961
 30
0.0
 40
0.2
100
AcDbArc
 50
89.99999999982035
 51
159.6400048124608
  0
ARC
  5
3D5
330
6F
100
AcDbEntity
  8
LOUVER
  6
Continuous
100
AcDbCircle
 10
244.6024224025566
 20
158.3322846845388
 30
0.0
 40
0.2
100
AcDbArc
 50
200.3599951900913
 51
269.9999999998203
  0
ARC
  5
3D6
330
6F
100
AcDbEntity
  8
LOUVER
  6
Continuous
100
AcDbCircle
 10
244.5273721238025
 20
159.2985266232934
 30
0.0
 40
0.6500000000000014
100
AcDbArc
 50
42.71864450827042
 51
222.7186445082705
  0
ARC
  5
3D7
330
6F
100
AcDbEntity
  8
LOUVER
  6
Continuous
100
AcDbCircle
 10
242.7273721236251
 20
157.636449609626
 30
0.0
 40
1.8
100
AcDbArc
 50
290.3599951900866
 51
339.6400048124626
  0
ARC
  5
3D8
330
6F
100
AcDbEntity
  8
LOUVER
  6
Continuous
100
AcDbCircle
 10
242.7273721236251
 20
157.636449609626
 30
0.0
 40
1.8
100
AcDbArc
 50
137.281355473095
 51
159.6400048124627
  0
ARC
  5
3D9
330
6F
100
AcDbEntity
  8
LOUVER
  6
Continuous
100
AcDbCircle
 10
242.7273721236251
 20
157.636449609626
 30
0.0
 40
1.8
100
AcDbArc
 50
200.3599951900864
 51
249.6400048124627
  0
ARC
  5
3DA
330
6F
100
AcDbEntity
  8
LOUVER
  6
Continuous
100
AcDbCircle
 10
240.9273721239885
 20
159.2985266238788
 30
0.0
 40
0.6500000000000048
100
AcDbArc
 50
317.2813554730932
 51
137.2813554730932
  0
ARC
  5
3DB
330
6F
100
AcDbEntity
  8
LOUVER
  6
Continuous
100
AcDbCircle
 10
242.7273721236251
 20
157.636449609626
 30
0.0
 40
3.1
100
AcDbArc
 50
137.2813554730942
 51
201.1684488458317
  0
ARC
  5
3DC
330
6F
100
AcDbEntity
  8
LOUVER
  6
Continuous
100
AcDbCircle
 10
242.7273721236251
 20
157.636449609626
 30
0.0
 40
3.1
100
AcDbArc
 50
338.8315511541684
 51
42.71864450826988
  0
LINE
  5
3DD
330
6F
100
AcDbEntity
  8
LOUVER
  6
Continuous
100
AcDbLine
 10
244.6024224025558
 20
158.1322846845389
 30
0.0
 11
244.6041990399821
 21
158.132288630109
 31
0.0
  0
LINE
  5
3DE
330
6F
100
AcDbEntity
  8
LOUVER
  6
Continuous
100
AcDbLine
 10
244.6024224025883
 20
157.1406145347966
 30
0.0
 11
244.6041990399942
 21
157.1406105892265
 31
0.0
  0
ARC
  5
3DF
330
6F
100
AcDbEntity
  8
LOUVER
  6
Continuous
100
AcDbCircle
 10
243.0232111441082
 20
155.7596226932694
 30
0.0
 40
0.2
100
AcDbArc
 50
278.9576715807859
 51
359.9999999998204
  0
ARC
  5
3E0
330
6F
100
AcDbEntity
  8
LOUVER
  6
Continuous
100
AcDbCircle
 10
242.4315331032255
 20
155.7596226932562
 30
0.0
 40
0.2
100
AcDbArc
 50
179.9999999998204
 51
261.0423284217637
  0
ARC
  5
3E1
330
6F
100
AcDbEntity
  8
LOUVER
  6
Continuous
100
AcDbCircle
 10
242.0315370487956
 20
155.7613993306634
 30
0.0
 40
0.2
100
AcDbArc
 50
359.9999999998204
 51
69.64000481246078
  0
ARC
  5
3E2
330
6F
100
AcDbEntity
  8
LOUVER
  6
Continuous
100
AcDbCircle
 10
243.4232071985382
 20
155.7613993306943
 30
0.0
 40
0.2
100
AcDbArc
 50
110.3599951900914
 51
179.9999999998204
  0
LINE
  5
3E3
330
6F
100
AcDbEntity
  8
LOUVER
  6
Continuous
100
AcDbLine
 10
243.2232071985378
 20
155.761399330695
 30
0.0
 11
243.2232111441079
 21
155.7596226932689
 31
0.0
  0
LINE
  5
3E4
330
6F
100
AcDbEntity
  8
LOUVER
  6
Continuous
100
AcDbLine
 10
242.2315370487954
 20
155.7613993306629
 30
0.0
 11
242.2315331032254
 21
155.7596226932571
 31
0.0
  0
ARC
  5
3E5
330
6F
100
AcDbEntity
  8
LOUVER
  6
Continuous
100
AcDbCircle
 10
242.7273721236251
 20
157.636449609626
 30
0.0
 40
2.1
100
AcDbArc
 50
171.042328421765
 51
188.9576715807843
  0
ARC
  5
3E6
330
6F
100
AcDbEntity
  8
LOUVER
  6
Continuous
100
AcDbCircle
 10
240.8505452072688
 20
157.3406105891427
 30
0.0
 40
0.2
100
AcDbArc
 50
188.9576715807859
 51
269.9999999998203
  0
ARC
  5
3E7
330
6F
100
AcDbEntity
  8
LOUVER
  6
Continuous
100
AcDbCircle
 10
240.8505452072556
 20
157.9322886300256
 30
0.0
 40
0.2
100
AcDbArc
 50
89.99999999982035
 51
171.0423284217637
  0
ARC
  5
3E8
330
6F
100
AcDbEntity
  8
LOUVER
  6
Continuous
100
AcDbCircle
 10
240.8523218446628
 20
158.3322846844555
 30
0.0
 40
0.2
100
AcDbArc
 50
269.9999999998204
 51
339.6400048124608
  0
ARC
  5
3E9
330
6F
100
AcDbEntity
  8
LOUVER
  6
Continuous
100
AcDbCircle
 10
240.8523218446937
 20
156.940614534713
 30
0.0
 40
0.2
100
AcDbArc
 50
20.35999519009133
 51
89.99999999982035
  0
LINE
  5
3EA
330
6F
100
AcDbEntity
  8
LOUVER
  6
Continuous
100
AcDbLine
 10
240.8523218446945
 20
157.1406145347128
 30
0.0
 11
240.8505452072684
 21
157.1406105891426
 31
0.0
  0
LINE
  5
3EB
330
6F
100
AcDbEntity
  8
LOUVER
  6
Continuous
100
AcDbLine
 10
240.8523218446621
 20
158.1322846844558
 30
0.0
 11
240.8505452072563
 21
158.1322886300258
 31
0.0
  0
ARC
  5
3EC
330
6F
100
AcDbEntity
  8
LOUVER
  6
Continuous
100
AcDbCircle
 10
242.7273721236251
 20
157.6364496096257
 30
0.0
 40
2.1
100
AcDbArc
 50
261.0423284217649
 51
278.9576715807843
  0
POINT
  5
3ED
330
6F
100
AcDbEntity
  8
LOUVER
  6
Continuous
100
AcDbPoint
 10
242.7273721236251
 20
254.836449609626
 30
0.0
  0
ARC
  5
3EE
330
6F
100
AcDbEntity
  8
LOUVER
  6
Continuous
100
AcDbCircle
 10
242.7273721236251
 20
254.836449609626
 30
0.0
 40
2.1
100
AcDbArc
 50
351.0423284193774
 51
8.957671578396658
  0
ARC
  5
3EF
330
6F
100
AcDbEntity
  8
LOUVER
  6
Continuous
100
AcDbCircle
 10
242.7273721236251
 20
254.836449609626
 30
0.0
 40
1.8
100
AcDbArc
 50
317.2813554918922
 51
339.6400048100753
  0
ARC
  5
3F0
330
6F
100
AcDbEntity
  8
LOUVER
  6
Continuous
100
AcDbCircle
 10
244.6041990399824
 20
254.5406105891483
 30
0.0
 40
0.2
100
AcDbArc
 50
270.0000000003413
 51
351.0423284193759
  0
ARC
  5
3F1
330
6F
100
AcDbEntity
  8
LOUVER
  6
Continuous
100
AcDbCircle
 10
244.6041990399939
 20
255.1322886300312
 30
0.0
 40
0.2
100
AcDbArc
 50
8.957671578397892
 51
90.00000000034114
  0
ARC
  5
3F2
330
6F
100
AcDbEntity
  8
LOUVER
  6
Continuous
100
AcDbCircle
 10
244.6024224025856
 20
255.5322846844612
 30
0.0
 40
0.2
100
AcDbArc
 50
200.3599951877008
 51
270.0000000003413
  0
ARC
  5
3F3
330
6F
100
AcDbEntity
  8
LOUVER
  6
Continuous
100
AcDbCircle
 10
244.6024224025586
 20
254.1406145347186
 30
0.0
 40
0.2
100
AcDbArc
 50
90.00000000034136
 51
159.6400048100703
  0
ARC
  5
3F4
330
6F
100
AcDbEntity
  8
LOUVER
  6
Continuous
100
AcDbCircle
 10
244.5273721238072
 20
253.1743725959638
 30
0.0
 40
0.6500000000000014
100
AcDbArc
 50
137.2813554918912
 51
317.2813554918912
  0
ARC
  5
3F5
330
6F
100
AcDbEntity
  8
LOUVER
  6
Continuous
100
AcDbCircle
 10
242.7273721236251
 20
254.836449609626
 30
0.0
 40
1.8
100
AcDbArc
 50
20.359995187699
 51
69.64000481007504
  0
ARC
  5
3F6
330
6F
100
AcDbEntity
  8
LOUVER
  6
Continuous
100
AcDbCircle
 10
242.7273721236251
 20
254.836449609626
 30
0.0
 40
1.8
100
AcDbArc
 50
200.3599951876989
 51
222.7186445270667
  0
ARC
  5
3F7
330
6F
100
AcDbEntity
  8
LOUVER
  6
Continuous
100
AcDbCircle
 10
242.7273721236251
 20
254.836449609626
 30
0.0
 40
1.8
100
AcDbArc
 50
110.359995187699
 51
159.6400048100752
  0
ARC
  5
3F8
330
6F
100
AcDbEntity
  8
LOUVER
  6
Continuous
100
AcDbCircle
 10
240.9273721239933
 20
253.174372595368
 30
0.0
 40
0.6500000000000048
100
AcDbArc
 50
222.7186445270684
 51
42.71864452706842
  0
ARC
  5
3F9
330
6F
100
AcDbEntity
  8
LOUVER
  6
Continuous
100
AcDbCircle
 10
242.7273721236251
 20
254.836449609626
 30
0.0
 40
3.1
100
AcDbArc
 50
163.059346070501
 51
222.7186445270675
  0
ARC
  5
3FA
330
6F
100
AcDbEntity
  8
LOUVER
  6
Continuous
100
AcDbCircle
 10
242.7273721236251
 20
254.836449609626
 30
0.0
 40
3.1
100
AcDbArc
 50
317.2813554918917
 51
16.94065392951864
  0
LINE
  5
3FB
330
6F
100
AcDbEntity
  8
LOUVER
  6
Continuous
100
AcDbLine
 10
244.602422402557
 20
254.3406145347184
 30
0.0
 11
244.6041990399834
 21
254.3406105891483
 31
0.0
  0
LINE
  5
3FC
330
6F
100
AcDbEntity
  8
LOUVER
  6
Continuous
100
AcDbLine
 10
244.6024224025868
 20
255.3322846844608
 30
0.0
 11
244.6041990399927
 21
255.3322886300308
 31
0.0
  0
ARC
  5
3FD
330
6F
100
AcDbEntity
  8
LOUVER
  6
Continuous
100
AcDbCircle
 10
243.023211144103
 20
256.7132765259834
 30
0.0
 40
0.2
100
AcDbArc
 50
0.000000000341159
 51
81.04232841937571
  0
ARC
  5
3FE
330
6F
100
AcDbEntity
  8
LOUVER
  6
Continuous
100
AcDbCircle
 10
242.4315331032203
 20
256.713276525995
 30
0.0
 40
0.2
100
AcDbArc
 50
98.95767157839792
 51
180.0000000003413
  0
ARC
  5
3FF
330
6F
100
AcDbEntity
  8
LOUVER
  6
Continuous
100
AcDbCircle
 10
242.0315370487903
 20
256.7114998885867
 30
0.0
 40
0.2
100
AcDbArc
 50
290.3599951877009
 51
0.0000000003411671
  0
ARC
  5
400
330
6F
100
AcDbEntity
  8
LOUVER
  6
Continuous
100
AcDbCircle
 10
243.4232071985329
 20
256.7114998885596
 30
0.0
 40
0.2
100
AcDbArc
 50
180.0000000003413
 51
249.6400048100703
  0
LINE
  5
401
330
6F
100
AcDbEntity
  8
LOUVER
  6
Continuous
100
AcDbLine
 10
243.2232071985324
 20
256.7114998885585
 30
0.0
 11
243.2232111441025
 21
256.7132765259846
 31
0.0
  0
LINE
  5
402
330
6F
100
AcDbEntity
  8
LOUVER
  6
Continuous
100
AcDbLine
 10
242.2315370487901
 20
256.711499888588
 30
0.0
 11
242.23153310322
 21
256.7132765259939
 31
0.0
  0
ARC
  5
403
330
6F
100
AcDbEntity
  8
LOUVER
  6
Continuous
100
AcDbCircle
 10
242.7273721236251
 20
254.836449609626
 30
0.0
 40
2.1
100
AcDbArc
 50
171.0423284193774
 51
188.9576715783966
  0
ARC
  5
404
330
6F
100
AcDbEntity
  8
LOUVER
  6
Continuous
100
AcDbCircle
 10
240.850545207268
 20
255.132288630104
 30
0.0
 40
0.2
100
AcDbArc
 50
90.00000000034136
 51
171.0423284193756
  0
ARC
  5
405
330
6F
100
AcDbEntity
  8
LOUVER
  6
Continuous
100
AcDbCircle
 10
240.8505452072565
 20
254.5406105892211
 30
0.0
 40
0.2
100
AcDbArc
 50
188.9576715783979
 51
270.0000000003413
  0
ARC
  5
406
330
6F
100
AcDbEntity
  8
LOUVER
  6
Continuous
100
AcDbCircle
 10
240.8523218446648
 20
254.1406145347912
 30
0.0
 40
0.2
100
AcDbArc
 50
20.35999518770083
 51
90.00000000034114
  0
ARC
  5
407
330
6F
100
AcDbEntity
  8
LOUVER
  6
Continuous
100
AcDbCircle
 10
240.8523218446918
 20
255.5322846845338
 30
0.0
 40
0.2
100
AcDbArc
 50
270.0000000003413
 51
339.6400048100703
  0
LINE
  5
408
330
6F
100
AcDbEntity
  8
LOUVER
  6
Continuous
100
AcDbLine
 10
240.852321844693
 20
255.3322846845337
 30
0.0
 11
240.8505452072669
 21
255.3322886301038
 31
0.0
  0
LINE
  5
409
330
6F
100
AcDbEntity
  8
LOUVER
  6
Continuous
100
AcDbLine
 10
240.8523218446634
 20
254.3406145347913
 30
0.0
 11
240.8505452072576
 21
254.3406105892212
 31
0.0
  0
ARC
  5
40A
330
6F
100
AcDbEntity
  8
LOUVER
  6
Continuous
100
AcDbCircle
 10
242.7273721236251
 20
254.8364496096262
 30
0.0
 40
2.1
100
AcDbArc
 50
81.04232841937735
 51
98.95767157839678
  0
ARC
  5
40B
330
6F
100
AcDbEntity
  8
LOUVER
  6
Continuous
100
AcDbCircle
 10
246.1711576006569
 20
255.8854212909337
 30
0.0
 40
0.5
100
AcDbArc
 50
93.92518067041988
 51
196.9406539295183
  0
ARC
  5
40C
330
6F
100
AcDbEntity
  8
LOUVER
  6
Continuous
100
AcDbCircle
 10
239.2835866465931
 20
255.8854212909325
 30
0.0
 40
0.5
100
AcDbArc
 50
343.0593460705006
 51
86.07481932966164
  0
ARC
  5
40D
330
6F
100
AcDbEntity
  8
LOUVER
  6
Continuous
100
AcDbCircle
 10
239.3702900573062
 20
156.336449609626
 30
0.0
 40
0.5
100
AcDbArc
 50
270.0
 51
21.16844884583121
  0
ARC
  5
40E
330
6F
100
AcDbEntity
  8
LOUVER
  6
Continuous
100
AcDbCircle
 10
246.0844541899441
 20
156.336449609626
 30
0.0
 40
0.5
100
AcDbArc
 50
158.8315511541688
 51
270.0
  0
ARC
  5
40F
330
6F
100
AcDbEntity
  8
LOUVER
  6
Continuous
100
AcDbCircle
 10
260.327372123626
 20
153.3364496096261
 30
0.0
 40
1.0
100
AcDbArc
 50
0.0
 51
90.0
  0
ARC
  5
410
330
6F
100
AcDbEntity
  8
LOUVER
  6
Continuous
100
AcDbCircle
 10
225.1273721236251
 20
153.336449609626
 30
0.0
 40
1.0
100
AcDbArc
 50
90.0
 51
180.0
  0
ARC
  5
411
330
6F
100
AcDbEntity
  8
LOUVER
  6
Continuous
100
AcDbCircle
 10
227.4273721236253
 20
123.9364496096277
 30
0.0
 40
0.6000000000000512
100
AcDbArc
 50
270.0
 51
90.0
  0
ARC
  5
412
330
6F
100
AcDbEntity
  8
LOUVER
  6
Continuous
100
AcDbCircle
 10
258.0273721236258
 20
123.9364496096282
 30
0.0
 40
0.5999999999999659
100
AcDbArc
 50
90.0
 51
270.0
  0
LINE
  5
413
330
6F
100
AcDbEntity
  8
LOUVER
  6
Continuous
100
AcDbLine
 10
225.4399442489329
 20
117.767309694451
 30
0.0
 11
224.5273721235697
 21
114.3364496093139
 31
0.0
  0
ARC
  5
414
330
6F
100
AcDbEntity
  8
LOUVER
  6
Continuous
100
AcDbCircle
 10
225.1480201626846
 20
117.8364496096098
 30
0.0
 40
0.3
100
AcDbArc
 50
346.6754687391201
 51
90.0
  0
LINE
  5
415
330
6F
100
AcDbEntity
  8
LOUVER
  6
Continuous
100
AcDbLine
 10
260.0147999983175
 20
117.7673096944743
 30
0.0
 11
260.9273721236814
 21
114.3364496093141
 31
0.0
  0
ARC
  5
416
330
6F
100
AcDbEntity
  8
LOUVER
  6
Continuous
100
AcDbCircle
 10
260.3067240845659
 20
117.8364496096324
 30
0.0
 40
0.3
100
AcDbArc
 50
90.0
 51
193.3245312608023
  0
LINE
  5
417
330
6F
100
AcDbEntity
  8
LOUVER
  6
Continuous
100
AcDbLine
 10
260.9273721236139
 20
371.7555691122931
 30
0.0
 11
260.927372123615
 21
376.755569111981
 31
0.0
  0
LINE
  5
418
330
6F
100
AcDbEntity
  8
LOUVER
  6
Continuous
100
AcDbLine
 10
260.9273721236111
 20
371.7555691122931
 30
0.0
 11
262.7273721235597
 21
371.7555691122931
 31
0.0
  0
LINE
  5
419
330
6F
100
AcDbEntity
  8
LOUVER
  6
Continuous
100
AcDbLine
 10
262.7273721235596
 20
520.7555691122929
 30
0.0
 11
242.7273721235596
 21
520.7555691122929
 31
0.0
  0
LINE
  5
41A
330
6F
100
AcDbEntity
  8
LOUVER
  6
Continuous
100
AcDbLine
 10
261.3273721235594
 20
385.755569112294
 30
0.0
 11
258.0273721235595
 21
385.7555691122952
 31
0.0
  0
LINE
  5
41B
330
6F
100
AcDbEntity
  8
LOUVER
  6
Continuous
100
AcDbLine
 10
261.2273721235597
 20
418.2555691122931
 30
0.0
 11
246.0844541898776
 21
418.2555691122931
 31
0.0
  0
LINE
  5
41C
330
6F
100
AcDbEntity
  8
LOUVER
  6
Continuous
100
AcDbLine
 10
261.3273721235595
 20
386.9555691122942
 30
0.0
 11
258.0273721235598
 21
386.9555691122952
 31
0.0
  0
LINE
  5
41D
330
6F
100
AcDbEntity
  8
LOUVER
  6
Continuous
100
AcDbLine
 10
260.3273721235596
 20
416.755569112293
 30
0.0
 11
242.7273721235596
 21
416.755569112293
 31
0.0
  0
LINE
  5
41E
330
6F
100
AcDbEntity
  8
LOUVER
  6
Continuous
100
AcDbLine
 10
261.2273721235597
 20
418.2555691122931
 30
0.0
 11
261.2273721235596
 21
519.255569112293
 31
0.0
  0
LINE
  5
41F
330
6F
100
AcDbEntity
  8
LOUVER
  6
Continuous
100
AcDbLine
 10
261.3273721235596
 20
380.5555691122768
 30
0.0
 11
261.3273721235596
 21
385.755569112294
 31
0.0
  0
LINE
  5
420
330
6F
100
AcDbEntity
  8
LOUVER
  6
Continuous
100
AcDbLine
 10
261.3273721235596
 20
386.9555691122938
 30
0.0
 11
261.3273721235596
 21
415.7555691122929
 31
0.0
  0
LINE
  5
421
330
6F
100
AcDbEntity
  8
LOUVER
  6
Continuous
100
AcDbLine
 10
222.7273721235588
 20
371.7555691122931
 30
0.0
 11
222.7273721235588
 21
520.7555691122933
 31
0.0
  0
LINE
  5
422
330
6F
100
AcDbEntity
  8
LOUVER
  6
Continuous
100
AcDbLine
 10
225.1480201626181
 20
380.5555691122768
 30
0.0
 11
224.1273721235587
 21
380.5555691122768
 31
0.0
  0
LINE
  5
423
330
6F
100
AcDbEntity
  8
LOUVER
  6
Continuous
100
AcDbLine
 10
224.5273721235043
 20
371.7555691122932
 30
0.0
 11
224.5273721235031
 21
376.7555691119811
 31
0.0
  0
LINE
  5
424
330
6F
100
AcDbEntity
  8
LOUVER
  6
Continuous
100
AcDbLine
 10
224.5273721235073
 20
371.7555691122931
 30
0.0
 11
222.7273721235587
 21
371.7555691122931
 31
0.0
  0
LINE
  5
425
330
6F
100
AcDbEntity
  8
LOUVER
  6
Continuous
100
AcDbLine
 10
222.7273721235587
 20
520.7555691122929
 30
0.0
 11
242.7273721235587
 21
520.7555691122929
 31
0.0
  0
LINE
  5
426
330
6F
100
AcDbEntity
  8
LOUVER
  6
Continuous
100
AcDbLine
 10
224.1273721235588
 20
385.7555691122937
 30
0.0
 11
227.4273721235589
 21
385.7555691122948
 31
0.0
  0
LINE
  5
427
330
6F
100
AcDbEntity
  8
LOUVER
  6
Continuous
100
AcDbLine
 10
224.2273721235587
 20
418.2555691122931
 30
0.0
 11
239.3702900572397
 21
418.2555691122931
 31
0.0
  0
LINE
  5
428
330
6F
100
AcDbEntity
  8
LOUVER
  6
Continuous
100
AcDbLine
 10
224.1273721235588
 20
386.9555691122936
 30
0.0
 11
227.4273721235586
 21
386.9555691122948
 31
0.0
  0
LINE
  5
429
330
6F
100
AcDbEntity
  8
LOUVER
  6
Continuous
100
AcDbLine
 10
225.1273721235587
 20
416.755569112293
 30
0.0
 11
242.7273721235587
 21
416.755569112293
 31
0.0
  0
LINE
  5
42A
330
6F
100
AcDbEntity
  8
LOUVER
  6
Continuous
100
AcDbLine
 10
224.2273721235587
 20
418.2555691122931
 30
0.0
 11
224.2273721235587
 21
519.2555691122598
 31
0.0
  0
LINE
  5
42B
330
6F
100
AcDbEntity
  8
LOUVER
  6
Continuous
100
AcDbLine
 10
224.1273721235587
 20
380.5555691122768
 30
0.0
 11
224.1273721235587
 21
385.755569112294
 31
0.0
  0
LINE
  5
42C
330
6F
100
AcDbEntity
  8
LOUVER
  6
Continuous
100
AcDbLine
 10
224.1273721235587
 20
386.9555691122937
 30
0.0
 11
224.1273721235587
 21
415.7555691122929
 31
0.0
  0
POINT
  5
42D
330
6F
100
AcDbEntity
  8
LOUVER
  6
Continuous
100
AcDbPoint
 10
242.7273721235586
 20
517.2555691122929
 30
0.0
  0
POINT
  5
42E
330
6F
100
AcDbEntity
  8
LOUVER
  6
Continuous
100
AcDbPoint
 10
242.7273721235586
 20
420.055569112293
 30
0.0
  0
LINE
  5
42F
330
6F
100
AcDbEntity
  8
LOUVER
  6
Continuous
100
AcDbLine
 10
261.2273721235596
 20
519.255569112293
 30
0.0
 11
252.7273721234253
 21
519.255569112293
 31
0.0
  0
LINE
  5
430
330
6F
100
AcDbEntity
  8
LOUVER
  6
Continuous
100
AcDbLine
 10
262.7273721227322
 20
520.7555691122929
 30
0.0
 11
262.7273721221113
 21
371.755569112293
 31
0.0
  0
POINT
  5
431
330
6F
100
AcDbEntity
  8
LOUVER
  6
Continuous
100
AcDbPoint
 10
240.0144401300462
 20
518.7555691118186
 30
0.0
  0
POINT
  5
432
330
6F
100
AcDbEntity
  8
LOUVER
  6
Continuous
100
AcDbPoint
 10
245.440304117071
 20
518.7555691118186
 30
0.0
  0
LINE
  5
433
330
6F
100
AcDbEntity
  8
LOUVER
  6
Continuous
100
AcDbLine
 10
252.7273721234255
 20
519.255569112293
 30
0.0
 11
246.136930724609
 21
518.8033679389733
 31
0.0
  0
LINE
  5
434
330
6F
100
AcDbEntity
  8
LOUVER
  6
Continuous
100
AcDbLine
 10
232.7273721237452
 20
519.2555691122789
 30
0.0
 11
239.3178135225626
 21
518.8033679389686
 31
0.0
  0
LINE
  5
435
330
6F
100
AcDbEntity
  8
LOUVER
  6
Continuous
100
AcDbLine
 10
224.2273721236111
 20
519.2555691122598
 30
0.0
 11
232.7273721237454
 21
519.2555691122788
 31
0.0
  0
LINE
  5
436
330
6F
100
AcDbEntity
  8
LOUVER
  6
Continuous
100
AcDbLine
 10
260.3067240844991
 20
380.5555691122995
 30
0.0
 11
261.3273721237435
 21
380.5555691123005
 31
0.0
  0
POINT
  5
437
330
6F
100
AcDbEntity
  8
LOUVER
  6
Continuous
100
AcDbPoint
 10
242.7273721235586
 20
420.055569112293
 30
0.0
  0
ARC
  5
438
330
6F
100
AcDbEntity
  8
LOUVER
  6
Continuous
100
AcDbCircle
 10
242.7273721235586
 20
420.055569112293
 30
0.0
 40
2.1
100
AcDbArc
 50
351.042328421765
 51
8.95767158078419
  0
ARC
  5
439
330
6F
100
AcDbEntity
  8
LOUVER
  6
Continuous
100
AcDbCircle
 10
242.7273721235586
 20
420.055569112293
 30
0.0
 40
1.8
100
AcDbArc
 50
20.35999519008635
 51
42.7186445082694
  0
ARC
  5
43A
330
6F
100
AcDbEntity
  8
LOUVER
  6
Continuous
100
AcDbCircle
 10
244.604199039915
 20
420.351408132776
 30
0.0
 40
0.2
100
AcDbArc
 50
8.957671580785854
 51
89.99999999982035
  0
ARC
  5
43B
330
6F
100
AcDbEntity
  8
LOUVER
  6
Continuous
100
AcDbCircle
 10
244.6041990399282
 20
419.7597300918931
 30
0.0
 40
0.2
100
AcDbArc
 50
269.9999999998204
 51
351.0423284217637
  0
ARC
  5
43C
330
6F
100
AcDbEntity
  8
LOUVER
  6
Continuous
100
AcDbCircle
 10
244.602422402521
 20
419.3597340374632
 30
0.0
 40
0.2
100
AcDbArc
 50
89.99999999982035
 51
159.6400048124608
  0
ARC
  5
43D
330
6F
100
AcDbEntity
  8
LOUVER
  6
Continuous
100
AcDbCircle
 10
244.6024224024901
 20
420.7514041872058
 30
0.0
 40
0.2
100
AcDbArc
 50
200.3599951900913
 51
269.9999999998203
  0
ARC
  5
43E
330
6F
100
AcDbEntity
  8
LOUVER
  6
Continuous
100
AcDbCircle
 10
244.5273721237359
 20
421.7176461259604
 30
0.0
 40
0.6500000000000014
100
AcDbArc
 50
42.71864450827042
 51
222.7186445082705
  0
ARC
  5
43F
330
6F
100
AcDbEntity
  8
LOUVER
  6
Continuous
100
AcDbCircle
 10
242.7273721235586
 20
420.055569112293
 30
0.0
 40
1.8
100
AcDbArc
 50
290.3599951900866
 51
339.6400048124626
  0
ARC
  5
440
330
6F
100
AcDbEntity
  8
LOUVER
  6
Continuous
100
AcDbCircle
 10
242.7273721235586
 20
420.055569112293
 30
0.0
 40
1.8
100
AcDbArc
 50
137.281355473095
 51
159.6400048124627
  0
ARC
  5
441
330
6F
100
AcDbEntity
  8
LOUVER
  6
Continuous
100
AcDbCircle
 10
242.7273721235586
 20
420.055569112293
 30
0.0
 40
1.8
100
AcDbArc
 50
200.3599951900864
 51
249.6400048124627
  0
ARC
  5
442
330
6F
100
AcDbEntity
  8
LOUVER
  6
Continuous
100
AcDbCircle
 10
240.927372123922
 20
421.7176461265458
 30
0.0
 40
0.6500000000000048
100
AcDbArc
 50
317.2813554730932
 51
137.2813554730932
  0
ARC
  5
443
330
6F
100
AcDbEntity
  8
LOUVER
  6
Continuous
100
AcDbCircle
 10
242.7273721235586
 20
420.055569112293
 30
0.0
 40
3.1
100
AcDbArc
 50
137.2813554730942
 51
201.1684488458317
  0
ARC
  5
444
330
6F
100
AcDbEntity
  8
LOUVER
  6
Continuous
100
AcDbCircle
 10
242.7273721235586
 20
420.055569112293
 30
0.0
 40
3.1
100
AcDbArc
 50
338.8315511541684
 51
42.71864450826988
  0
LINE
  5
445
330
6F
100
AcDbEntity
  8
LOUVER
  6
Continuous
100
AcDbLine
 10
244.6024224024893
 20
420.5514041872058
 30
0.0
 11
244.6041990399156
 21
420.551408132776
 31
0.0
  0
LINE
  5
446
330
6F
100
AcDbEntity
  8
LOUVER
  6
Continuous
100
AcDbLine
 10
244.6024224025218
 20
419.5597340374636
 30
0.0
 11
244.6041990399276
 21
419.5597300918936
 31
0.0
  0
ARC
  5
447
330
6F
100
AcDbEntity
  8
LOUVER
  6
Continuous
100
AcDbCircle
 10
243.0232111440417
 20
418.1787421959365
 30
0.0
 40
0.2
100
AcDbArc
 50
278.9576715807859
 51
359.9999999998204
  0
ARC
  5
448
330
6F
100
AcDbEntity
  8
LOUVER
  6
Continuous
100
AcDbCircle
 10
242.431533103159
 20
418.1787421959231
 30
0.0
 40
0.2
100
AcDbArc
 50
179.9999999998204
 51
261.0423284217637
  0
ARC
  5
449
330
6F
100
AcDbEntity
  8
LOUVER
  6
Continuous
100
AcDbCircle
 10
242.0315370487291
 20
418.1805188333304
 30
0.0
 40
0.2
100
AcDbArc
 50
359.9999999998204
 51
69.64000481246078
  0
ARC
  5
44A
330
6F
100
AcDbEntity
  8
LOUVER
  6
Continuous
100
AcDbCircle
 10
243.4232071984717
 20
418.1805188333613
 30
0.0
 40
0.2
100
AcDbArc
 50
110.3599951900914
 51
179.9999999998204
  0
LINE
  5
44B
330
6F
100
AcDbEntity
  8
LOUVER
  6
Continuous
100
AcDbLine
 10
243.2232071984712
 20
418.1805188333618
 30
0.0
 11
243.2232111440413
 21
418.1787421959358
 31
0.0
  0
LINE
  5
44C
330
6F
100
AcDbEntity
  8
LOUVER
  6
Continuous
100
AcDbLine
 10
242.2315370487289
 20
418.1805188333298
 30
0.0
 11
242.2315331031589
 21
418.1787421959241
 31
0.0
  0
ARC
  5
44D
330
6F
100
AcDbEntity
  8
LOUVER
  6
Continuous
100
AcDbCircle
 10
242.7273721235586
 20
420.055569112293
 30
0.0
 40
2.1
100
AcDbArc
 50
171.042328421765
 51
188.9576715807843
  0
ARC
  5
44E
330
6F
100
AcDbEntity
  8
LOUVER
  6
Continuous
100
AcDbCircle
 10
240.8505452072023
 20
419.7597300918095
 30
0.0
 40
0.2
100
AcDbArc
 50
188.9576715807859
 51
269.9999999998203
  0
ARC
  5
44F
330
6F
100
AcDbEntity
  8
LOUVER
  6
Continuous
100
AcDbCircle
 10
240.8505452071891
 20
420.3514081326927
 30
0.0
 40
0.2
100
AcDbArc
 50
89.99999999982035
 51
171.0423284217637
  0
ARC
  5
450
330
6F
100
AcDbEntity
  8
LOUVER
  6
Continuous
100
AcDbCircle
 10
240.8523218445963
 20
420.7514041871226
 30
0.0
 40
0.2
100
AcDbArc
 50
269.9999999998204
 51
339.6400048124608
  0
ARC
  5
451
330
6F
100
AcDbEntity
  8
LOUVER
  6
Continuous
100
AcDbCircle
 10
240.8523218446272
 20
419.3597340373798
 30
0.0
 40
0.2
100
AcDbArc
 50
20.35999519009133
 51
89.99999999982035
  0
LINE
  5
452
330
6F
100
AcDbEntity
  8
LOUVER
  6
Continuous
100
AcDbLine
 10
240.852321844628
 20
419.5597340373796
 30
0.0
 11
240.8505452072019
 21
419.5597300918096
 31
0.0
  0
LINE
  5
453
330
6F
100
AcDbEntity
  8
LOUVER
  6
Continuous
100
AcDbLine
 10
240.8523218445956
 20
420.5514041871229
 30
0.0
 11
240.8505452071898
 21
420.5514081326929
 31
0.0
  0
ARC
  5
454
330
6F
100
AcDbEntity
  8
LOUVER
  6
Continuous
100
AcDbCircle
 10
242.7273721235586
 20
420.0555691122928
 30
0.0
 40
2.1
100
AcDbArc
 50
261.0423284217649
 51
278.9576715807843
  0
POINT
  5
455
330
6F
100
AcDbEntity
  8
LOUVER
  6
Continuous
100
AcDbPoint
 10
242.7273721235586
 20
517.2555691122929
 30
0.0
  0
ARC
  5
456
330
6F
100
AcDbEntity
  8
LOUVER
  6
Continuous
100
AcDbCircle
 10
242.7273721235586
 20
517.2555691122929
 30
0.0
 40
2.1
100
AcDbArc
 50
351.0423284193774
 51
8.957671578396658
  0
ARC
  5
457
330
6F
100
AcDbEntity
  8
LOUVER
  6
Continuous
100
AcDbCircle
 10
242.7273721235586
 20
517.2555691122929
 30
0.0
 40
1.8
100
AcDbArc
 50
317.2813554918922
 51
339.6400048100753
  0
ARC
  5
458
330
6F
100
AcDbEntity
  8
LOUVER
  6
Continuous
100
AcDbCircle
 10
244.6041990399159
 20
516.9597300918153
 30
0.0
 40
0.2
100
AcDbArc
 50
270.0000000003413
 51
351.0423284193759
  0
ARC
  5
459
330
6F
100
AcDbEntity
  8
LOUVER
  6
Continuous
100
AcDbCircle
 10
244.6041990399274
 20
517.5514081326983
 30
0.0
 40
0.2
100
AcDbArc
 50
8.957671578397892
 51
90.00000000034114
  0
ARC
  5
45A
330
6F
100
AcDbEntity
  8
LOUVER
  6
Continuous
100
AcDbCircle
 10
244.6024224025191
 20
517.9514041871282
 30
0.0
 40
0.2
100
AcDbArc
 50
200.3599951877008
 51
270.0000000003413
  0
ARC
  5
45B
330
6F
100
AcDbEntity
  8
LOUVER
  6
Continuous
100
AcDbCircle
 10
244.6024224024921
 20
516.5597340373856
 30
0.0
 40
0.2
100
AcDbArc
 50
90.00000000034136
 51
159.6400048100703
  0
ARC
  5
45C
330
6F
100
AcDbEntity
  8
LOUVER
  6
Continuous
100
AcDbCircle
 10
244.5273721237407
 20
515.5934920986307
 30
0.0
 40
0.6500000000000014
100
AcDbArc
 50
137.2813554918912
 51
317.2813554918912
  0
ARC
  5
45D
330
6F
100
AcDbEntity
  8
LOUVER
  6
Continuous
100
AcDbCircle
 10
242.7273721235586
 20
517.2555691122929
 30
0.0
 40
1.8
100
AcDbArc
 50
20.359995187699
 51
69.64000481007504
  0
ARC
  5
45E
330
6F
100
AcDbEntity
  8
LOUVER
  6
Continuous
100
AcDbCircle
 10
242.7273721235586
 20
517.2555691122929
 30
0.0
 40
1.8
100
AcDbArc
 50
200.3599951876989
 51
222.7186445270667
  0
ARC
  5
45F
330
6F
100
AcDbEntity
  8
LOUVER
  6
Continuous
100
AcDbCircle
 10
242.7273721235586
 20
517.2555691122929
 30
0.0
 40
1.8
100
AcDbArc
 50
110.359995187699
 51
159.6400048100752
  0
ARC
  5
460
330
6F
100
AcDbEntity
  8
LOUVER
  6
Continuous
100
AcDbCircle
 10
240.9273721239268
 20
515.593492098035
 30
0.0
 40
0.6500000000000048
100
AcDbArc
 50
222.7186445270684
 51
42.71864452706842
  0
ARC
  5
461
330
6F
100
AcDbEntity
  8
LOUVER
  6
Continuous
100
AcDbCircle
 10
242.7273721235586
 20
517.2555691122929
 30
0.0
 40
3.1
100
AcDbArc
 50
163.059346070501
 51
222.7186445270675
  0
ARC
  5
462
330
6F
100
AcDbEntity
  8
LOUVER
  6
Continuous
100
AcDbCircle
 10
242.7273721235586
 20
517.2555691122929
 30
0.0
 40
3.1
100
AcDbArc
 50
317.2813554918917
 51
16.94065392951864
  0
LINE
  5
463
330
6F
100
AcDbEntity
  8
LOUVER
  6
Continuous
100
AcDbLine
 10
244.6024224024905
 20
516.7597340373853
 30
0.0
 11
244.6041990399169
 21
516.7597300918152
 31
0.0
  0
LINE
  5
464
330
6F
100
AcDbEntity
  8
LOUVER
  6
Continuous
100
AcDbLine
 10
244.6024224025203
 20
517.7514041871278
 30
0.0
 11
244.6041990399262
 21
517.751408132698
 31
0.0
  0
ARC
  5
465
330
6F
100
AcDbEntity
  8
LOUVER
  6
Continuous
100
AcDbCircle
 10
243.0232111440365
 20
519.1323960286503
 30
0.0
 40
0.2
100
AcDbArc
 50
0.000000000341159
 51
81.04232841937571
  0
ARC
  5
466
330
6F
100
AcDbEntity
  8
LOUVER
  6
Continuous
100
AcDbCircle
 10
242.4315331031538
 20
519.132396028662
 30
0.0
 40
0.2
100
AcDbArc
 50
98.95767157839792
 51
180.0000000003413
  0
ARC
  5
467
330
6F
100
AcDbEntity
  8
LOUVER
  6
Continuous
100
AcDbCircle
 10
242.0315370487238
 20
519.1306193912536
 30
0.0
 40
0.2
100
AcDbArc
 50
290.3599951877009
 51
0.0000000003411671
  0
ARC
  5
468
330
6F
100
AcDbEntity
  8
LOUVER
  6
Continuous
100
AcDbCircle
 10
243.4232071984664
 20
519.1306193912266
 30
0.0
 40
0.2
100
AcDbArc
 50
180.0000000003413
 51
249.6400048100703
  0
LINE
  5
469
330
6F
100
AcDbEntity
  8
LOUVER
  6
Continuous
100
AcDbLine
 10
243.2232071984659
 20
519.1306193912256
 30
0.0
 11
243.223211144036
 21
519.1323960286516
 31
0.0
  0
LINE
  5
46A
330
6F
100
AcDbEntity
  8
LOUVER
  6
Continuous
100
AcDbLine
 10
242.2315370487236
 20
519.1306193912549
 30
0.0
 11
242.2315331031535
 21
519.1323960286609
 31
0.0
  0
ARC
  5
46B
330
6F
100
AcDbEntity
  8
LOUVER
  6
Continuous
100
AcDbCircle
 10
242.7273721235586
 20
517.2555691122929
 30
0.0
 40
2.1
100
AcDbArc
 50
171.0423284193774
 51
188.9576715783966
  0
ARC
  5
46C
330
6F
100
AcDbEntity
  8
LOUVER
  6
Continuous
100
AcDbCircle
 10
240.8505452072015
 20
517.551408132771
 30
0.0
 40
0.2
100
AcDbArc
 50
90.00000000034136
 51
171.0423284193756
  0
ARC
  5
46D
330
6F
100
AcDbEntity
  8
LOUVER
  6
Continuous
100
AcDbCircle
 10
240.85054520719
 20
516.9597300918881
 30
0.0
 40
0.2
100
AcDbArc
 50
188.9576715783979
 51
270.0000000003413
  0
ARC
  5
46E
330
6F
100
AcDbEntity
  8
LOUVER
  6
Continuous
100
AcDbCircle
 10
240.8523218445983
 20
516.5597340374583
 30
0.0
 40
0.2
100
AcDbArc
 50
20.35999518770083
 51
90.00000000034114
  0
ARC
  5
46F
330
6F
100
AcDbEntity
  8
LOUVER
  6
Continuous
100
AcDbCircle
 10
240.8523218446253
 20
517.9514041872009
 30
0.0
 40
0.2
100
AcDbArc
 50
270.0000000003413
 51
339.6400048100703
  0
LINE
  5
470
330
6F
100
AcDbEntity
  8
LOUVER
  6
Continuous
100
AcDbLine
 10
240.8523218446265
 20
517.7514041872008
 30
0.0
 11
240.8505452072004
 21
517.7514081327708
 31
0.0
  0
LINE
  5
471
330
6F
100
AcDbEntity
  8
LOUVER
  6
Continuous
100
AcDbLine
 10
240.8523218445969
 20
516.7597340374583
 30
0.0
 11
240.850545207191
 21
516.7597300918883
 31
0.0
  0
ARC
  5
472
330
6F
100
AcDbEntity
  8
LOUVER
  6
Continuous
100
AcDbCircle
 10
242.7273721235586
 20
517.2555691122933
 30
0.0
 40
2.1
100
AcDbArc
 50
81.04232841937735
 51
98.95767157839678
  0
ARC
  5
473
330
6F
100
AcDbEntity
  8
LOUVER
  6
Continuous
100
AcDbCircle
 10
246.1711576005904
 20
518.3045407936007
 30
0.0
 40
0.5
100
AcDbArc
 50
93.92518067041988
 51
196.9406539295183
  0
ARC
  5
474
330
6F
100
AcDbEntity
  8
LOUVER
  6
Continuous
100
AcDbCircle
 10
239.2835866465266
 20
518.3045407935995
 30
0.0
 40
0.5
100
AcDbArc
 50
343.0593460705006
 51
86.07481932966164
  0
ARC
  5
475
330
6F
100
AcDbEntity
  8
LOUVER
  6
Continuous
100
AcDbCircle
 10
239.3702900572397
 20
418.7555691122931
 30
0.0
 40
0.5
100
AcDbArc
 50
270.0
 51
21.16844884583121
  0
ARC
  5
476
330
6F
100
AcDbEntity
  8
LOUVER
  6
Continuous
100
AcDbCircle
 10
246.0844541898776
 20
418.7555691122931
 30
0.0
 40
0.5
100
AcDbArc
 50
158.8315511541688
 51
270.0
  0
ARC
  5
477
330
6F
100
AcDbEntity
  8
LOUVER
  6
Continuous
100
AcDbCircle
 10
260.3273721235595
 20
415.755569112293
 30
0.0
 40
1.0
100
AcDbArc
 50
0.0
 51
90.0
  0
ARC
  5
478
330
6F
100
AcDbEntity
  8
LOUVER
  6
Continuous
100
AcDbCircle
 10
225.1273721235586
 20
415.7555691122929
 30
0.0
 40
1.0
100
AcDbArc
 50
90.0
 51
180.0
  0
ARC
  5
479
330
6F
100
AcDbEntity
  8
LOUVER
  6
Continuous
100
AcDbCircle
 10
227.4273721235588
 20
386.3555691122948
 30
0.0
 40
0.6000000000000512
100
AcDbArc
 50
270.0
 51
90.0
  0
ARC
  5
47A
330
6F
100
AcDbEntity
  8
LOUVER
  6
Continuous
100
AcDbCircle
 10
258.0273721235593
 20
386.3555691122953
 30
0.0
 40
0.5999999999999659
100
AcDbArc
 50
90.0
 51
270.0
  0
LINE
  5
47B
330
6F
100
AcDbEntity
  8
LOUVER
  6
Continuous
100
AcDbLine
 10
225.4399442488664
 20
380.1864291971181
 30
0.0
 11
224.5273721235032
 21
376.755569111981
 31
0.0
  0
ARC
  5
47C
330
6F
100
AcDbEntity
  8
LOUVER
  6
Continuous
100
AcDbCircle
 10
225.1480201626181
 20
380.2555691122768
 30
0.0
 40
0.3
100
AcDbArc
 50
346.6754687391201
 51
90.0
  0
LINE
  5
47D
330
6F
100
AcDbEntity
  8
LOUVER
  6
Continuous
100
AcDbLine
 10
260.014799998251
 20
380.1864291971414
 30
0.0
 11
260.9273721236149
 21
376.7555691119811
 31
0.0
  0
ARC
  5
47E
330
6F
100
AcDbEntity
  8
LOUVER
  6
Continuous
100
AcDbCircle
 10
260.3067240844994
 20
380.2555691122993
 30
0.0
 40
0.3
100
AcDbArc
 50
90.0
 51
193.3245312608023
  0
LINE
  5
4E8
330
6F
100
AcDbEntity
  8
COMMENT
  6
Continuous
100
AcDbLine
 10
242.7273721234328
 20
378.1555691123023
 30
0.0
 11
278.5878708238574
 21
404.3861132526423
 31
0.0
  0
LINE
  5
4E9
330
6F
100
AcDbEntity
  8
COMMENT
  6
Continuous
100
AcDbLine
 10
243.9873942923439
 20
379.8206048964411
 30
0.0
 11
242.7273721234328
 21
378.1555691123021
 31
0.0
  0
LINE
  5
4EA
330
6F
100
AcDbEntity
  8
COMMENT
  6
Continuous
100
AcDbLine
 10
242.7273721234328
 20
378.1555691123021
 30
0.0
 11
244.6958507113208
 21
378.8520546309146
 31
0.0
  0
LINE
  5
4EB
330
6F
100
AcDbEntity
  8
COMMENT
  6
Continuous
100
AcDbLine
 10
278.5878708238574
 20
404.3861132526421
 30
0.0
 11
331.8778694648715
 21
404.3861132526421
 31
0.0
  0
TEXT
  5
4EC
330
6F
100
AcDbEntity
  8
COMMENT
  6
Continuous
100
AcDbText
 10
281.0778708238574
 20
404.8861132526422
 30
0.0
 40
4.0
  1
アンカープラグ%%c8×40
  7
KNJYOKO
100
AcDbText
  0
TEXT
  5
4ED
330
6F
100
AcDbEntity
  8
COMMENT
  6
Continuous
100
AcDbText
 10
281.0778708238574
 20
399.8861132526422
 30
0.0
 40
4.0
  1
AP-840-D30-50
100
AcDbText
  0
LINE
  5
517
330
6F
100
AcDbEntity
  8
COMMENT
  6
Continuous
100
AcDbLine
 10
242.7273721234328
 20
114.2364496094663
 30
0.0
 11
278.506064082376
 21
141.9047600537177
 31
0.0
  0
LINE
  5
518
330
6F
100
AcDbEntity
  8
COMMENT
  6
Continuous
100
AcDbLine
 10
243.9424456692432
 20
115.9345651258202
 30
0.0
 11
242.7273721234327
 21
114.2364496094663
 31
0.0
  0
LINE
  5
519
330
6F
100
AcDbEntity
  8
COMMENT
  6
Continuous
100
AcDbLine
 10
242.7273721234328
 20
114.2364496094663
 30
0.0
 11
244.6765338246747
 21
114.9852945139839
 31
0.0
  0
LINE
  5
51A
330
6F
100
AcDbEntity
  8
COMMENT
  6
Continuous
100
AcDbLine
 10
278.5060640823759
 20
141.9047600537176
 30
0.0
 11
345.2960623657622
 21
141.9047600537176
 31
0.0
  0
TEXT
  5
51B
330
6F
100
AcDbEntity
  8
COMMENT
  6
Continuous
100
AcDbText
 10
280.9960640823759
 20
142.4047600537176
 30
0.0
 40
4.0
  1
シンワッシャー頭ドリルねじ4×40
  7
KNJYOKO
100
AcDbText
  0
TEXT
  5
51C
330
6F
100
AcDbEntity
  8
COMMENT
  6
Continuous
100
AcDbText
 10
280.9960640823759
 20
137.4047600537176
 30
0.0
 40
4.0
  1
TBS-440-D30-50
100
AcDbText
  0
LINE
  5
51D
330
6F
100
AcDbEntity
  8
COMMENT
  6
Continuous
100
AcDbLine
 10
252.0473447868658
 20
111.836449609626
 30
0.0
 11
281.3142591275702
 21
127.2457448603108
 31
0.0
  0
LINE
  5
51E
330
6F
100
AcDbEntity
  8
COMMENT
  6
Continuous
100
AcDbLine
 10
253.53751203793
 20
113.2991189476742
 30
0.0
 11
252.0473447868658
 21
111.836449609626
 31
0.0
  0
LINE
  5
51F
330
6F
100
AcDbEntity
  8
COMMENT
  6
Continuous
100
AcDbLine
 10
252.0473447868658
 20
111.836449609626
 30
0.0
 11
254.0965684665487
 21
112.2373016262573
 31
0.0
  0
LINE
  5
520
330
6F
100
AcDbEntity
  8
COMMENT
  6
Continuous
100
AcDbLine
 10
281.3142591275703
 20
127.2457448603108
 30
0.0
 11
319.304258173896
 21
127.2457448603108
 31
0.0
  0
TEXT
  5
521
330
6F
100
AcDbEntity
  8
COMMENT
  6
Continuous
100
AcDbText
 10
283.8042591275701
 20
127.7457448603108
 30
0.0
 40
4.0
  1
平座金　
  7
KNJYOKO
100
AcDbText
  0
TEXT
  5
522
330
6F
100
AcDbEntity
  8
COMMENT
  6
Continuous
100
AcDbText
 10
283.8042591275701
 20
122.7457448603108
 30
0.0
 40
4.0
  1
D30mm t2mm
100
AcDbText
  0
LINE
  5
523
330
6F
100
AcDbEntity
  8
COMMENT
  6
Continuous
100
AcDbLine
 10
223.1611924527675
 20
108.3364496096257
 30
0.0
 11
209.7929092491387
 21
86.15531056918241
 31
0.0
  0
LINE
  5
524
330
6F
100
AcDbEntity
  8
COMMENT
  6
Continuous
100
AcDbLine
 10
222.642704261856
 20
106.3137855187556
 30
0.0
 11
223.1611924527676
 21
108.3364496096257
 31
0.0
  0
LINE
  5
525
330
6F
100
AcDbEntity
  8
COMMENT
  6
Continuous
100
AcDbLine
 10
223.1611924527676
 20
108.3364496096257
 30
0.0
 11
221.6149330567057
 21
106.9332098194614
 31
0.0
  0
LINE
  5
526
330
6F
100
AcDbEntity
  8
COMMENT
  6
Continuous
100
AcDbLine
 10
209.7929092491388
 20
86.15531056918243
 30
0.0
 11
194.3029096067665
 21
86.15531056918243
 31
0.0
  0
TEXT
  5
527
330
6F
100
AcDbEntity
  8
COMMENT
  6
Continuous
100
AcDbText
 10
194.3029096067665
 20
86.65531056918243
 30
0.0
 40
4.0
  1
受け材
  7
KNJYOKO
100
AcDbText
  0
LINE
  5
528
330
6F
100
AcDbEntity
  8
COMMENT
  6
Continuous
100
AcDbLine
 10
227.7273721234328
 20
61.91834033546451
 30
0.0
 11
202.2584974083889
 21
47.00235121935928
 31
0.0
  0
LINE
  5
529
330
6F
100
AcDbEntity
  8
COMMENT
  6
Continuous
100
AcDbLine
 10
226.3047804902857
 20
60.38986623561525
 30
0.0
 11
227.7273721234328
 21
61.91834033546452
 31
0.0
  0
LINE
  5
52A
330
6F
100
AcDbEntity
  8
COMMENT
  6
Continuous
100
AcDbLine
 10
227.7273721234328
 20
61.9183403354645
 30
0.0
 11
225.6983419786372
 21
61.42535281014454
 31
0.0
  0
LINE
  5
52B
330
6F
100
AcDbEntity
  8
COMMENT
  6
Continuous
100
AcDbLine
 10
202.2584974083888
 20
47.00235121935928
 30
0.0
 11
167.0574965343463
 21
47.00235121935928
 31
0.0
  0
TEXT
  5
52C
330
6F
100
AcDbEntity
  8
COMMENT
  6
Continuous
100
AcDbText
 10
167.0574965343463
 20
47.50235121935928
 30
0.0
 40
3.099999904632568
  1
St t=1.6mm以上
  7
KNJYOKO
100
AcDbText
  0
LINE
  5
534
330
6F
100
AcDbEntity
  8
COMMENT
  6
Continuous
100
AcDbLine
 10
220.2273721229401
 20
118.8346478573686
 30
0.0
 11
187.0806277970085
 21
134.9000139886572
 31
0.0
  0
LINE
  5
535
330
6F
100
AcDbEntity
  8
COMMENT
  6
Continuous
100
AcDbLine
 10
218.1659328233639
 20
119.1670151884539
 30
0.0
 11
220.2273721229401
 21
118.8346478573686
 31
0.0
  0
LINE
  5
536
330
6F
100
AcDbEntity
  8
COMMENT
  6
Continuous
100
AcDbLine
 10
220.2273721229401
 20
118.8346478573686
 30
0.0
 11
218.6893085171664
 21
120.2468661029683
 31
0.0
  0
LINE
  5
537
330
6F
100
AcDbEntity
  8
COMMENT
  6
Continuous
100
AcDbLine
 10
187.0806277970085
 20
134.9000139886572
 30
0.0
 11
129.2906292752036
 21
134.9000139886572
 31
0.0
  0
TEXT
  5
538
330
6F
100
AcDbEntity
  8
COMMENT
  6
Continuous
100
AcDbText
 10
129.2906292752036
 20
135.4000139886572
 30
0.0
 40
4.0
  1
脱落防止ねじ(両端2ヶ所)
  7
KNJYOKO
100
AcDbText
  0
TEXT
  5
539
330
6F
100
AcDbEntity
  8
COMMENT
  6
Continuous
100
AcDbText
 10
129.2906292752036
 20
130.4000139886572
 30
0.0
 40
4.0
  1
トラス頭ドリルねじ4×13
  7
KNJYOKO
100
AcDbText
  0
TEXT
  5
53A
330
6F
100
AcDbEntity
  8
COMMENT
  6
Continuous
100
AcDbText
 10
129.2906292752036
 20
125.4000139886572
 30
0.0
 40
4.0
  1
TBT-413-100
100
AcDbText
  0
LINE
  5
53B
330
6F
100
AcDbEntity
  8
COMMENT
  6
Continuous
100
AcDbLine
 10
220.2273721221127
 20
381.2537673600441
 30
0.0
 11
187.0806277961811
 21
397.3191334913327
 31
0.0
  0
LINE
  5
53C
330
6F
100
AcDbEntity
  8
COMMENT
  6
Continuous
100
AcDbLine
 10
218.1659328225365
 20
381.5861346911294
 30
0.0
 11
220.2273721221127
 21
381.2537673600441
 31
0.0
  0
LINE
  5
53D
330
6F
100
AcDbEntity
  8
COMMENT
  6
Continuous
100
AcDbLine
 10
220.2273721221129
 20
381.2537673600443
 30
0.0
 11
218.6893085163392
 21
382.6659856056439
 31
0.0
  0
LINE
  5
53E
330
6F
100
AcDbEntity
  8
COMMENT
  6
Continuous
100
AcDbLine
 10
187.0806277961811
 20
397.3191334913327
 30
0.0
 11
129.2906292743762
 21
397.3191334913327
 31
0.0
  0
TEXT
  5
53F
330
6F
100
AcDbEntity
  8
COMMENT
  6
Continuous
100
AcDbText
 10
129.2906292743762
 20
397.8191334913327
 30
0.0
 40
4.0
  1
脱落防止ねじ(両端2ヶ所)
  7
KNJYOKO
100
AcDbText
  0
TEXT
  5
540
330
6F
100
AcDbEntity
  8
COMMENT
  6
Continuous
100
AcDbText
 10
129.2906292743762
 20
392.8191334913327
 30
0.0
 40
4.0
  1
トラス頭ドリルねじ4×13
  7
KNJYOKO
100
AcDbText
  0
TEXT
  5
541
330
6F
100
AcDbEntity
  8
COMMENT
  6
Continuous
100
AcDbText
 10
129.2906292743762
 20
387.8191334913327
 30
0.0
 40
4.0
  1
TBT-413-100
100
AcDbText
  0
LINE
  5
54E
330
6F
100
AcDbEntity
  8
COMMENT
  6
Continuous
100
AcDbLine
 10
262.727372123957
 20
183.336449609626
 30
0.0
 11
275.2352044661316
 21
190.392355329817
 31
0.0
  0
LINE
  5
54F
330
6F
100
AcDbEntity
  8
COMMENT
  6
Continuous
100
AcDbLine
 10
264.1745175818463
 20
184.8416971149624
 30
0.0
 11
262.7273721239571
 21
183.336449609626
 31
0.0
  0
LINE
  5
550
330
6F
100
AcDbEntity
  8
COMMENT
  6
Continuous
100
AcDbLine
 10
262.727372123957
 20
183.336449609626
 30
0.0
 11
264.7641160513425
 21
183.7965302578488
 31
0.0
  0
LINE
  5
551
330
6F
100
AcDbEntity
  8
COMMENT
  6
Continuous
100
AcDbLine
 10
275.2352044661316
 20
190.392355329817
 30
0.0
 11
309.6252036078247
 21
190.392355329817
 31
0.0
  0
TEXT
  5
552
330
6F
100
AcDbEntity
  8
COMMENT
  6
Continuous
100
AcDbText
 10
277.7252044661316
 20
190.892355329817
 30
0.0
 40
4.0
  1
アルミルーバー
  7
KNJYOKO
100
AcDbText
  0
TEXT
  5
553
330
6F
100
AcDbEntity
  8
COMMENT
  6
Continuous
100
AcDbText
 10
277.7252044661316
 20
185.892355329817
 30
0.0
 40
4.0
  1
CLKS-4015
100
AcDbText
  0
LINE
  5
554
330
6F
100
AcDbEntity
  8
COMMENT
  6
Continuous
100
AcDbLine
 10
262.727372122839
 20
448.0642293003461
 30
0.0
 11
275.2352044650135
 21
455.1201350205373
 31
0.0
  0
LINE
  5
555
330
6F
100
AcDbEntity
  8
COMMENT
  6
Continuous
100
AcDbLine
 10
264.1745175807283
 20
449.5694768056826
 30
0.0
 11
262.7273721228391
 21
448.0642293003465
 31
0.0
  0
LINE
  5
556
330
6F
100
AcDbEntity
  8
COMMENT
  6
Continuous
100
AcDbLine
 10
262.7273721228391
 20
448.0642293003462
 30
0.0
 11
264.7641160502244
 21
448.5243099485691
 31
0.0
  0
LINE
  5
557
330
6F
100
AcDbEntity
  8
COMMENT
  6
Continuous
100
AcDbLine
 10
275.2352044650136
 20
455.1201350205373
 30
0.0
 11
309.6252036067067
 21
455.1201350205373
 31
0.0
  0
TEXT
  5
558
330
6F
100
AcDbEntity
  8
COMMENT
  6
Continuous
100
AcDbText
 10
277.7252044650136
 20
455.6201350205373
 30
0.0
 40
4.0
  1
アルミルーバー
  7
KNJYOKO
100
AcDbText
  0
TEXT
  5
559
330
6F
100
AcDbEntity
  8
COMMENT
  6
Continuous
100
AcDbText
 10
277.7252044650136
 20
450.6201350205373
 30
0.0
 40
4.0
  1
CLKS-4015
100
AcDbText
  0
LINE
  5
55A
330
6F
100
AcDbEntity
  8
COMMENT
  6
Continuous
100
AcDbLine
 10
233.1611924527679
 20
370.7555691123014
 30
0.0
 11
216.9595183337613
 21
354.8595286624496
 31
0.0
  0
LINE
  5
55B
330
6F
100
AcDbEntity
  8
COMMENT
  6
Continuous
100
AcDbLine
 10
232.1537827047388
 20
368.9266006521617
 30
0.0
 11
233.1611924527679
 21
370.7555691123014
 31
0.0
  0
LINE
  5
55C
330
6F
100
AcDbEntity
  8
COMMENT
  6
Continuous
100
AcDbLine
 10
233.1611924527679
 20
370.7555691123014
 30
0.0
 11
231.3133722968282
 21
369.7831696573893
 31
0.0
  0
LINE
  5
55D
330
6F
100
AcDbEntity
  8
COMMENT
  6
Continuous
100
AcDbLine
 10
216.9595183337613
 20
354.8595286624496
 30
0.0
 11
201.4695186913892
 21
354.8595286624496
 31
0.0
  0
TEXT
  5
55E
330
6F
100
AcDbEntity
  8
COMMENT
  6
Continuous
100
AcDbText
 10
201.4695186913892
 20
355.3595286624496
 30
0.0
 40
4.0
  1
受け材
  7
KNJYOKO
100
AcDbText
  0
LINE
  5
55F
330
6F
100
AcDbEntity
  8
COMMENT
  6
Continuous
100
AcDbLine
 10
252.0473447868658
 20
374.2555691123016
 30
0.0
 11
278.3819580462563
 21
389.6648643629863
 31
0.0
  0
LINE
  5
560
330
6F
100
AcDbEntity
  8
COMMENT
  6
Continuous
100
AcDbLine
 10
253.4705293237201
 20
375.7834911661608
 30
0.0
 11
252.0473447868659
 21
374.2555691123017
 31
0.0
  0
LINE
  5
561
330
6F
100
AcDbEntity
  8
COMMENT
  6
Continuous
100
AcDbLine
 10
252.0473447868658
 20
374.2555691123016
 30
0.0
 11
254.0765660461207
 21
374.7477693861721
 31
0.0
  0
LINE
  5
562
330
6F
100
AcDbEntity
  8
COMMENT
  6
Continuous
100
AcDbLine
 10
278.3819580462563
 20
389.6648643629863
 30
0.0
 11
316.371957092582
 21
389.6648643629863
 31
0.0
  0
TEXT
  5
563
330
6F
100
AcDbEntity
  8
COMMENT
  6
Continuous
100
AcDbText
 10
280.8719580462563
 20
390.1648643629863
 30
0.0
 40
4.0
  1
平座金　
  7
KNJYOKO
100
AcDbText
  0
TEXT
  5
564
330
6F
100
AcDbEntity
  8
COMMENT
  6
Continuous
100
AcDbText
 10
280.8719580462563
 20
385.1648643629864
 30
0.0
 40
4.0
  1
D30mm t2mm
100
AcDbText
  0
TEXT
  5
646
330
6F
100
AcDbEntity
  8
COMMENT
  6
Continuous
100
AcDbText
 10
573.7669023022212
 20
421.1810045292476
 30
0.0
 40
6.0
  1
ALC取付不可
  7
KNJYOKO
100
AcDbText
  0
LINE
  5
647
330
6F
100
AcDbEntity
  8
COMMENT
  6
Continuous
100
AcDbLine
 10
570.0
 20
415.5773611435327
 30
0.0
 11
619.7078426458999
 21
415.5773611435327
 31
0.0
  0
LINE
  5
648
330
6F
100
AcDbEntity
  8
COMMENT
  6
Continuous
100
AcDbLine
 10
619.7078426458999
 20
415.5773611435327
 30
0.0
 11
619.7078426458999
 21
431.9369434869023
 31
0.0
  0
LINE
  5
649
330
6F
100
AcDbEntity
  8
COMMENT
  6
Continuous
100
AcDbLine
 10
619.7078426458999
 20
431.9369434869023
 30
0.0
 11
570.0
 21
431.9369434869023
 31
0.0
  0
LINE
  5
64A
330
6F
100
AcDbEntity
  8
COMMENT
  6
Continuous
100
AcDbLine
 10
570.0
 20
431.9369434869023
 30
0.0
 11
570.0
 21
415.5773611435327
 31
0.0
  0
TEXT
  5
64B
330
6F
100
AcDbEntity
  8
COMMENT
  6
Continuous
100
AcDbText
 10
573.7669023022212
 20
152.603643385715
 30
0.0
 40
6.0
  1
ECP取付不可
  7
KNJYOKO
100
AcDbText
  0
LINE
  5
64C
330
6F
100
AcDbEntity
  8
COMMENT
  6
Continuous
100
AcDbLine
 10
570.0
 20
147.0
 30
0.0
 11
619.7078426458999
 21
147.0
 31
0.0
  0
LINE
  5
64D
330
6F
100
AcDbEntity
  8
COMMENT
  6
Continuous
100
AcDbLine
 10
619.7078426458999
 20
147.0
 30
0.0
 11
619.7078426458999
 21
163.3595823433696
 31
0.0
  0
LINE
  5
64E
330
6F
100
AcDbEntity
  8
COMMENT
  6
Continuous
100
AcDbLine
 10
619.7078426458999
 20
163.3595823433696
 30
0.0
 11
570.0
 21
163.3595823433696
 31
0.0
  0
LINE
  5
64F
330
6F
100
AcDbEntity
  8
COMMENT
  6
Continuous
100
AcDbLine
 10
570.0
 20
163.3595823433696
 30
0.0
 11
570.0
 21
147.0
 31
0.0
  0
ENDSEC
  0
SECTION
  2
OBJECTS
  0
DICTIONARY
  5
C
330
0
100
AcDbDictionary
281
     1
  3
ACAD_CIP_PREVIOUS_PRODUCT_INFO
350
5D0
  3
ACAD_COLOR
350
62
  3
ACAD_DETAILVIEWSTYLE
350
69
  3
ACAD_GROUP
350
D
  3
ACAD_LAYOUT
350
61
  3
ACAD_MATERIAL
350
10
  3
ACAD_MLEADERSTYLE
350
65
  3
ACAD_MLINESTYLE
350
5E
  3
ACAD_PLOTSETTINGS
350
60
  3
ACAD_PLOTSTYLENAME
350
E
  3
ACAD_SCALELIST
350
42
  3
ACAD_SECTIONVIEWSTYLE
350
67
  3
ACAD_TABLESTYLE
350
63
  3
ACAD_VISUALSTYLE
350
29
  3
ACDB_RECOMPOSE_DATA
350
656
  3
AcDbVariableDictionary
350
5E3
  0
DICTIONARY
  5
5D3
330
54
100
AcDbDictionary
280
     1
281
     1
  3
ADSK_XREC_LAYER_RECONCILED
360
5D4
  0
DICTIONARY
  5
5D5
330
76
100
AcDbDictionary
280
     1
281
     1
  3
ADSK_XREC_LAYER_RECONCILED
360
5D6
  0
DICTIONARY
  5
5D7
330
77
100
AcDbDictionary
280
     1
281
     1
  3
ADSK_XREC_LAYER_RECONCILED
360
5D8
  0
DICTIONARY
  5
5D9
330
78
100
AcDbDictionary
280
     1
281
     1
  3
ADSK_XREC_LAYER_RECONCILED
360
5DA
  0
DICTIONARY
  5
5DB
330
79
100
AcDbDictionary
280
     1
281
     1
  3
ADSK_XREC_LAYER_RECONCILED
360
5DC
  0
DICTIONARY
  5
5DD
330
7A
100
AcDbDictionary
280
     1
281
     1
  3
ADSK_XREC_LAYER_RECONCILED
360
5DE
  0
DICTIONARY
  5
5DF
330
7B
100
AcDbDictionary
280
     1
281
     1
  3
ADSK_XREC_LAYER_RECONCILED
360
5E0
  0
DICTIONARY
  5
5E1
330
7C
100
AcDbDictionary
280
     1
281
     1
  3
ADSK_XREC_LAYER_RECONCILED
360
5E2
  0
XRECORD
  5
5D0
102
{ACAD_REACTORS
330
C
102
}
330
C
100
AcDbXrecord
280
     1
300
ACD
300
2022
300

  0
DICTIONARY
  5
62
102
{ACAD_REACTORS
330
C
102
}
330
C
100
AcDbDictionary
281
     1
  0
DICTIONARY
  5
69
102
{ACAD_REACTORS
330
C
102
}
330
C
100
AcDbDictionary
281
     1
  3
Imperial24
350
6A
  3
Metric50
350
5CE
  0
DICTIONARY
  5
D
102
{ACAD_REACTORS
330
C
102
}
330
C
100
AcDbDictionary
281
     1
  0
DICTIONARY
  5
61
102
{ACAD_REACTORS
330
C
102
}
330
C
100
AcDbDictionary
281
     1
  3
Model
350
72
  3
レイアウト1
350
6E
  0
DICTIONARY
  5
10
102
{ACAD_REACTORS
330
C
102
}
330
C
100
AcDbDictionary
281
     1
  3
ByBlock
350
19
  3
ByLayer
350
11
  3
Global
350
21
  0
DICTIONARY
  5
65
102
{ACAD_REACTORS
330
C
102
}
330
C
100
AcDbDictionary
281
     1
  3
Standard
350
66
  0
DICTIONARY
  5
5E
102
{ACAD_REACTORS
330
C
102
}
330
C
100
AcDbDictionary
281
     1
  3
Standard
350
5F
  0
DICTIONARY
  5
60
102
{ACAD_REACTORS
330
C
102
}
330
C
100
AcDbDictionary
281
     1
  0
ACDBDICTIONARYWDFLT
  5
E
102
{ACAD_REACTORS
330
C
102
}
330
C
100
AcDbDictionary
281
     1
  3
Normal
350
F
100
AcDbDictionaryWithDefault
340
F
  0
DICTIONARY
  5
42
102
{ACAD_REACTORS
330
C
102
}
330
C
100
AcDbDictionary
281
     1
  3
A0
350
43
  3
A1
350
44
  3
A2
350
45
  3
A3
350
46
  3
A4
350
47
  3
A5
350
48
  3
A6
350
49
  3
A7
350
4A
  3
A8
350
4B
  3
A9
350
4C
  3
B0
350
4D
  3
B1
350
4E
  3
B2
350
4F
  3
B3
350
50
  3
B4
350
51
  3
B5
350
52
  3
B6
350
53
  0
DICTIONARY
  5
67
102
{ACAD_REACTORS
330
C
102
}
330
C
100
AcDbDictionary
281
     1
  3
Imperial24
350
68
  3
Metric50
350
5CD
  0
DICTIONARY
  5
63
102
{ACAD_REACTORS
330
C
102
}
330
C
100
AcDbDictionary
281
     1
  3
Standard
350
64
  0
DICTIONARY
  5
29
102
{ACAD_REACTORS
330
C
102
}
330
C
100
AcDbDictionary
281
     1
  3
2dWireframe
350
2F
  3
Basic
350
2E
  3
Brighten
350
35
  3
ColorChange
350
39
  3
Conceptual
350
32
  3
Dim
350
34
  3
EdgeColorOff
350
41
  3
Facepattern
350
38
  3
Flat
350
2A
  3
FlatWithEdges
350
2B
  3
Gouraud
350
2C
  3
GouraudWithEdges
350
2D
  3
Hidden
350
31
  3
JitterOff
350
3F
  3
Linepattern
350
37
  3
OverhangOff
350
40
  3
Realistic
350
33
  3
Shaded
350
3E
  3
Shaded with edges
350
3D
  3
Shades of Gray
350
3A
  3
Sketchy
350
3B
  3
Thicken
350
36
  3
Wireframe
350
30
  3
X-Ray
350
3C
  0
XRECORD
  5
656
102
{ACAD_REACTORS
330
C
102
}
330
C
100
AcDbXrecord
280
     1
 90
        1
330
64
  0
DICTIONARY
  5
5E3
102
{ACAD_REACTORS
330
C
102
}
330
C
100
AcDbDictionary
281
     1
  3
CANNOSCALE
350
5E8
  3
CMLEADERSTYLE
350
5E5
  3
CTABLESTYLE
350
5E4
  3
CVIEWDETAILSTYLE
350
5E6
  3
CVIEWSECTIONSTYLE
350
5E7
  3
DIMASSOC
350
5EB
  3
INDEXCTL
350
5EA
  3
LAYEREVAL
350
653
  3
LAYERNOTIFY
350
654
  3
LIGHTINGUNITS
350
652
  3
MSLTSCALE
350
651
  3
SORTENTS
350
5E9
  0
XRECORD
  5
5D4
102
{ACAD_REACTORS
330
5D3
102
}
330
5D3
100
AcDbXrecord
280
     1
290
     1
  0
XRECORD
  5
5D6
102
{ACAD_REACTORS
330
5D5
102
}
330
5D5
100
AcDbXrecord
280
     1
290
     1
  0
XRECORD
  5
5D8
102
{ACAD_REACTORS
330
5D7
102
}
330
5D7
100
AcDbXrecord
280
     1
290
     1
  0
XRECORD
  5
5DA
102
{ACAD_REACTORS
330
5D9
102
}
330
5D9
100
AcDbXrecord
280
     1
290
     1
  0
XRECORD
  5
5DC
102
{ACAD_REACTORS
330
5DB
102
}
330
5DB
100
AcDbXrecord
280
     1
290
     1
  0
XRECORD
  5
5DE
102
{ACAD_REACTORS
330
5DD
102
}
330
5DD
100
AcDbXrecord
280
     1
290
     1
  0
XRECORD
  5
5E0
102
{ACAD_REACTORS
330
5DF
102
}
330
5DF
100
AcDbXrecord
280
     1
290
     1
  0
XRECORD
  5
5E2
102
{ACAD_REACTORS
330
5E1
102
}
330
5E1
100
AcDbXrecord
280
     1
290
     1
  0
ACDBDETAILVIEWSTYLE
  5
6A
102
{ACAD_REACTORS
330
69
102
}
330
69
100
AcDbModelDocViewStyle
 70
     0
  3
Imperial24
290
     0
300
Imperial24
 90
        0
100
AcDbDetailViewStyle
 70
     0
 71
     0
 90
        3
 71
     1
340
55
 62
   256
 40
0.24
340
0
 62
   256
 40
0.24
300

 40
0.36
280
     3
 71
     2
340
5C
 90
       25
 62
   256
 71
     3
340
55
 62
   256
 40
0.24
 90
        1
 40
0.75
 90
        1
300
%<\AcVar ViewType \f "%tc1">% %<\AcVar ViewDetailId>%\PSCALE %<\AcVar ViewScale \f "%sn">%
 71
     4
340
5C
 90
       25
 62
   256
340
5C
 90
       25
 62
   256
280
     0
  0
ACDBDETAILVIEWSTYLE
  5
5CE
102
{ACAD_REACTORS
330
69
102
}
330
69
100
AcDbModelDocViewStyle
 70
     0
  3
Metric50
290
     0
300
Metric50
 90
        0
100
AcDbDetailViewStyle
 70
     0
 71
     0
 90
        3
 71
     1
340
55
 62
   256
 40
5.0
340
0
 62
   256
 40
5.0
300

 40
0.0
280
     1
 71
     2
340
5C
 90
       25
 62
   256
 71
     3
340
55
 62
   256
 40
5.0
 90
        0
 40
15.0
 90
        1
300
%<\AcVar ViewDetailId>% (%<\AcVar ViewScale \f "%sn">%)
 71
     4
340
5C
 90
       25
 62
   256
340
5C
 90
       25
 62
   256
280
     0
  0
LAYOUT
  5
72
102
{ACAD_REACTORS
330
61
102
}
330
61
100
AcDbPlotSettings
  1

  2
OKI B821
  4

  6

 40
0.0
 41
0.0
 42
0.0
 43
0.0
 44
0.0
 45
0.0
 46
0.0
 47
0.0
 48
0.0
 49
0.0
140
0.0
141
0.0
142
1.0
143
1.0
 70
  1712
 72
     0
 73
     0
 74
     0
  7

 75
     0
147
1.0
 76
     0
 77
     2
 78
   300
148
0.0
149
0.0
100
AcDbLayout
  1
Model
 70
     1
 71
     0
 10
0.0
 20
0.0
 11
12.0
 21
9.0
 12
0.0
 22
0.0
 32
0.0
 14
0.0
 24
0.0
 34
0.0
 15
0.0
 25
0.0
 35
0.0
146
0.0
 13
0.0
 23
0.0
 33
0.0
 16
1.0
 26
0.0
 36
0.0
 17
0.0
 27
1.0
 37
0.0
 76
     0
330
6F
331
84
  0
LAYOUT
  5
6E
102
{ACAD_REACTORS
330
61
102
}
330
61
100
AcDbPlotSettings
  1

  2
OKI B821
  4

  6

 40
0.0
 41
0.0
 42
0.0
 43
0.0
 44
0.0
 45
0.0
 46
0.0
 47
0.0
 48
0.0
 49
0.0
140
0.0
141
0.0
142
1.0
143
1.0
 70
   688
 72
     0
 73
     0
 74
     5
  7

 75
    16
147
1.0
 76
     0
 77
     2
 78
   300
148
0.0
149
0.0
100
AcDbLayout
  1
レイアウト1
 70
     1
 71
     1
 10
0.0
 20
0.0
 11
12.0
 21
9.0
 12
0.0
 22
0.0
 32
0.0
 14
1.000000000000000E+20
 24
1.000000000000000E+20
 34
1.000000000000000E+20
 15
-1.000000000000000E+20
 25
-1.000000000000000E+20
 35
-1.000000000000000E+20
146
0.0
 13
0.0
 23
0.0
 33
0.0
 16
1.0
 26
0.0
 36
0.0
 17
0.0
 27
1.0
 37
0.0
 76
     0
330
6B
  0
MATERIAL
  5
19
102
{ACAD_XDICTIONARY
360
1A
102
}
102
{ACAD_REACTORS
330
10
102
}
330
10
100
AcDbMaterial
  1
ByBlock
 72
     0
 43
0.0208333333333333
 43
0.0
 43
0.0
 43
0.0
 43
0.0
 43
0.0208333333333333
 43
0.0
 43
0.0
 43
0.0
 43
0.0
 43
1.0
 43
0.0
 43
0.0
 43
0.0
 43
0.0
 43
1.0
 77
     0
 47
0.0208333333333333
 47
0.0
 47
0.0
 47
0.0
 47
0.0
 47
0.0208333333333333
 47
0.0
 47
0.0
 47
0.0
 47
0.0
 47
1.0
 47
0.0
 47
0.0
 47
0.0
 47
0.0
 47
1.0
171
     0
 49
0.0208333333333333
 49
0.0
 49
0.0
 49
0.0
 49
0.0
 49
0.0208333333333333
 49
0.0
 49
0.0
 49
0.0
 49
0.0
 49
1.0
 49
0.0
 49
0.0
 49
0.0
 49
0.0
 49
1.0
175
     0
142
0.0208333333333333
142
0.0
142
0.0
142
0.0
142
0.0
142
0.0208333333333333
142
0.0
142
0.0
142
0.0
142
0.0
142
1.0
142
0.0
142
0.0
142
0.0
142
0.0
142
1.0
179
     0
144
0.0208333333333333
144
0.0
144
0.0
144
0.0
144
0.0
144
0.0208333333333333
144
0.0
144
0.0
144
0.0
144
0.0
144
1.0
144
0.0
144
0.0
144
0.0
144
0.0
144
1.0
147
0.0208333333333333
147
0.0
147
0.0
147
0.0
147
0.0
147
0.0208333333333333
147
0.0
147
0.0
147
0.0
147
0.0
147
1.0
147
0.0
147
0.0
147
0.0
147
0.0
147
1.0
  0
MATERIAL
  5
11
102
{ACAD_XDICTIONARY
360
12
102
}
102
{ACAD_REACTORS
330
10
102
}
330
10
100
AcDbMaterial
  1
ByLayer
 72
     0
 43
0.0208333333333333
 43
0.0
 43
0.0
 43
0.0
 43
0.0
 43
0.0208333333333333
 43
0.0
 43
0.0
 43
0.0
 43
0.0
 43
1.0
 43
0.0
 43
0.0
 43
0.0
 43
0.0
 43
1.0
 77
     0
 47
0.0208333333333333
 47
0.0
 47
0.0
 47
0.0
 47
0.0
 47
0.0208333333333333
 47
0.0
 47
0.0
 47
0.0
 47
0.0
 47
1.0
 47
0.0
 47
0.0
 47
0.0
 47
0.0
 47
1.0
171
     0
 49
0.0208333333333333
 49
0.0
 49
0.0
 49
0.0
 49
0.0
 49
0.0208333333333333
 49
0.0
 49
0.0
 49
0.0
 49
0.0
 49
1.0
 49
0.0
 49
0.0
 49
0.0
 49
0.0
 49
1.0
175
     0
142
0.0208333333333333
142
0.0
142
0.0
142
0.0
142
0.0
142
0.0208333333333333
142
0.0
142
0.0
142
0.0
142
0.0
142
1.0
142
0.0
142
0.0
142
0.0
142
0.0
142
1.0
179
     0
144
0.0208333333333333
144
0.0
144
0.0
144
0.0
144
0.0
144
0.0208333333333333
144
0.0
144
0.0
144
0.0
144
0.0
144
1.0
144
0.0
144
0.0
144
0.0
144
0.0
144
1.0
147
0.0208333333333333
147
0.0
147
0.0
147
0.0
147
0.0
147
0.0208333333333333
147
0.0
147
0.0
147
0.0
147
0.0
147
1.0
147
0.0
147
0.0
147
0.0
147
0.0
147
1.0
  0
MATERIAL
  5
21
102
{ACAD_XDICTIONARY
360
22
102
}
102
{ACAD_REACTORS
330
10
102
}
330
10
100
AcDbMaterial
  1
Global
 72
     0
 43
0.0208333333333333
 43
0.0
 43
0.0
 43
0.0
 43
0.0
 43
0.0208333333333333
 43
0.0
 43
0.0
 43
0.0
 43
0.0
 43
1.0
 43
0.0
 43
0.0
 43
0.0
 43
0.0
 43
1.0
 77
     0
 47
0.0208333333333333
 47
0.0
 47
0.0
 47
0.0
 47
0.0
 47
0.0208333333333333
 47
0.0
 47
0.0
 47
0.0
 47
0.0
 47
1.0
 47
0.0
 47
0.0
 47
0.0
 47
0.0
 47
1.0
171
     0
 49
0.0208333333333333
 49
0.0
 49
0.0
 49
0.0
 49
0.0
 49
0.0208333333333333
 49
0.0
 49
0.0
 49
0.0
 49
0.0
 49
1.0
 49
0.0
 49
0.0
 49
0.0
 49
0.0
 49
1.0
175
     0
142
0.0208333333333333
142
0.0
142
0.0
142
0.0
142
0.0
142
0.0208333333333333
142
0.0
142
0.0
142
0.0
142
0.0
142
1.0
142
0.0
142
0.0
142
0.0
142
0.0
142
1.0
179
     0
144
0.0208333333333333
144
0.0
144
0.0
144
0.0
144
0.0
144
0.0208333333333333
144
0.0
144
0.0
144
0.0
144
0.0
144
1.0
144
0.0
144
0.0
144
0.0
144
0.0
144
1.0
147
0.0208333333333333
147
0.0
147
0.0
147
0.0
147
0.0
147
0.0208333333333333
147
0.0
147
0.0
147
0.0
147
0.0
147
1.0
147
0.0
147
0.0
147
0.0
147
0.0
147
1.0
  0
MLEADERSTYLE
  5
66
102
{ACAD_REACTORS
330
65
102
}
330
65
100
AcDbMLeaderStyle
179
     2
170
     2
171
     1
172
     0
 90
        2
 40
0.0
 41
0.0
173
     1
 91
-1056964608
340
5A
 92
       -2
290
     1
 42
0.09
291
     1
 43
0.36
  3
Standard
 44
0.18
300

342
55
174
     1
178
     6
175
     1
176
     0
 93
-1056964608
 45
0.18
292
     0
297
     0
 46
0.18
 94
-1056964608
 47
1.0
 49
1.0
140
1.0
293
     1
141
0.0
294
     1
177
     0
142
1.0
295
     0
296
     0
143
0.125
271
     0
272
     9
273
     9
298
     0
1001
ACAD_MLEADERVER
1070
     2
  0
MLINESTYLE
  5
5F
102
{ACAD_REACTORS
330
5E
102
}
330
5E
100
AcDbMlineStyle
  2
STANDARD
 70
     0
  3

 62
   256
 51
90.0
 52
90.0
 71
     2
 49
0.5
 62
   256
  6
BYLAYER
 49
-0.5
 62
   256
  6
BYLAYER
  0
ACDBPLACEHOLDER
  5
F
102
{ACAD_REACTORS
330
E
102
}
330
E
  0
SCALE
  5
43
102
{ACAD_REACTORS
330
42
102
}
330
42
100
AcDbScale
 70
     0
300
1:1
140
1.0
141
1.0
290
     1
  0
SCALE
  5
44
102
{ACAD_REACTORS
330
42
102
}
330
42
100
AcDbScale
 70
     0
300
1/128" = 1'-0"
140
0.0078125
141
12.0
290
     0
  0
SCALE
  5
45
102
{ACAD_REACTORS
330
42
102
}
330
42
100
AcDbScale
 70
     0
300
1/64" = 1'-0"
140
0.015625
141
12.0
290
     0
  0
SCALE
  5
46
102
{ACAD_REACTORS
330
42
102
}
330
42
100
AcDbScale
 70
     0
300
1/32" = 1'-0"
140
0.03125
141
12.0
290
     0
  0
SCALE
  5
47
102
{ACAD_REACTORS
330
42
102
}
330
42
100
AcDbScale
 70
     0
300
1/16" = 1'-0"
140
0.0625
141
12.0
290
     0
  0
SCALE
  5
48
102
{ACAD_REACTORS
330
42
102
}
330
42
100
AcDbScale
 70
     0
300
3/32" = 1'-0"
140
0.09375
141
12.0
290
     0
  0
SCALE
  5
49
102
{ACAD_REACTORS
330
42
102
}
330
42
100
AcDbScale
 70
     0
300
1/8" = 1'-0"
140
0.125
141
12.0
290
     0
  0
SCALE
  5
4A
102
{ACAD_REACTORS
330
42
102
}
330
42
100
AcDbScale
 70
     0
300
3/16" = 1'-0"
140
0.1875
141
12.0
290
     0
  0
SCALE
  5
4B
102
{ACAD_REACTORS
330
42
102
}
330
42
100
AcDbScale
 70
     0
300
1/4" = 1'-0"
140
0.25
141
12.0
290
     0
  0
SCALE
  5
4C
102
{ACAD_REACTORS
330
42
102
}
330
42
100
AcDbScale
 70
     0
300
3/8" = 1'-0"
140
0.375
141
12.0
290
     0
  0
SCALE
  5
4D
102
{ACAD_REACTORS
330
42
102
}
330
42
100
AcDbScale
 70
     0
300
1/2" = 1'-0"
140
0.5
141
12.0
290
     0
  0
SCALE
  5
4E
102
{ACAD_REACTORS
330
42
102
}
330
42
100
AcDbScale
 70
     0
300
3/4" = 1'-0"
140
0.75
141
12.0
290
     0
  0
SCALE
  5
4F
102
{ACAD_REACTORS
330
42
102
}
330
42
100
AcDbScale
 70
     0
300
1" = 1'-0"
140
1.0
141
12.0
290
     0
  0
SCALE
  5
50
102
{ACAD_REACTORS
330
42
102
}
330
42
100
AcDbScale
 70
     0
300
1-1/2" = 1'-0"
140
1.5
141
12.0
290
     0
  0
SCALE
  5
51
102
{ACAD_REACTORS
330
42
102
}
330
42
100
AcDbScale
 70
     0
300
3" = 1'-0"
140
3.0
141
12.0
290
     0
  0
SCALE
  5
52
102
{ACAD_REACTORS
330
42
102
}
330
42
100
AcDbScale
 70
     0
300
6" = 1'-0"
140
6.0
141
12.0
290
     0
  0
SCALE
  5
53
102
{ACAD_REACTORS
330
42
102
}
330
42
100
AcDbScale
 70
     0
300
1'-0" = 1'-0"
140
12.0
141
12.0
290
     0
  0
ACDBSECTIONVIEWSTYLE
  5
68
102
{ACAD_REACTORS
330
67
102
}
330
67
100
AcDbModelDocViewStyle
 70
     0
  3
Imperial24
290
     0
300
Imperial24
 90
        0
100
AcDbSectionViewStyle
 70
     0
 71
     0
 90
       78
 71
     1
340
55
 62
   256
 40
0.24
340
0
340
0
 62
   256
 40
0.24
300
I, O, Q, S, X, Z
 40
0.48
 90
        3
 40
0.18
 90
        1
 71
     2
340
5C
 90
       25
 62
   256
340
5C
 90
       50
 62
   256
 40
0.24
 40
0.0
 40
0.24
 71
     3
340
55
 62
   256
 40
0.24
 90
        1
 40
0.75
 90
        1
300
%<\AcVar ViewType \f "%tc1">% %<\AcVar ViewSectionStartId>%-%<\AcVar ViewSectionEndId>%\PSCALE %<\AcVar ViewScale \f "%sn">%
 71
     4
 62
   256
 62
   257
300
ANSI31
 40
1.0
 90
        0
290
     0
290
     0
 90
        6
 40
0.0
 40
1.570796326794896
 40
0.2617993877991494
 40
1.308996938995747
 40
-0.2617993877991494
 40
1.832595714594045
  0
ACDBSECTIONVIEWSTYLE
  5
5CD
102
{ACAD_REACTORS
330
67
102
}
330
67
100
AcDbModelDocViewStyle
 70
     0
  3
Metric50
290
     0
300
Metric50
 90
        0
100
AcDbSectionViewStyle
 70
     0
 71
     0
 90
      102
 71
     1
340
55
 62
   256
 40
5.0
340
0
340
0
 62
   256
 40
5.0
300
I, O, Q, S, X, Z
 40
10.0
 90
        0
 40
2.5
 90
        0
 71
     2
340
5C
 90
       25
 62
   256
340
5C
 90
       50
 62
   256
 40
5.0
 40
2.5
 40
5.0
 71
     3
340
55
 62
   256
 40
5.0
 90
        0
 40
15.0
 90
        1
300
%<\AcVar ViewSectionStartId>%-%<\AcVar ViewSectionEndId>% (%<\AcVar ViewScale \f "%sn">%)
 71
     4
 62
   256
 62
   257
300
ANSI31
 40
1.0
 90
        0
290
     0
290
     0
 90
        6
 40
0.0
 40
1.570796326794896
 40
0.2617993877991494
 40
1.308996938995747
 40
-0.2617993877991494
 40
1.832595714594045
  0
TABLESTYLE
  5
64
102
{ACAD_XDICTIONARY
360
5EE
102
}
102
{ACAD_REACTORS
330
63
102
}
330
63
100
AcDbTableStyle
280
     0
  3
Standard
 70
     0
 71
     0
 40
0.06
 41
0.06
280
     0
281
     0
  7
STANDARD
140
0.18
170
     2
 62
     0
 63
     7
283
     0
 90
      512
 91
        0
  1

274
    -2
284
     1
 64
     0
275
    -2
285
     1
 65
     0
276
    -2
286
     1
 66
     0
277
    -2
287
     1
 67
     0
278
    -2
288
     1
 68
     0
279
    -2
289
     1
 69
     0
  7
STANDARD
140
0.25
170
     5
 62
     0
 63
     7
283
     0
 90
      512
 91
        0
  1

274
    -2
284
     1
 64
     0
275
    -2
285
     1
 65
     0
276
    -2
286
     1
 66
     0
277
    -2
287
     1
 67
     0
278
    -2
288
     1
 68
     0
279
    -2
289
     1
 69
     0
  7
STANDARD
140
0.18
170
     5
 62
     0
 63
     7
283
     0
 90
      512
 91
        0
  1

274
    -2
284
     1
 64
     0
275
    -2
285
     1
 65
     0
276
    -2
286
     1
 66
     0
277
    -2
287
     1
 67
     0
278
    -2
288
     1
 68
     0
279
    -2
289
     1
 69
     0
  0
VISUALSTYLE
  5
2F
102
{ACAD_REACTORS
330
29
102
}
330
29
100
AcDbVisualStyle
  2

 70
     4
177
     3
291
     0
 70
    58
 90
        0
176
     1
 90
        2
176
     1
 90
        0
176
     1
 90
        0
176
     1
 40
0.6
176
     1
 40
30.0
176
     1
 62
     7
176
     1
 90
        1
176
     1
 90
        4
176
     1
 62
     7
176
     1
 62
   257
176
     1
 90
        1
176
     1
 90
        1
176
     1
 40
1.0
176
     1
 90
        0
176
     1
 62
   257
176
     1
 40
1.0
176
     1
 90
        1
176
     1
 90
        6
176
     1
 90
        2
176
     1
 62
     7
176
     1
 90
        5
176
     1
 90
        0
176
     1
 90
        0
176
     1
290
     0
176
     1
 90
        1
176
     1
 40
0.0
176
     1
 90
        0
176
     1
290
     1
176
     1
290
     1
176
     1
290
     0
176
     1
290
     0
176
     1
290
     0
176
     1
290
     0
176
     1
290
     0
176
     1
290
     0
176
     1
290
     0
176
     1
 90
       50
176
     1
 40
0.0
176
     1
 40
1.0
176
     1
 90
        0
176
     1
 62
    18
420
        0
176
     1
 90
       50
176
     1
 90
        3
176
     1
 62
     5
420
      255
176
     1
290
     0
176
     1
 90
       50
176
     1
 90
       50
176
     1
 90
       50
176
     1
290
     0
176
     1
 90
       50
176
     1
 62
   256
176
     0
 40
1.0
176
     0
 90
        2
176
     1
  1
strokes_ogs.tif
176
     1
290
     0
176
     1
 40
1.0
176
     1
 40
1.0
176
     1
1001
ACAD
1000
AcDbSavedByObjectVersion
1070
     0
  0
VISUALSTYLE
  5
2E
102
{ACAD_REACTORS
330
29
102
}
330
29
100
AcDbVisualStyle
  2

 70
     7
177
     3
291
     1
 70
    58
 90
        1
176
     1
 90
        0
176
     1
 90
        1
176
     1
 90
        0
176
     1
 40
0.6
176
     1
 40
30.0
176
     1
 62
     7
176
     1
 90
        0
176
     1
 90
        4
176
     1
 62
     7
176
     1
 62
   257
176
     1
 90
        1
176
     1
 90
        1
176
     1
 40
1.0
176
     1
 90
        8
176
     1
 62
     7
176
     1
 40
1.0
176
     1
 90
        1
176
     1
 90
        6
176
     1
 90
        2
176
     1
 62
     7
176
     1
 90
        5
176
     1
 90
        0
176
     1
 90
        0
176
     1
290
     0
176
     1
 90
        1
176
     1
 40
0.0
176
     1
 90
        0
176
     1
290
     0
176
     1
290
     1
176
     1
290
     1
176
     1
290
     0
176
     1
290
     0
176
     1
290
     0
176
     1
290
     0
176
     1
290
     0
176
     1
290
     0
176
     1
 90
       50
176
     1
 40
0.0
176
     1
 40
1.0
176
     1
 90
        0
176
     1
 62
    18
420
        0
176
     1
 90
       50
176
     1
 90
        3
176
     1
 62
     5
420
      255
176
     1
290
     0
176
     1
 90
       50
176
     1
 90
       50
176
     1
 90
       50
176
     1
290
     0
176
     1
 90
       50
176
     1
 62
   256
176
     0
 40
1.0
176
     0
 90
        2
176
     1
  1
strokes_ogs.tif
176
     1
290
     0
176
     1
 40
1.0
176
     1
 40
1.0
176
     1
1001
ACAD
1000
AcDbSavedByObjectVersion
1070
     0
  0
VISUALSTYLE
  5
35
102
{ACAD_REACTORS
330
29
102
}
330
29
100
AcDbVisualStyle
  2

 70
    12
177
     3
291
     1
 70
    58
 90
        2
176
     1
 90
        2
176
     1
 90
        0
176
     1
 90
        0
176
     1
 40
0.6
176
     1
 40
30.0
176
     1
 62
     7
176
     1
 90
        1
176
     1
 90
        4
176
     1
 62
     7
176
     1
 62
   257
176
     1
 90
        1
176
     1
 90
        1
176
     1
 40
1.0
176
     1
 90
        8
176
     1
 62
     7
176
     1
 40
1.0
176
     1
 90
        1
176
     1
 90
        6
176
     1
 90
        2
176
     1
 62
     7
176
     1
 90
        5
176
     1
 90
        0
176
     1
 90
        0
176
     1
290
     0
176
     1
 90
        1
176
     1
 40
50.0
176
     1
 90
        0
176
     1
290
     0
176
     1
290
     1
176
     1
290
     1
176
     1
290
     0
176
     1
290
     0
176
     1
290
     0
176
     1
290
     0
176
     1
290
     0
176
     1
290
     0
176
     1
 90
       50
176
     1
 40
0.0
176
     1
 40
1.0
176
     1
 90
        0
176
     1
 62
    18
420
        0
176
     1
 90
       50
176
     1
 90
        3
176
     1
 62
     5
420
      255
176
     1
290
     0
176
     1
 90
       50
176
     1
 90
       50
176
     1
 90
       50
176
     1
290
     0
176
     1
 90
       50
176
     1
 62
   256
176
     0
 40
1.0
176
     0
 90
        2
176
     1
  1
strokes_ogs.tif
176
     1
290
     0
176
     1
 40
1.0
176
     1
 40
1.0
176
     1
1001
ACAD
1000
AcDbSavedByObjectVersion
1070
     0
  0
VISUALSTYLE
  5
39
102
{ACAD_REACTORS
330
29
102
}
330
29
100
AcDbVisualStyle
  2

 70
    16
177
     3
291
     1
 70
    58
 90
        2
176
     1
 90
        2
176
     1
 90
        3
176
     1
 90
        0
176
     1
 40
0.6
176
     1
 40
30.0
176
     1
 62
     8
176
     1
 90
        1
176
     1
 90
        4
176
     1
 62
     7
176
     1
 62
   257
176
     1
 90
        1
176
     1
 90
        1
176
     1
 40
1.0
176
     1
 90
        8
176
     1
 62
     8
176
     1
 40
1.0
176
     1
 90
        1
176
     1
 90
        6
176
     1
 90
        2
176
     1
 62
     7
176
     1
 90
        5
176
     1
 90
        0
176
     1
 90
        0
176
     1
290
     0
176
     1
 90
        1
176
     1
 40
0.0
176
     1
 90
        0
176
     1
290
     0
176
     1
290
     1
176
     1
290
     1
176
     1
290
     0
176
     1
290
     0
176
     1
290
     0
176
     1
290
     0
176
     1
290
     0
176
     1
290
     0
176
     1
 90
       50
176
     1
 40
0.0
176
     1
 40
1.0
176
     1
 90
        0
176
     1
 62
    18
420
        0
176
     1
 90
       50
176
     1
 90
        3
176
     1
 62
     5
420
      255
176
     1
290
     0
176
     1
 90
       50
176
     1
 90
       50
176
     1
 90
       50
176
     1
290
     0
176
     1
 90
       50
176
     1
 62
   256
176
     0
 40
1.0
176
     0
 90
        2
176
     1
  1
strokes_ogs.tif
176
     1
290
     0
176
     1
 40
1.0
176
     1
 40
1.0
176
     1
1001
ACAD
1000
AcDbSavedByObjectVersion
1070
     0
  0
VISUALSTYLE
  5
32
102
{ACAD_REACTORS
330
29
102
}
330
29
100
AcDbVisualStyle
  2

 70
     9
177
     3
291
     0
 70
    58
 90
        3
176
     1
 90
        2
176
     1
 90
        0
176
     1
 90
        0
176
     1
 40
0.6
176
     1
 40
30.0
176
     1
 62
     7
176
     1
 90
        2
176
     1
 90
        2
176
     1
 62
     7
176
     1
 62
   257
176
     1
 90
        1
176
     1
 90
        1
176
     1
 40
179.0
176
     1
 90
        8
176
     1
 62
     7
176
     1
 40
1.0
176
     1
 90
        1
176
     1
 90
        6
176
     1
 90
        2
176
     1
 62
     7
176
     1
 90
        3
176
     1
 90
        0
176
     1
 90
        0
176
     1
290
     0
176
     1
 90
        1
176
     1
 40
0.0
176
     1
 90
        0
176
     1
290
     0
176
     1
290
     1
176
     1
290
     1
176
     1
290
     0
176
     1
290
     0
176
     1
290
     0
176
     1
290
     0
176
     1
290
     0
176
     1
290
     0
176
     1
 90
       50
176
     1
 40
0.0
176
     1
 40
1.0
176
     1
 90
        0
176
     1
 62
    18
420
        0
176
     1
 90
       50
176
     1
 90
        3
176
     1
 62
     5
420
      255
176
     1
290
     0
176
     1
 90
       50
176
     1
 90
       50
176
     1
 90
       50
176
     1
290
     0
176
     1
 90
       50
176
     1
 62
   256
176
     0
 40
1.0
176
     0
 90
        2
176
     1
  1
strokes_ogs.tif
176
     1
290
     0
176
     1
 40
1.0
176
     1
 40
1.0
176
     1
1001
ACAD
1000
AcDbSavedByObjectVersion
1070
     0
  0
VISUALSTYLE
  5
34
102
{ACAD_REACTORS
330
29
102
}
330
29
100
AcDbVisualStyle
  2

 70
    11
177
     3
291
     1
 70
    58
 90
        2
176
     1
 90
        2
176
     1
 90
        0
176
     1
 90
        0
176
     1
 40
0.6
176
     1
 40
30.0
176
     1
 62
     7
176
     1
 90
        1
176
     1
 90
        4
176
     1
 62
     7
176
     1
 62
   257
176
     1
 90
        1
176
     1
 90
        1
176
     1
 40
1.0
176
     1
 90
        8
176
     1
 62
     7
176
     1
 40
1.0
176
     1
 90
        1
176
     1
 90
        6
176
     1
 90
        2
176
     1
 62
     7
176
     1
 90
        5
176
     1
 90
        0
176
     1
 90
        0
176
     1
290
     0
176
     1
 90
        1
176
     1
 40
-50.0
176
     1
 90
        0
176
     1
290
     0
176
     1
290
     1
176
     1
290
     1
176
     1
290
     0
176
     1
290
     0
176
     1
290
     0
176
     1
290
     0
176
     1
290
     0
176
     1
290
     0
176
     1
 90
       50
176
     1
 40
0.0
176
     1
 40
1.0
176
     1
 90
        0
176
     1
 62
    18
420
        0
176
     1
 90
       50
176
     1
 90
        3
176
     1
 62
     5
420
      255
176
     1
290
     0
176
     1
 90
       50
176
     1
 90
       50
176
     1
 90
       50
176
     1
290
     0
176
     1
 90
       50
176
     1
 62
   256
176
     0
 40
1.0
176
     0
 90
        2
176
     1
  1
strokes_ogs.tif
176
     1
290
     0
176
     1
 40
1.0
176
     1
 40
1.0
176
     1
1001
ACAD
1000
AcDbSavedByObjectVersion
1070
     0
  0
VISUALSTYLE
  5
41
102
{ACAD_REACTORS
330
29
102
}
330
29
100
AcDbVisualStyle
  2

 70
    22
177
     3
291
     1
 70
    58
 90
        2
176
     0
 90
        2
176
     0
 90
        0
176
     0
 90
        0
176
     0
 40
0.6
176
     0
 40
30.0
176
     0
 62
     7
176
     0
 90
        1
176
     0
 90
        4
176
     0
 62
     7
176
     0
 62
   257
176
     0
 90
        1
176
     0
 90
        1
176
     0
 40
1.0
176
     0
 90
        8
176
     2
 62
     7
176
     0
 40
1.0
176
     0
 90
        1
176
     0
 90
        6
176
     0
 90
        2
176
     0
 62
     7
176
     0
 90
        5
176
     0
 90
        0
176
     0
 90
        0
176
     0
290
     0
176
     0
 90
        1
176
     0
 40
0.0
176
     0
 90
        0
176
     0
290
     0
176
     1
290
     1
176
     1
290
     1
176
     1
290
     0
176
     1
290
     0
176
     1
290
     0
176
     1
290
     0
176
     1
290
     0
176
     1
290
     0
176
     1
 90
       50
176
     0
 40
0.0
176
     0
 40
1.0
176
     0
 90
        0
176
     0
 62
    18
420
        0
176
     0
 90
       50
176
     0
 90
        3
176
     0
 62
     5
420
      255
176
     0
290
     0
176
     1
 90
       50
176
     0
 90
       50
176
     0
 90
       50
176
     0
290
     0
176
     1
 90
       50
176
     0
 62
   256
176
     0
 40
1.0
176
     0
 90
        2
176
     0
  1
strokes_ogs.tif
176
     0
290
     0
176
     1
 40
1.0
176
     0
 40
1.0
176
     0
1001
ACAD
1000
AcDbSavedByObjectVersion
1070
     0
  0
VISUALSTYLE
  5
38
102
{ACAD_REACTORS
330
29
102
}
330
29
100
AcDbVisualStyle
  2

 70
    15
177
     3
291
     1
 70
    58
 90
        2
176
     1
 90
        2
176
     1
 90
        0
176
     1
 90
        0
176
     1
 40
0.6
176
     1
 40
30.0
176
     1
 62
     7
176
     1
 90
        1
176
     1
 90
        4
176
     1
 62
     7
176
     1
 62
   257
176
     1
 90
        1
176
     1
 90
        1
176
     1
 40
1.0
176
     1
 90
        8
176
     1
 62
     7
176
     1
 40
1.0
176
     1
 90
        1
176
     1
 90
        6
176
     1
 90
        2
176
     1
 62
     7
176
     1
 90
        5
176
     1
 90
        0
176
     1
 90
        0
176
     1
290
     0
176
     1
 90
        1
176
     1
 40
0.0
176
     1
 90
        0
176
     1
290
     0
176
     1
290
     1
176
     1
290
     1
176
     1
290
     0
176
     1
290
     0
176
     1
290
     0
176
     1
290
     0
176
     1
290
     0
176
     1
290
     0
176
     1
 90
       50
176
     1
 40
0.0
176
     1
 40
1.0
176
     1
 90
        0
176
     1
 62
    18
420
        0
176
     1
 90
       50
176
     1
 90
        3
176
     1
 62
     5
420
      255
176
     1
290
     0
176
     1
 90
       50
176
     1
 90
       50
176
     1
 90
       50
176
     1
290
     0
176
     1
 90
       50
176
     1
 62
   256
176
     0
 40
1.0
176
     0
 90
        2
176
     1
  1
strokes_ogs.tif
176
     1
290
     0
176
     1
 40
1.0
176
     1
 40
1.0
176
     1
1001
ACAD
1000
AcDbSavedByObjectVersion
1070
     0
  0
VISUALSTYLE
  5
2A
102
{ACAD_REACTORS
330
29
102
}
330
29
100
AcDbVisualStyle
  2

 70
     0
177
     3
291
     1
 70
    58
 90
        2
176
     1
 90
        1
176
     1
 90
        1
176
     1
 90
        2
176
     1
 40
0.6
176
     1
 40
30.0
176
     1
 62
     7
176
     1
 90
        0
176
     1
 90
        0
176
     1
 62
     7
176
     1
 62
   257
176
     1
 90
        1
176
     1
 90
        1
176
     1
 40
1.0
176
     1
 90
        8
176
     1
 62
     7
176
     1
 40
1.0
176
     1
 90
        1
176
     1
 90
        6
176
     1
 90
        2
176
     1
 62
     7
176
     1
 90
        5
176
     1
 90
        0
176
     1
 90
        0
176
     1
290
     0
176
     1
 90
       13
176
     1
 40
0.0
176
     1
 90
        0
176
     1
290
     0
176
     1
290
     1
176
     1
290
     1
176
     1
290
     0
176
     1
290
     0
176
     1
290
     0
176
     1
290
     0
176
     1
290
     0
176
     1
290
     0
176
     1
 90
       50
176
     1
 40
0.0
176
     1
 40
1.0
176
     1
 90
        0
176
     1
 62
    18
420
        0
176
     1
 90
       50
176
     1
 90
        3
176
     1
 62
     5
420
      255
176
     1
290
     0
176
     1
 90
       50
176
     1
 90
       50
176
     1
 90
       50
176
     1
290
     0
176
     1
 90
       50
176
     1
 62
   256
176
     0
 40
1.0
176
     0
 90
        2
176
     1
  1
strokes_ogs.tif
176
     1
290
     0
176
     1
 40
1.0
176
     1
 40
1.0
176
     1
1001
ACAD
1000
AcDbSavedByObjectVersion
1070
     0
  0
VISUALSTYLE
  5
2B
102
{ACAD_REACTORS
330
29
102
}
330
29
100
AcDbVisualStyle
  2

 70
     1
177
     3
291
     1
 70
    58
 90
        2
176
     1
 90
        1
176
     1
 90
        1
176
     1
 90
        2
176
     1
 40
0.6
176
     1
 40
30.0
176
     1
 62
     7
176
     1
 90
        1
176
     1
 90
        0
176
     1
 62
     7
176
     1
 62
   257
176
     1
 90
        1
176
     1
 90
        1
176
     1
 40
1.0
176
     1
 90
        0
176
     1
 62
   257
176
     1
 40
1.0
176
     1
 90
        1
176
     1
 90
        6
176
     1
 90
        2
176
     1
 62
     7
176
     1
 90
        5
176
     1
 90
        0
176
     1
 90
        0
176
     1
290
     0
176
     1
 90
       13
176
     1
 40
0.0
176
     1
 90
        0
176
     1
290
     0
176
     1
290
     1
176
     1
290
     1
176
     1
290
     0
176
     1
290
     0
176
     1
290
     0
176
     1
290
     0
176
     1
290
     0
176
     1
290
     0
176
     1
 90
       50
176
     1
 40
0.0
176
     1
 40
1.0
176
     1
 90
        0
176
     1
 62
    18
420
        0
176
     1
 90
       50
176
     1
 90
        3
176
     1
 62
     5
420
      255
176
     1
290
     0
176
     1
 90
       50
176
     1
 90
       50
176
     1
 90
       50
176
     1
290
     0
176
     1
 90
       50
176
     1
 62
   256
176
     0
 40
1.0
176
     0
 90
        2
176
     1
  1
strokes_ogs.tif
176
     1
290
     0
176
     1
 40
1.0
176
     1
 40
1.0
176
     1
1001
ACAD
1000
AcDbSavedByObjectVersion
1070
     0
  0
VISUALSTYLE
  5
2C
102
{ACAD_REACTORS
330
29
102
}
330
29
100
AcDbVisualStyle
  2

 70
     2
177
     3
291
     1
 70
    58
 90
        2
176
     1
 90
        2
176
     1
 90
        1
176
     1
 90
        2
176
     1
 40
0.6
176
     1
 40
30.0
176
     1
 62
     7
176
     1
 90
        0
176
     1
 90
        0
176
     1
 62
     7
176
     1
 62
   257
176
     1
 90
        1
176
     1
 90
        1
176
     1
 40
1.0
176
     1
 90
        0
176
     1
 62
     7
176
     1
 40
1.0
176
     1
 90
        1
176
     1
 90
        6
176
     1
 90
        2
176
     1
 62
     7
176
     1
 90
        5
176
     1
 90
        0
176
     1
 90
        0
176
     1
290
     0
176
     1
 90
       13
176
     1
 40
0.0
176
     1
 90
        0
176
     1
290
     0
176
     1
290
     1
176
     1
290
     1
176
     1
290
     0
176
     1
290
     0
176
     1
290
     0
176
     1
290
     0
176
     1
290
     0
176
     1
290
     0
176
     1
 90
       50
176
     1
 40
0.0
176
     1
 40
1.0
176
     1
 90
        0
176
     1
 62
    18
420
        0
176
     1
 90
       50
176
     1
 90
        3
176
     1
 62
     5
420
      255
176
     1
290
     0
176
     1
 90
       50
176
     1
 90
       50
176
     1
 90
       50
176
     1
290
     0
176
     1
 90
       50
176
     1
 62
   256
176
     0
 40
1.0
176
     0
 90
        2
176
     1
  1
strokes_ogs.tif
176
     1
290
     0
176
     1
 40
1.0
176
     1
 40
1.0
176
     1
1001
ACAD
1000
AcDbSavedByObjectVersion
1070
     0
  0
VISUALSTYLE
  5
2D
102
{ACAD_REACTORS
330
29
102
}
330
29
100
AcDbVisualStyle
  2

 70
     3
177
     3
291
     1
 70
    58
 90
        2
176
     1
 90
        2
176
     1
 90
        1
176
     1
 90
        2
176
     1
 40
0.6
176
     1
 40
30.0
176
     1
 62
     7
176
     1
 90
        1
176
     1
 90
        0
176
     1
 62
     7
176
     1
 62
   257
176
     1
 90
        1
176
     1
 90
        1
176
     1
 40
1.0
176
     1
 90
        0
176
     1
 62
   257
176
     1
 40
1.0
176
     1
 90
        1
176
     1
 90
        6
176
     1
 90
        2
176
     1
 62
     7
176
     1
 90
        5
176
     1
 90
        0
176
     1
 90
        0
176
     1
290
     0
176
     1
 90
       13
176
     1
 40
0.0
176
     1
 90
        0
176
     1
290
     0
176
     1
290
     1
176
     1
290
     1
176
     1
290
     0
176
     1
290
     0
176
     1
290
     0
176
     1
290
     0
176
     1
290
     0
176
     1
290
     0
176
     1
 90
       50
176
     1
 40
0.0
176
     1
 40
1.0
176
     1
 90
        0
176
     1
 62
    18
420
        0
176
     1
 90
       50
176
     1
 90
        3
176
     1
 62
     5
420
      255
176
     1
290
     0
176
     1
 90
       50
176
     1
 90
       50
176
     1
 90
       50
176
     1
290
     0
176
     1
 90
       50
176
     1
 62
   256
176
     0
 40
1.0
176
     0
 90
        2
176
     1
  1
strokes_ogs.tif
176
     1
290
     0
176
     1
 40
1.0
176
     1
 40
1.0
176
     1
1001
ACAD
1000
AcDbSavedByObjectVersion
1070
     0
  0
VISUALSTYLE
  5
31
102
{ACAD_REACTORS
330
29
102
}
330
29
100
AcDbVisualStyle
  2

 70
     6
177
     3
291
     0
 70
    58
 90
        1
176
     1
 90
        2
176
     1
 90
        2
176
     1
 90
        0
176
     1
 40
0.6
176
     1
 40
30.0
176
     1
 62
     7
176
     1
 90
        2
176
     1
 90
        2
176
     1
 62
     7
176
     1
 62
   257
176
     1
 90
        2
176
     1
 90
        1
176
     1
 40
40.0
176
     1
 90
        0
176
     1
 62
   257
176
     1
 40
1.0
176
     1
 90
        1
176
     1
 90
        6
176
     1
 90
        2
176
     1
 62
     7
176
     1
 90
        3
176
     1
 90
        0
176
     1
 90
        0
176
     1
290
     0
176
     1
 90
        1
176
     1
 40
0.0
176
     1
 90
        0
176
     1
290
     0
176
     1
290
     1
176
     1
290
     1
176
     1
290
     0
176
     1
290
     0
176
     1
290
     0
176
     1
290
     0
176
     1
290
     0
176
     1
290
     0
176
     1
 90
       50
176
     1
 40
0.0
176
     1
 40
1.0
176
     1
 90
        0
176
     1
 62
    18
420
        0
176
     1
 90
       50
176
     1
 90
        3
176
     1
 62
     5
420
      255
176
     1
290
     0
176
     1
 90
       50
176
     1
 90
       50
176
     1
 90
       50
176
     1
290
     0
176
     1
 90
       50
176
     1
 62
   256
176
     0
 40
1.0
176
     0
 90
        2
176
     1
  1
strokes_ogs.tif
176
     1
290
     0
176
     1
 40
1.0
176
     1
 40
1.0
176
     1
1001
ACAD
1000
AcDbSavedByObjectVersion
1070
     0
  0
VISUALSTYLE
  5
3F
102
{ACAD_REACTORS
330
29
102
}
330
29
100
AcDbVisualStyle
  2

 70
    20
177
     3
291
     1
 70
    58
 90
        2
176
     0
 90
        2
176
     0
 90
        0
176
     0
 90
        0
176
     0
 40
0.6
176
     0
 40
30.0
176
     0
 62
     7
176
     0
 90
        1
176
     0
 90
        4
176
     0
 62
     7
176
     0
 62
   257
176
     0
 90
        1
176
     0
 90
        1
176
     0
 40
1.0
176
     0
 90
       10
176
     2
 62
     7
176
     0
 40
1.0
176
     0
 90
        1
176
     0
 90
        6
176
     0
 90
        2
176
     0
 62
     7
176
     0
 90
        5
176
     0
 90
        0
176
     0
 90
        0
176
     0
290
     0
176
     0
 90
        1
176
     0
 40
0.0
176
     0
 90
        0
176
     0
290
     0
176
     1
290
     1
176
     1
290
     1
176
     1
290
     0
176
     1
290
     0
176
     1
290
     0
176
     1
290
     0
176
     1
290
     0
176
     1
290
     0
176
     1
 90
       50
176
     0
 40
0.0
176
     0
 40
1.0
176
     0
 90
        0
176
     0
 62
    18
420
        0
176
     0
 90
       50
176
     0
 90
        3
176
     0
 62
     5
420
      255
176
     0
290
     0
176
     1
 90
       50
176
     0
 90
       50
176
     0
 90
       50
176
     0
290
     0
176
     1
 90
       50
176
     0
 62
   256
176
     0
 40
1.0
176
     0
 90
        2
176
     0
  1
strokes_ogs.tif
176
     0
290
     0
176
     1
 40
1.0
176
     0
 40
1.0
176
     0
1001
ACAD
1000
AcDbSavedByObjectVersion
1070
     0
  0
VISUALSTYLE
  5
37
102
{ACAD_REACTORS
330
29
102
}
330
29
100
AcDbVisualStyle
  2

 70
    14
177
     3
291
     1
 70
    58
 90
        2
176
     1
 90
        2
176
     1
 90
        0
176
     1
 90
        0
176
     1
 40
0.6
176
     1
 40
30.0
176
     1
 62
     7
176
     1
 90
        1
176
     1
 90
        4
176
     1
 62
     7
176
     1
 62
   257
176
     1
 90
        7
176
     1
 90
        7
176
     1
 40
1.0
176
     1
 90
        8
176
     1
 62
     7
176
     1
 40
1.0
176
     1
 90
        1
176
     1
 90
        6
176
     1
 90
        2
176
     1
 62
     7
176
     1
 90
        5
176
     1
 90
        0
176
     1
 90
        0
176
     1
290
     0
176
     1
 90
        1
176
     1
 40
0.0
176
     1
 90
        0
176
     1
290
     0
176
     1
290
     1
176
     1
290
     1
176
     1
290
     0
176
     1
290
     0
176
     1
290
     0
176
     1
290
     0
176
     1
290
     0
176
     1
290
     0
176
     1
 90
       50
176
     1
 40
0.0
176
     1
 40
1.0
176
     1
 90
        0
176
     1
 62
    18
420
        0
176
     1
 90
       50
176
     1
 90
        3
176
     1
 62
     5
420
      255
176
     1
290
     0
176
     1
 90
       50
176
     1
 90
       50
176
     1
 90
       50
176
     1
290
     0
176
     1
 90
       50
176
     1
 62
   256
176
     0
 40
1.0
176
     0
 90
        2
176
     1
  1
strokes_ogs.tif
176
     1
290
     0
176
     1
 40
1.0
176
     1
 40
1.0
176
     1
1001
ACAD
1000
AcDbSavedByObjectVersion
1070
     0
  0
VISUALSTYLE
  5
40
102
{ACAD_REACTORS
330
29
102
}
330
29
100
AcDbVisualStyle
  2

 70
    21
177
     3
291
     1
 70
    58
 90
        2
176
     0
 90
        2
176
     0
 90
        0
176
     0
 90
        0
176
     0
 40
0.6
176
     0
 40
30.0
176
     0
 62
     7
176
     0
 90
        1
176
     0
 90
        4
176
     0
 62
     7
176
     0
 62
   257
176
     0
 90
        1
176
     0
 90
        1
176
     0
 40
1.0
176
     0
 90
        9
176
     2
 62
     7
176
     0
 40
1.0
176
     0
 90
        1
176
     0
 90
        6
176
     0
 90
        2
176
     0
 62
     7
176
     0
 90
        5
176
     0
 90
        0
176
     0
 90
        0
176
     0
290
     0
176
     0
 90
        1
176
     0
 40
0.0
176
     0
 90
        0
176
     0
290
     0
176
     1
290
     1
176
     1
290
     1
176
     1
290
     0
176
     1
290
     0
176
     1
290
     0
176
     1
290
     0
176
     1
290
     0
176
     1
290
     0
176
     1
 90
       50
176
     0
 40
0.0
176
     0
 40
1.0
176
     0
 90
        0
176
     0
 62
    18
420
        0
176
     0
 90
       50
176
     0
 90
        3
176
     0
 62
     5
420
      255
176
     0
290
     0
176
     1
 90
       50
176
     0
 90
       50
176
     0
 90
       50
176
     0
290
     0
176
     1
 90
       50
176
     0
 62
   256
176
     0
 40
1.0
176
     0
 90
        2
176
     0
  1
strokes_ogs.tif
176
     0
290
     0
176
     1
 40
1.0
176
     0
 40
1.0
176
     0
1001
ACAD
1000
AcDbSavedByObjectVersion
1070
     0
  0
VISUALSTYLE
  5
33
102
{ACAD_REACTORS
330
29
102
}
330
29
100
AcDbVisualStyle
  2

 70
     8
177
     3
291
     0
 70
    58
 90
        2
176
     1
 90
        3
176
     1
 90
        0
176
     1
 90
        2
176
     1
 40
0.6
176
     1
 40
30.0
176
     1
 62
     7
176
     1
 90
        0
176
     1
 90
        0
176
     1
 62
     7
176
     1
 62
   257
176
     1
 90
        1
176
     1
 90
        1
176
     1
 40
1.0
176
     1
 90
        8
176
     1
 62
   257
176
     1
 40
1.0
176
     1
 90
        1
176
     1
 90
        6
176
     1
 90
        2
176
     1
 62
     7
176
     1
 90
        3
176
     1
 90
        0
176
     1
 90
        0
176
     1
290
     0
176
     1
 90
       13
176
     1
 40
0.0
176
     1
 90
        0
176
     1
290
     0
176
     1
290
     1
176
     1
290
     1
176
     1
290
     0
176
     1
290
     0
176
     1
290
     0
176
     1
290
     0
176
     1
290
     0
176
     1
290
     0
176
     1
 90
       50
176
     1
 40
0.0
176
     1
 40
1.0
176
     1
 90
        0
176
     1
 62
    18
420
        0
176
     1
 90
       50
176
     1
 90
        3
176
     1
 62
     5
420
      255
176
     1
290
     0
176
     1
 90
       50
176
     1
 90
       50
176
     1
 90
       50
176
     1
290
     0
176
     1
 90
       50
176
     1
 62
   256
176
     0
 40
1.0
176
     0
 90
        2
176
     1
  1
strokes_ogs.tif
176
     1
290
     0
176
     1
 40
1.0
176
     1
 40
1.0
176
     1
1001
ACAD
1000
AcDbSavedByObjectVersion
1070
     0
  0
VISUALSTYLE
  5
3E
102
{ACAD_REACTORS
330
29
102
}
330
29
100
AcDbVisualStyle
  2

 70
    27
177
     3
291
     0
 70
    58
 90
        2
176
     1
 90
        2
176
     1
 90
        1
176
     1
 90
        2
176
     1
 40
0.6
176
     1
 40
30.0
176
     1
 62
     7
176
     1
 90
        0
176
     1
 90
        4
176
     1
 62
     7
176
     1
 62
   257
176
     1
 90
        1
176
     1
 90
        1
176
     1
 40
1.0
176
     1
 90
        8
176
     1
 62
   257
176
     1
 40
1.0
176
     1
 90
        1
176
     1
 90
        6
176
     1
 90
        2
176
     1
 62
     8
176
     1
 90
        3
176
     1
 90
        0
176
     1
 90
        0
176
     1
290
     0
176
     1
 90
        5
176
     1
 40
0.0
176
     1
 90
        0
176
     1
290
     0
176
     1
290
     1
176
     1
290
     1
176
     1
290
     0
176
     1
290
     0
176
     1
290
     0
176
     1
290
     0
176
     1
290
     0
176
     1
290
     0
176
     1
 90
       50
176
     1
 40
0.0
176
     1
 40
1.0
176
     1
 90
        0
176
     1
 62
    18
420
        0
176
     1
 90
       50
176
     1
 90
        3
176
     1
 62
     5
420
      255
176
     1
290
     0
176
     1
 90
       50
176
     1
 90
       50
176
     1
 90
       50
176
     1
290
     0
176
     1
 90
       50
176
     1
 62
   256
176
     0
 40
1.0
176
     0
 90
        2
176
     1
  1
strokes_ogs.tif
176
     1
290
     0
176
     1
 40
1.0
176
     1
 40
1.0
176
     1
1001
ACAD
1000
AcDbSavedByObjectVersion
1070
     0
  0
VISUALSTYLE
  5
3D
102
{ACAD_REACTORS
330
29
102
}
330
29
100
AcDbVisualStyle
  2

 70
    26
177
     3
291
     0
 70
    58
 90
        2
176
     1
 90
        2
176
     1
 90
        1
176
     1
 90
        2
176
     1
 40
0.6
176
     1
 40
30.0
176
     1
 62
     7
176
     1
 90
        1
176
     1
 90
        2
176
     1
 62
     7
176
     1
 62
   257
176
     1
 90
        2
176
     1
 90
        1
176
     1
 40
1.0
176
     1
 90
        8
176
     1
 62
   257
176
     1
 40
1.0
176
     1
 90
        1
176
     1
 90
        6
176
     1
 90
        2
176
     1
 62
     7
176
     1
 90
        3
176
     1
 90
        0
176
     1
 90
        0
176
     1
290
     0
176
     1
 90
        5
176
     1
 40
0.0
176
     1
 90
        0
176
     1
290
     0
176
     1
290
     1
176
     1
290
     1
176
     1
290
     0
176
     1
290
     0
176
     1
290
     0
176
     1
290
     0
176
     1
290
     0
176
     1
290
     0
176
     1
 90
       50
176
     1
 40
0.0
176
     1
 40
1.0
176
     1
 90
        0
176
     1
 62
    18
420
        0
176
     1
 90
       50
176
     1
 90
        3
176
     1
 62
     5
420
      255
176
     1
290
     0
176
     1
 90
       50
176
     1
 90
       50
176
     1
 90
       50
176
     1
290
     0
176
     1
 90
       50
176
     1
 62
   256
176
     0
 40
1.0
176
     0
 90
        2
176
     1
  1
strokes_ogs.tif
176
     1
290
     0
176
     1
 40
1.0
176
     1
 40
1.0
176
     1
1001
ACAD
1000
AcDbSavedByObjectVersion
1070
     0
  0
VISUALSTYLE
  5
3A
102
{ACAD_REACTORS
330
29
102
}
330
29
100
AcDbVisualStyle
  2

 70
    23
177
     3
291
     0
 70
    58
 90
        2
176
     1
 90
        2
176
     1
 90
        3
176
     1
 90
        0
176
     1
 40
0.6
176
     1
 40
30.0
176
     1
 62
     7
176
     1
 90
        2
176
     1
 90
        2
176
     1
 62
     7
176
     1
 62
     7
176
     1
 90
        1
176
     1
 90
        1
176
     1
 40
40.0
176
     1
 90
        8
176
     1
 62
     7
176
     1
 40
1.0
176
     1
 90
        1
176
     1
 90
        6
176
     1
 90
        2
176
     1
 62
     7
176
     1
 90
        3
176
     1
 90
        0
176
     1
 90
        0
176
     1
290
     0
176
     1
 90
        1
176
     1
 40
0.0
176
     1
 90
        0
176
     1
290
     0
176
     1
290
     1
176
     1
290
     1
176
     1
290
     0
176
     1
290
     0
176
     1
290
     0
176
     1
290
     0
176
     1
290
     0
176
     1
290
     0
176
     1
 90
       50
176
     1
 40
0.0
176
     1
 40
1.0
176
     1
 90
        0
176
     1
 62
    18
420
        0
176
     1
 90
       50
176
     1
 90
        3
176
     1
 62
     5
420
      255
176
     1
290
     0
176
     1
 90
       50
176
     1
 90
       50
176
     1
 90
       50
176
     1
290
     0
176
     1
 90
       50
176
     1
 62
   256
176
     0
 40
1.0
176
     0
 90
        2
176
     1
  1
strokes_ogs.tif
176
     1
290
     0
176
     1
 40
1.0
176
     1
 40
1.0
176
     1
1001
ACAD
1000
AcDbSavedByObjectVersion
1070
     0
  0
VISUALSTYLE
  5
3B
102
{ACAD_REACTORS
330
29
102
}
330
29
100
AcDbVisualStyle
  2

 70
    24
177
     3
291
     0
 70
    58
 90
        1
176
     1
 90
        2
176
     1
 90
        2
176
     1
 90
        0
176
     1
 40
0.6
176
     1
 40
30.0
176
     1
 62
     7
176
     1
 90
        2
176
     1
 90
        2
176
     1
 62
     7
176
     1
 62
     7
176
     1
 90
        1
176
     1
 90
        1
176
     1
 40
40.0
176
     1
 90
       11
176
     1
 62
     7
176
     1
 40
1.0
176
     1
 90
        1
176
     1
 90
        6
176
     1
 90
        2
176
     1
 62
     7
176
     1
 90
        6
176
     1
 90
        0
176
     1
 90
        0
176
     1
290
     0
176
     1
 90
        1
176
     1
 40
0.0
176
     1
 90
        0
176
     1
290
     0
176
     1
290
     1
176
     1
290
     1
176
     1
290
     0
176
     1
290
     0
176
     1
290
     0
176
     1
290
     0
176
     1
290
     0
176
     1
290
     0
176
     1
 90
       50
176
     1
 40
0.0
176
     1
 40
1.0
176
     1
 90
        0
176
     1
 62
    18
420
        0
176
     1
 90
       50
176
     1
 90
        3
176
     1
 62
     5
420
      255
176
     1
290
     0
176
     1
 90
       50
176
     1
 90
       50
176
     1
 90
       50
176
     1
290
     0
176
     1
 90
       50
176
     1
 62
   256
176
     0
 40
1.0
176
     0
 90
        2
176
     1
  1
strokes_ogs.tif
176
     1
290
     0
176
     1
 40
1.0
176
     1
 40
1.0
176
     1
1001
ACAD
1000
AcDbSavedByObjectVersion
1070
     0
  0
VISUALSTYLE
  5
36
102
{ACAD_REACTORS
330
29
102
}
330
29
100
AcDbVisualStyle
  2

 70
    13
177
     3
291
     1
 70
    58
 90
        2
176
     1
 90
        2
176
     1
 90
        0
176
     1
 90
        0
176
     1
 40
0.6
176
     1
 40
30.0
176
     1
 62
     7
176
     1
 90
        1
176
     1
 90
        4
176
     1
 62
     7
176
     1
 62
   257
176
     1
 90
        1
176
     1
 90
        1
176
     1
 40
1.0
176
     1
 90
       12
176
     1
 62
     7
176
     1
 40
1.0
176
     1
 90
        1
176
     1
 90
        6
176
     1
 90
        2
176
     1
 62
     7
176
     1
 90
        5
176
     1
 90
        0
176
     1
 90
        0
176
     1
290
     0
176
     1
 90
        1
176
     1
 40
0.0
176
     1
 90
        0
176
     1
290
     0
176
     1
290
     1
176
     1
290
     1
176
     1
290
     0
176
     1
290
     0
176
     1
290
     0
176
     1
290
     0
176
     1
290
     0
176
     1
290
     0
176
     1
 90
       50
176
     1
 40
0.0
176
     1
 40
1.0
176
     1
 90
        0
176
     1
 62
    18
420
        0
176
     1
 90
       50
176
     1
 90
        3
176
     1
 62
     5
420
      255
176
     1
290
     0
176
     1
 90
       50
176
     1
 90
       50
176
     1
 90
       50
176
     1
290
     0
176
     1
 90
       50
176
     1
 62
   256
176
     0
 40
1.0
176
     0
 90
        2
176
     1
  1
strokes_ogs.tif
176
     1
290
     0
176
     1
 40
1.0
176
     1
 40
1.0
176
     1
1001
ACAD
1000
AcDbSavedByObjectVersion
1070
     0
  0
VISUALSTYLE
  5
30
102
{ACAD_REACTORS
330
29
102
}
330
29
100
AcDbVisualStyle
  2

 70
     5
177
     3
291
     0
 70
    58
 90
        0
176
     1
 90
        2
176
     1
 90
        0
176
     1
 90
        0
176
     1
 40
0.6
176
     1
 40
30.0
176
     1
 62
     7
176
     1
 90
        1
176
     1
 90
        4
176
     1
 62
     7
176
     1
 62
   257
176
     1
 90
        1
176
     1
 90
        1
176
     1
 40
1.0
176
     1
 90
        0
176
     1
 62
   257
176
     1
 40
1.0
176
     1
 90
        1
176
     1
 90
        6
176
     1
 90
        2
176
     1
 62
     7
176
     1
 90
        3
176
     1
 90
        0
176
     1
 90
        0
176
     1
290
     0
176
     1
 90
        1
176
     1
 40
0.0
176
     1
 90
        0
176
     1
290
     0
176
     1
290
     1
176
     1
290
     1
176
     1
290
     0
176
     1
290
     0
176
     1
290
     0
176
     1
290
     0
176
     1
290
     0
176
     1
290
     0
176
     1
 90
       50
176
     1
 40
0.0
176
     1
 40
1.0
176
     1
 90
        0
176
     1
 62
    18
420
        0
176
     1
 90
       50
176
     1
 90
        3
176
     1
 62
     5
420
      255
176
     1
290
     0
176
     1
 90
       50
176
     1
 90
       50
176
     1
 90
       50
176
     1
290
     0
176
     1
 90
       50
176
     1
 62
   256
176
     0
 40
1.0
176
     0
 90
        2
176
     1
  1
strokes_ogs.tif
176
     1
290
     0
176
     1
 40
1.0
176
     1
 40
1.0
176
     1
1001
ACAD
1000
AcDbSavedByObjectVersion
1070
     0
  0
VISUALSTYLE
  5
3C
102
{ACAD_REACTORS
330
29
102
}
330
29
100
AcDbVisualStyle
  2

 70
    25
177
     3
291
     0
 70
    58
 90
        2
176
     1
 90
        2
176
     1
 90
        1
176
     1
 90
        1
176
     1
 40
0.5
176
     1
 40
30.0
176
     1
 62
     7
176
     1
 90
        1
176
     1
 90
        0
176
     1
 62
     7
176
     1
 62
   257
176
     1
 90
        1
176
     1
 90
        1
176
     1
 40
1.0
176
     1
 90
        8
176
     1
 62
     7
176
     1
 40
1.0
176
     1
 90
        1
176
     1
 90
        6
176
     1
 90
        2
176
     1
 62
     7
176
     1
 90
        3
176
     1
 90
        0
176
     1
 90
        0
176
     1
290
     0
176
     1
 90
       13
176
     1
 40
0.0
176
     1
 90
        0
176
     1
290
     0
176
     1
290
     1
176
     1
290
     1
176
     1
290
     0
176
     1
290
     0
176
     1
290
     0
176
     1
290
     0
176
     1
290
     0
176
     1
290
     0
176
     1
 90
       50
176
     1
 40
0.0
176
     1
 40
1.0
176
     1
 90
        0
176
     1
 62
    18
420
        0
176
     1
 90
       50
176
     1
 90
        3
176
     1
 62
     5
420
      255
176
     1
290
     0
176
     1
 90
       50
176
     1
 90
       50
176
     1
 90
       50
176
     1
290
     0
176
     1
 90
       50
176
     1
 62
   256
176
     0
 40
1.0
176
     0
 90
        2
176
     1
  1
strokes_ogs.tif
176
     1
290
     0
176
     1
 40
1.0
176
     1
 40
1.0
176
     1
1001
ACAD
1000
AcDbSavedByObjectVersion
1070
     0
  0
DICTIONARYVAR
  5
5E8
102
{ACAD_REACTORS
330
5E3
102
}
330
5E3
100
DictionaryVariables
280
     0
  1
1:1
  0
DICTIONARYVAR
  5
5E5
102
{ACAD_REACTORS
330
5E3
102
}
330
5E3
100
DictionaryVariables
280
     0
  1
STANDARD
  0
DICTIONARYVAR
  5
5E4
102
{ACAD_REACTORS
330
5E3
102
}
330
5E3
100
DictionaryVariables
280
     0
  1
STANDARD
  0
DICTIONARYVAR
  5
5E6
102
{ACAD_REACTORS
330
5E3
102
}
330
5E3
100
DictionaryVariables
280
     0
  1
Imperial24
  0
DICTIONARYVAR
  5
5E7
102
{ACAD_REACTORS
330
5E3
102
}
330
5E3
100
DictionaryVariables
280
     0
  1
Imperial24
  0
DICTIONARYVAR
  5
5EB
102
{ACAD_REACTORS
330
5E3
102
}
330
5E3
100
DictionaryVariables
280
     0
  1
1
  0
DICTIONARYVAR
  5
5EA
102
{ACAD_REACTORS
330
5E3
102
}
330
5E3
100
DictionaryVariables
280
     0
  1
0
  0
DICTIONARYVAR
  5
653
102
{ACAD_REACTORS
330
5E3
102
}
330
5E3
100
DictionaryVariables
280
     0
  1
1
  0
DICTIONARYVAR
  5
654
102
{ACAD_REACTORS
330
5E3
102
}
330
5E3
100
DictionaryVariables
280
     0
  1
15
  0
DICTIONARYVAR
  5
652
102
{ACAD_REACTORS
330
5E3
102
}
330
5E3
100
DictionaryVariables
280
     0
  1
0
  0
DICTIONARYVAR
  5
651
102
{ACAD_REACTORS
330
5E3
102
}
330
5E3
100
DictionaryVariables
280
     0
  1
0
  0
DICTIONARYVAR
  5
5E9
102
{ACAD_REACTORS
330
5E3
102
}
330
5E3
100
DictionaryVariables
280
     0
  1
127
  0
DICTIONARY
  5
1A
330
19
100
AcDbDictionary
280
     1
281
     1
  3
ACAD_XREC_ROUNDTRIP
360
5F3
  3
BUMPTILE
360
1C
  3
DIFFUSETILE
360
1B
  3
OPACITYTILE
360
1F
  3
REFLECTIONTILE
360
1E
  3
REFRACTIONTILE
360
20
  3
SPECULARTILE
360
1D
  0
DICTIONARY
  5
12
330
11
100
AcDbDictionary
280
     1
281
     1
  3
ACAD_XREC_ROUNDTRIP
360
5F2
  3
BUMPTILE
360
14
  3
DIFFUSETILE
360
13
  3
OPACITYTILE
360
17
  3
REFLECTIONTILE
360
16
  3
REFRACTIONTILE
360
18
  3
SPECULARTILE
360
15
  0
DICTIONARY
  5
22
330
21
100
AcDbDictionary
280
     1
281
     1
  3
ACAD_XREC_ROUNDTRIP
360
5F4
  3
BUMPTILE
360
24
  3
DIFFUSETILE
360
23
  3
OPACITYTILE
360
27
  3
REFLECTIONTILE
360
26
  3
REFRACTIONTILE
360
28
  3
SPECULARTILE
360
25
  0
DICTIONARY
  5
5EE
330
64
100
AcDbDictionary
280
     1
281
     1
  3
ACAD_ROUNDTRIP_2008_TABLESTYLE_CELLSTYLEMAP
360
655
  0
XRECORD
  5
5F3
102
{ACAD_REACTORS
330
1A
102
}
330
1A
100
AcDbXrecord
280
     1
102
MATERIAL
148
0.0
149
0.0
149
0.0
 93
        0
 94
      127
282
     0
 72
     0
 77
     0
171
     0
175
     0
179
     0
273
     0
  0
XRECORD
  5
1C
102
{ACAD_REACTORS
330
1A
102
}
330
1A
100
AcDbXrecord
280
     1
270
     1
271
     1
  0
XRECORD
  5
1B
102
{ACAD_REACTORS
330
1A
102
}
330
1A
100
AcDbXrecord
280
     1
270
     1
271
     1
  0
XRECORD
  5
1F
102
{ACAD_REACTORS
330
1A
102
}
330
1A
100
AcDbXrecord
280
     1
270
     1
271
     1
  0
XRECORD
  5
1E
102
{ACAD_REACTORS
330
1A
102
}
330
1A
100
AcDbXrecord
280
     1
270
     1
271
     1
  0
XRECORD
  5
20
102
{ACAD_REACTORS
330
1A
102
}
330
1A
100
AcDbXrecord
280
     1
270
     1
271
     1
  0
XRECORD
  5
1D
102
{ACAD_REACTORS
330
1A
102
}
330
1A
100
AcDbXrecord
280
     1
270
     1
271
     1
  0
XRECORD
  5
5F2
102
{ACAD_REACTORS
330
12
102
}
330
12
100
AcDbXrecord
280
     1
102
MATERIAL
148
0.0
149
0.0
149
0.0
 93
        0
 94
      127
282
     0
 72
     0
 77
     0
171
     0
175
     0
179
     0
273
     0
  0
XRECORD
  5
14
102
{ACAD_REACTORS
330
12
102
}
330
12
100
AcDbXrecord
280
     1
270
     1
271
     1
  0
XRECORD
  5
13
102
{ACAD_REACTORS
330
12
102
}
330
12
100
AcDbXrecord
280
     1
270
     1
271
     1
  0
XRECORD
  5
17
102
{ACAD_REACTORS
330
12
102
}
330
12
100
AcDbXrecord
280
     1
270
     1
271
     1
  0
XRECORD
  5
16
102
{ACAD_REACTORS
330
12
102
}
330
12
100
AcDbXrecord
280
     1
270
     1
271
     1
  0
XRECORD
  5
18
102
{ACAD_REACTORS
330
12
102
}
330
12
100
AcDbXrecord
280
     1
270
     1
271
     1
  0
XRECORD
  5
15
102
{ACAD_REACTORS
330
12
102
}
330
12
100
AcDbXrecord
280
     1
270
     1
271
     1
  0
XRECORD
  5
5F4
102
{ACAD_REACTORS
330
22
102
}
330
22
100
AcDbXrecord
280
     1
102
MATERIAL
148
0.0
149
0.0
149
0.0
 93
        0
 94
      127
282
     0
 72
     0
 77
     0
171
     0
175
     0
179
     0
273
     0
  0
XRECORD
  5
24
102
{ACAD_REACTORS
330
22
102
}
330
22
100
AcDbXrecord
280
     1
270
     1
271
     1
  0
XRECORD
  5
23
102
{ACAD_REACTORS
330
22
102
}
330
22
100
AcDbXrecord
280
     1
270
     1
271
     1
  0
XRECORD
  5
27
102
{ACAD_REACTORS
330
22
102
}
330
22
100
AcDbXrecord
280
     1
270
     1
271
     1
  0
XRECORD
  5
26
102
{ACAD_REACTORS
330
22
102
}
330
22
100
AcDbXrecord
280
     1
270
     1
271
     1
  0
XRECORD
  5
28
102
{ACAD_REACTORS
330
22
102
}
330
22
100
AcDbXrecord
280
     1
270
     1
271
     1
  0
XRECORD
  5
25
102
{ACAD_REACTORS
330
22
102
}
330
22
100
AcDbXrecord
280
     1
270
     1
271
     1
  0
CELLSTYLEMAP
  5
655
102
{ACAD_REACTORS
330
5EE
102
}
330
5EE
100
AcDbCellStyleMap
 90
        3
300
CELLSTYLE
  1
TABLEFORMAT_BEGIN
 90
        5
170
     1
 91
        0
 92
    32768
 62
   257
 93
        1
300
CONTENTFORMAT
  1
CONTENTFORMAT_BEGIN
 90
        0
 91
        0
 92
      512
 93
        0
300

 40
0.0
140
1.0
 94
        5
 62
     0
340
55
144
0.25
309
CONTENTFORMAT_END
171
     1
301
MARGIN
  1
CELLMARGIN_BEGIN
 40
0.06
 40
0.06
 40
0.06
 40
0.06
 40
0.18
 40
0.18
309
CELLMARGIN_END
 94
        6
 95
        1
302
GRIDFORMAT
  1
GRIDFORMAT_BEGIN
 90
        0
 91
        1
 62
     0
 92
       -2
340
0
 93
        0
 40
0.045
309
GRIDFORMAT_END
 95
        2
302
GRIDFORMAT
  1
GRIDFORMAT_BEGIN
 90
        0
 91
        1
 62
     0
 92
       -2
340
0
 93
        0
 40
0.045
309
GRIDFORMAT_END
 95
        4
302
GRIDFORMAT
  1
GRIDFORMAT_BEGIN
 90
        0
 91
        1
 62
     0
 92
       -2
340
0
 93
        0
 40
0.045
309
GRIDFORMAT_END
 95
        8
302
GRIDFORMAT
  1
GRIDFORMAT_BEGIN
 90
        0
 91
        1
 62
     0
 92
       -2
340
0
 93
        0
 40
0.045
309
GRIDFORMAT_END
 95
       16
302
GRIDFORMAT
  1
GRIDFORMAT_BEGIN
 90
        0
 91
        1
 62
     0
 92
       -2
340
0
 93
        0
 40
0.045
309
GRIDFORMAT_END
 95
       32
302
GRIDFORMAT
  1
GRIDFORMAT_BEGIN
 90
        0
 91
        1
 62
     0
 92
       -2
340
0
 93
        0
 40
0.045
309
GRIDFORMAT_END
309
TABLEFORMAT_END
  1
CELLSTYLE_BEGIN
 90
        1
 91
        1
300
_TITLE
309
CELLSTYLE_END
300
CELLSTYLE
  1
TABLEFORMAT_BEGIN
 90
        5
170
     1
 91
        0
 92
        0
 62
   257
 93
        1
300
CONTENTFORMAT
  1
CONTENTFORMAT_BEGIN
 90
        0
 91
        0
 92
      512
 93
        0
300

 40
0.0
140
1.0
 94
        5
 62
     0
340
55
144
0.18
309
CONTENTFORMAT_END
171
     1
301
MARGIN
  1
CELLMARGIN_BEGIN
 40
0.06
 40
0.06
 40
0.06
 40
0.06
 40
0.18
 40
0.18
309
CELLMARGIN_END
 94
        6
 95
        1
302
GRIDFORMAT
  1
GRIDFORMAT_BEGIN
 90
        0
 91
        1
 62
     0
 92
       -2
340
0
 93
        0
 40
0.045
309
GRIDFORMAT_END
 95
        2
302
GRIDFORMAT
  1
GRIDFORMAT_BEGIN
 90
        0
 91
        1
 62
     0
 92
       -2
340
0
 93
        0
 40
0.045
309
GRIDFORMAT_END
 95
        4
302
GRIDFORMAT
  1
GRIDFORMAT_BEGIN
 90
        0
 91
        1
 62
     0
 92
       -2
340
0
 93
        0
 40
0.045
309
GRIDFORMAT_END
 95
        8
302
GRIDFORMAT
  1
GRIDFORMAT_BEGIN
 90
        0
 91
        1
 62
     0
 92
       -2
340
0
 93
        0
 40
0.045
309
GRIDFORMAT_END
 95
       16
302
GRIDFORMAT
  1
GRIDFORMAT_BEGIN
 90
        0
 91
        1
 62
     0
 92
       -2
340
0
 93
        0
 40
0.045
309
GRIDFORMAT_END
 95
       32
302
GRIDFORMAT
  1
GRIDFORMAT_BEGIN
 90
        0
 91
        1
 62
     0
 92
       -2
340
0
 93
        0
 40
0.045
309
GRIDFORMAT_END
309
TABLEFORMAT_END
  1
CELLSTYLE_BEGIN
 90
        2
 91
        1
300
_HEADER
309
CELLSTYLE_END
300
CELLSTYLE
  1
TABLEFORMAT_BEGIN
 90
        5
170
     1
 91
        0
 92
        0
 62
   257
 93
        1
300
CONTENTFORMAT
  1
CONTENTFORMAT_BEGIN
 90
        0
 91
        0
 92
      512
 93
        0
300

 40
0.0
140
1.0
 94
        2
 62
     0
340
55
144
0.18
309
CONTENTFORMAT_END
171
     1
301
MARGIN
  1
CELLMARGIN_BEGIN
 40
0.06
 40
0.06
 40
0.06
 40
0.06
 40
0.18
 40
0.18
309
CELLMARGIN_END
 94
        6
 95
        1
302
GRIDFORMAT
  1
GRIDFORMAT_BEGIN
 90
        0
 91
        1
 62
     0
 92
       -2
340
0
 93
        0
 40
0.045
309
GRIDFORMAT_END
 95
        2
302
GRIDFORMAT
  1
GRIDFORMAT_BEGIN
 90
        0
 91
        1
 62
     0
 92
       -2
340
0
 93
        0
 40
0.045
309
GRIDFORMAT_END
 95
        4
302
GRIDFORMAT
  1
GRIDFORMAT_BEGIN
 90
        0
 91
        1
 62
     0
 92
       -2
340
0
 93
        0
 40
0.045
309
GRIDFORMAT_END
 95
        8
302
GRIDFORMAT
  1
GRIDFORMAT_BEGIN
 90
        0
 91
        1
 62
     0
 92
       -2
340
0
 93
        0
 40
0.045
309
GRIDFORMAT_END
 95
       16
302
GRIDFORMAT
  1
GRIDFORMAT_BEGIN
 90
        0
 91
        1
 62
     0
 92
       -2
340
0
 93
        0
 40
0.045
309
GRIDFORMAT_END
 95
       32
302
GRIDFORMAT
  1
GRIDFORMAT_BEGIN
 90
        0
 91
        1
 62
     0
 92
       -2
340
0
 93
        0
 40
0.045
309
GRIDFORMAT_END
309
TABLEFORMAT_END
  1
CELLSTYLE_BEGIN
 90
        3
 91
        2
300
_DATA
309
CELLSTYLE_END
  0
ENDSEC
  0
EOF
