  0
SECTION
  2
HEADER
  9
$ACADVER
  1
AC1032
  9
$ACADMAINTVER
 90
      197
  9
$DWGCODEPAGE
  3
ANSI_932
  9
$LASTSAVEDBY
  1
hiro-ichiyama
  9
$REQUIREDVERSIONS
160
                 0
  9
$INSBASE
 10
0.0
 20
0.0
 30
0.0
  9
$EXTMIN
 10
33.25789717601344
 20
27.52034515181315
 30
0.0
  9
$EXTMAX
 10
793.5966754467925
 20
574.6750674359868
 30
0.0
  9
$LIMMIN
 10
0.0
 20
0.0
  9
$LIMMAX
 10
594.0
 20
841.0
  9
$ORTHOMODE
 70
     0
  9
$REGENMODE
 70
     1
  9
$FILLMODE
 70
     1
  9
$QTEXTMODE
 70
     0
  9
$MIRRTEXT
 70
     0
  9
$LTSCALE
 40
20.0
  9
$ATTMODE
 70
     1
  9
$TEXTSIZE
 40
4.0
  9
$TRACEWID
 40
0.05
  9
$TEXTSTYLE
  7
STANDARD
  9
$CLAYER
  8
0
  9
$CELTYPE
  6
CONTINUOUS
  9
$CECOLOR
 62
   256
  9
$CELTSCALE
 40
1.0
  9
$DISPSILH
 70
     0
  9
$DIMSCALE
 40
1.0
  9
$DIMASZ
 40
1.0
  9
$DIMEXO
 40
0.8
  9
$DIMDLI
 40
0.38
  9
$DIMRND
 40
0.0
  9
$DIMDLE
 40
0.0
  9
$DIMEXE
 40
1.0
  9
$DIMTP
 40
0.0
  9
$DIMTM
 40
0.0
  9
$DIMTXT
 40
3.1
  9
$DIMCEN
 40
0.09
  9
$DIMTSZ
 40
0.0
  9
$DIMTOL
 70
     0
  9
$DIMLIM
 70
     0
  9
$DIMTIH
 70
     0
  9
$DIMTOH
 70
     0
  9
$DIMSE1
 70
     0
  9
$DIMSE2
 70
     0
  9
$DIMTAD
 70
     1
  9
$DIMZIN
 70
     0
  9
$DIMBLK
  1

  9
$DIMASO
 70
     1
  9
$DIMSHO
 70
     1
  9
$DIMPOST
  1

  9
$DIMAPOST
  1

  9
$DIMALT
 70
     0
  9
$DIMALTD
 70
     2
  9
$DIMALTF
 40
25.4
  9
$DIMLFAC
 40
1.0
  9
$DIMTOFL
 70
     0
  9
$DIMTVP
 40
0.5
  9
$DIMTIX
 70
     0
  9
$DIMSOXD
 70
     0
  9
$DIMSAH
 70
     0
  9
$DIMBLK1
  1

  9
$DIMBLK2
  1

  9
$DIMSTYLE
  2
Standard
  9
$DIMCLRD
 70
     0
  9
$DIMCLRE
 70
     0
  9
$DIMCLRT
 70
     0
  9
$DIMTFAC
 40
1.0
  9
$DIMGAP
 40
0.09
  9
$DIMJUST
 70
     0
  9
$DIMSD1
 70
     0
  9
$DIMSD2
 70
     0
  9
$DIMTOLJ
 70
     1
  9
$DIMTZIN
 70
     0
  9
$DIMALTZ
 70
     0
  9
$DIMALTTZ
 70
     0
  9
$DIMUPT
 70
     0
  9
$DIMDEC
 70
     4
  9
$DIMTDEC
 70
     4
  9
$DIMALTU
 70
     2
  9
$DIMALTTD
 70
     2
  9
$DIMTXSTY
  7
STANDARD
  9
$DIMAUNIT
 70
     0
  9
$DIMADEC
 70
     0
  9
$DIMALTRND
 40
0.0
  9
$DIMAZIN
 70
     0
  9
$DIMDSEP
 70
    46
  9
$DIMATFIT
 70
     3
  9
$DIMFRAC
 70
     0
  9
$DIMLDRBLK
  1

  9
$DIMLUNIT
 70
     2
  9
$DIMLWD
 70
    -2
  9
$DIMLWE
 70
    -2
  9
$DIMTMOVE
 70
     0
  9
$DIMFXL
 40
1.0
  9
$DIMFXLON
 70
     0
  9
$DIMJOGANG
 40
0.7853981633974483
  9
$DIMTFILL
 70
     0
  9
$DIMTFILLCLR
 70
     0
  9
$DIMARCSYM
 70
     0
  9
$DIMLTYPE
  6

  9
$DIMLTEX1
  6

  9
$DIMLTEX2
  6

  9
$DIMTXTDIRECTION
 70
     0
  9
$LUNITS
 70
     2
  9
$LUPREC
 70
     4
  9
$SKETCHINC
 40
0.1
  9
$FILLETRAD
 40
0.0
  9
$AUNITS
 70
     0
  9
$AUPREC
 70
     0
  9
$MENU
  1
.
  9
$ELEVATION
 40
0.0
  9
$PELEVATION
 40
0.0
  9
$THICKNESS
 40
0.0
  9
$LIMCHECK
 70
     0
  9
$CHAMFERA
 40
0.0
  9
$CHAMFERB
 40
0.0
  9
$CHAMFERC
 40
0.0
  9
$CHAMFERD
 40
0.0
  9
$SKPOLY
 70
     0
  9
$TDCREATE
 40
2459009.469884259
  9
$TDUCREATE
 40
2459009.094884259
  9
$TDUPDATE
 40
2459991.653877314
  9
$TDUUPDATE
 40
2459991.278877315
  9
$TDINDWG
 40
0.0056597222
  9
$TDUSRTIMER
 40
0.0056597222
  9
$USRTIMER
 70
     1
  9
$ANGBASE
 50
0.0
  9
$ANGDIR
 70
     0
  9
$PDMODE
 70
     0
  9
$PDSIZE
 40
0.0
  9
$PLINEWID
 40
0.0
  9
$SPLFRAME
 70
     0
  9
$SPLINETYPE
 70
     6
  9
$SPLINESEGS
 70
     8
  9
$HANDSEED
  5
603
  9
$SURFTAB1
 70
     6
  9
$SURFTAB2
 70
     6
  9
$SURFTYPE
 70
     6
  9
$SURFU
 70
     6
  9
$SURFV
 70
     6
  9
$UCSBASE
  2

  9
$UCSNAME
  2

  9
$UCSORG
 10
0.0
 20
0.0
 30
0.0
  9
$UCSXDIR
 10
1.0
 20
0.0
 30
0.0
  9
$UCSYDIR
 10
0.0
 20
1.0
 30
0.0
  9
$UCSORTHOREF
  2

  9
$UCSORTHOVIEW
 70
     0
  9
$UCSORGTOP
 10
0.0
 20
0.0
 30
0.0
  9
$UCSORGBOTTOM
 10
0.0
 20
0.0
 30
0.0
  9
$UCSORGLEFT
 10
0.0
 20
0.0
 30
0.0
  9
$UCSORGRIGHT
 10
0.0
 20
0.0
 30
0.0
  9
$UCSORGFRONT
 10
0.0
 20
0.0
 30
0.0
  9
$UCSORGBACK
 10
0.0
 20
0.0
 30
0.0
  9
$PUCSBASE
  2

  9
$PUCSNAME
  2

  9
$PUCSORG
 10
0.0
 20
0.0
 30
0.0
  9
$PUCSXDIR
 10
1.0
 20
0.0
 30
0.0
  9
$PUCSYDIR
 10
0.0
 20
1.0
 30
0.0
  9
$PUCSORTHOREF
  2

  9
$PUCSORTHOVIEW
 70
     0
  9
$PUCSORGTOP
 10
0.0
 20
0.0
 30
0.0
  9
$PUCSORGBOTTOM
 10
0.0
 20
0.0
 30
0.0
  9
$PUCSORGLEFT
 10
0.0
 20
0.0
 30
0.0
  9
$PUCSORGRIGHT
 10
0.0
 20
0.0
 30
0.0
  9
$PUCSORGFRONT
 10
0.0
 20
0.0
 30
0.0
  9
$PUCSORGBACK
 10
0.0
 20
0.0
 30
0.0
  9
$USERI1
 70
     0
  9
$USERI2
 70
     0
  9
$USERI3
 70
     0
  9
$USERI4
 70
     0
  9
$USERI5
 70
     0
  9
$USERR1
 40
0.0
  9
$USERR2
 40
0.0
  9
$USERR3
 40
0.0
  9
$USERR4
 40
0.0
  9
$USERR5
 40
0.0
  9
$WORLDVIEW
 70
     1
  9
$SHADEDGE
 70
     3
  9
$SHADEDIF
 70
    70
  9
$TILEMODE
 70
     1
  9
$MAXACTVP
 70
    64
  9
$PINSBASE
 10
0.0
 20
0.0
 30
0.0
  9
$PLIMCHECK
 70
     0
  9
$PEXTMIN
 10
1.000000000000000E+20
 20
1.000000000000000E+20
 30
1.000000000000000E+20
  9
$PEXTMAX
 10
-1.000000000000000E+20
 20
-1.000000000000000E+20
 30
-1.000000000000000E+20
  9
$PLIMMIN
 10
0.0
 20
0.0
  9
$PLIMMAX
 10
12.0
 20
9.0
  9
$UNITMODE
 70
     0
  9
$VISRETAIN
 70
     1
  9
$PLINEGEN
 70
     0
  9
$PSLTSCALE
 70
     1
  9
$TREEDEPTH
 70
  3020
  9
$CMLSTYLE
  2
Standard
  9
$CMLJUST
 70
     0
  9
$CMLSCALE
 40
1.0
  9
$PROXYGRAPHICS
 70
     1
  9
$MEASUREMENT
 70
     1
  9
$CELWEIGHT
370
    -1
  9
$ENDCAPS
280
     0
  9
$JOINSTYLE
280
     0
  9
$LWDISPLAY
290
     0
  9
$INSUNITS
 70
     0
  9
$HYPERLINKBASE
  1

  9
$STYLESHEET
  1

  9
$XEDIT
290
     1
  9
$CEPSNTYPE
380
     0
  9
$PSTYLEMODE
290
     1
  9
$FINGERPRINTGUID
  2
{D9540EB5-D289-344B-B667-481A36160791}
  9
$VERSIONGUID
  2
{A2AD86BC-F2A4-AE4E-BCF5-6154B1707AE7}
  9
$EXTNAMES
290
     1
  9
$PSVPSCALE
 40
0.0
  9
$OLESTARTUP
290
     0
  9
$SORTENTS
280
   127
  9
$INDEXCTL
280
     0
  9
$HIDETEXT
280
     0
  9
$XCLIPFRAME
280
     2
  9
$HALOGAP
280
     0
  9
$OBSCOLOR
 70
   257
  9
$OBSLTYPE
280
     0
  9
$INTERSECTIONDISPLAY
280
     0
  9
$INTERSECTIONCOLOR
 70
   257
  9
$DIMASSOC
280
     1
  9
$PROJECTNAME
  1

  9
$CAMERADISPLAY
290
     0
  9
$LENSLENGTH
 40
50.0
  9
$CAMERAHEIGHT
 40
0.0
  9
$STEPSPERSEC
 40
2.0
  9
$STEPSIZE
 40
6.0
  9
$3DDWFPREC
 40
2.0
  9
$PSOLWIDTH
 40
0.25
  9
$PSOLHEIGHT
 40
4.0
  9
$LOFTANG1
 40
1.570796326794896
  9
$LOFTANG2
 40
1.570796326794896
  9
$LOFTMAG1
 40
0.0
  9
$LOFTMAG2
 40
0.0
  9
$LOFTPARAM
 70
     7
  9
$LOFTNORMALS
280
     1
  9
$LATITUDE
 40
37.795
  9
$LONGITUDE
 40
-122.394
  9
$NORTHDIRECTION
 40
0.0
  9
$TIMEZONE
 70
 -8000
  9
$LIGHTGLYPHDISPLAY
280
     1
  9
$TILEMODELIGHTSYNCH
280
     1
  9
$CMATERIAL
347
11
  9
$SOLIDHIST
280
     0
  9
$SHOWHIST
280
     1
  9
$DWFFRAME
280
     2
  9
$DGNFRAME
280
     0
  9
$REALWORLDSCALE
290
     1
  9
$INTERFERECOLOR
 62
     1
  9
$INTERFEREOBJVS
345
33
  9
$INTERFEREVPVS
346
30
  9
$CSHADOW
280
     0
  9
$SHADOWPLANELOCATION
 40
0.0
  0
ENDSEC
  0
SECTION
  2
CLASSES
  0
CLASS
  1
ACDBDICTIONARYWDFLT
  2
AcDbDictionaryWithDefault
  3
ObjectDBX Classes
 90
        0
 91
        1
280
     0
281
     0
  0
CLASS
  1
MATERIAL
  2
AcDbMaterial
  3
ObjectDBX Classes
 90
     1153
 91
        3
280
     0
281
     0
  0
CLASS
  1
VISUALSTYLE
  2
AcDbVisualStyle
  3
ObjectDBX Classes
 90
     4095
 91
       24
280
     0
281
     0
  0
CLASS
  1
SCALE
  2
AcDbScale
  3
ObjectDBX Classes
 90
     1153
 91
       17
280
     0
281
     0
  0
CLASS
  1
TABLESTYLE
  2
AcDbTableStyle
  3
ObjectDBX Classes
 90
     4095
 91
        1
280
     0
281
     0
  0
CLASS
  1
MLEADERSTYLE
  2
AcDbMLeaderStyle
  3
ACDB_MLEADERSTYLE_CLASS
 90
     4095
 91
        1
280
     0
281
     0
  0
CLASS
  1
ACDBSECTIONVIEWSTYLE
  2
AcDbSectionViewStyle
  3
ObjectDBX Classes
 90
     1025
 91
        2
280
     0
281
     0
  0
CLASS
  1
ACDBDETAILVIEWSTYLE
  2
AcDbDetailViewStyle
  3
ObjectDBX Classes
 90
     1025
 91
        2
280
     0
281
     0
  0
CLASS
  1
DICTIONARYVAR
  2
AcDbDictionaryVar
  3
ObjectDBX Classes
 90
        0
 91
       13
280
     0
281
     0
  0
CLASS
  1
CELLSTYLEMAP
  2
AcDbCellStyleMap
  3
ObjectDBX Classes
 90
     1152
 91
        2
280
     0
281
     0
  0
ENDSEC
  0
SECTION
  2
TABLES
  0
TABLE
  2
VPORT
  5
8
330
0
100
AcDbSymbolTable
 70
     1
  0
VPORT
  5
83
330
8
100
AcDbSymbolTableRecord
100
AcDbViewportTableRecord
  2
*Active
 70
     0
 10
0.0
 20
0.0
 11
1.0
 21
1.0
 12
463.595950483913
 22
244.6953886718579
 13
0.0
 23
0.0
 14
1.0
 24
1.0
 15
0.0
 25
0.0
 16
0.0
 26
0.0
 36
1.0
 17
0.0
 27
0.0
 37
0.0
 40
855.1312609529968
 41
2.295757575757575
 42
50.0
 43
0.0
 44
0.0
 50
0.0
 51
0.0
 71
     0
 72
   100
 73
     1
 74
     0
 75
     1
 76
     0
 77
     0
 78
     0
281
     0
 65
     1
110
0.0
120
0.0
130
0.0
111
1.0
121
0.0
131
0.0
112
0.0
122
1.0
132
0.0
 79
     0
146
0.0
348
2F
 60
     3
 61
     5
292
     1
282
     1
141
0.0
142
0.0
 63
   250
421
  3355443
1001
ACAD_NAV_VCDISPLAY
1070
     3
  0
ENDTAB
  0
TABLE
  2
LTYPE
  5
5
330
0
100
AcDbSymbolTable
 70
     4
  0
LTYPE
  5
5A
330
5
100
AcDbSymbolTableRecord
100
AcDbLinetypeTableRecord
  2
ByBlock
 70
     0
  3

 72
    65
 73
     0
 40
0.0
  0
LTYPE
  5
5B
330
5
100
AcDbSymbolTableRecord
100
AcDbLinetypeTableRecord
  2
ByLayer
 70
     0
  3

 72
    65
 73
     0
 40
0.0
  0
LTYPE
  5
5C
330
5
100
AcDbSymbolTableRecord
100
AcDbLinetypeTableRecord
  2
CONTINUOUS
 70
     0
  3
Solid line (NEC CAE2D for Win R13.1 : 2017.01.12)
 72
    65
 73
     0
 40
0.0
  0
LTYPE
  5
73
330
5
100
AcDbSymbolTableRecord
100
AcDbLinetypeTableRecord
  2
HIDDEN
 70
     0
  3
__ __ __ __ __ __ __ __ __ __ __ __ __ __
 72
    65
 73
     2
 40
0.375
 49
0.25
 74
     0
 49
-0.125
 74
     0
  0
LTYPE
  5
74
330
5
100
AcDbSymbolTableRecord
100
AcDbLinetypeTableRecord
  2
CENTER
 70
     0
  3
____ _ ____ _ ____ _ ____ _ ____ _ ____
 72
    65
 73
     4
 40
2.0
 49
1.25
 74
     0
 49
-0.25
 74
     0
 49
0.25
 74
     0
 49
-0.25
 74
     0
  0
ENDTAB
  0
TABLE
  2
LAYER
  5
2
330
0
100
AcDbSymbolTable
 70
     8
  0
LAYER
  5
54
102
{ACAD_XDICTIONARY
360
596
102
}
330
2
100
AcDbSymbolTableRecord
100
AcDbLayerTableRecord
  2
0
 70
     0
 62
     7
  6
CONTINUOUS
370
    -3
390
F
347
21
348
0
  0
LAYER
  5
76
102
{ACAD_XDICTIONARY
360
598
102
}
330
2
100
AcDbSymbolTableRecord
100
AcDbLayerTableRecord
  2
LOUVER
 70
     0
 62
     4
  6
CONTINUOUS
370
    -3
390
F
347
21
348
0
  0
LAYER
  5
77
102
{ACAD_XDICTIONARY
360
59A
102
}
330
2
100
AcDbSymbolTableRecord
100
AcDbLayerTableRecord
  2
UKEZAI
 70
     0
 62
     5
  6
CONTINUOUS
370
    -3
390
F
347
21
348
0
  0
LAYER
  5
78
102
{ACAD_XDICTIONARY
360
59C
102
}
330
2
100
AcDbSymbolTableRecord
100
AcDbLayerTableRecord
  2
ANCHOR
 70
     0
 62
     2
  6
CONTINUOUS
370
    -3
390
F
347
21
348
0
  0
LAYER
  5
79
102
{ACAD_XDICTIONARY
360
59E
102
}
330
2
100
AcDbSymbolTableRecord
100
AcDbLayerTableRecord
  2
KUTAI
 70
     0
 62
     6
  6
CONTINUOUS
370
    -3
390
F
347
21
348
0
  0
LAYER
  5
7A
102
{ACAD_XDICTIONARY
360
5A0
102
}
330
2
100
AcDbSymbolTableRecord
100
AcDbLayerTableRecord
  2
WASHER
 70
     0
 62
     2
  6
CONTINUOUS
370
    -3
390
F
347
21
348
0
  0
LAYER
  5
7B
102
{ACAD_XDICTIONARY
360
5A2
102
}
330
2
100
AcDbSymbolTableRecord
100
AcDbLayerTableRecord
  2
COMMENT
 70
     0
 62
     3
  6
CONTINUOUS
370
    -3
390
F
347
21
348
0
  0
LAYER
  5
7C
102
{ACAD_XDICTIONARY
360
5A4
102
}
330
2
100
AcDbSymbolTableRecord
100
AcDbLayerTableRecord
  2
WAKU
 70
     0
 62
     1
  6
CONTINUOUS
370
    -3
390
F
347
21
348
0
  0
ENDTAB
  0
TABLE
  2
STYLE
  5
3
330
0
100
AcDbSymbolTable
 70
     5
  0
STYLE
  5
55
330
3
100
AcDbSymbolTableRecord
100
AcDbTextStyleTableRecord
  2
STANDARD
 70
     0
 40
0.0
 41
1.0
 50
0.0
 71
     0
 42
4.0
  3
TXT
  4

  0
STYLE
  5
59
330
3
100
AcDbSymbolTableRecord
100
AcDbTextStyleTableRecord
  2
Annotative
 70
     0
 40
0.0
 41
1.0
 50
0.0
 71
     0
 42
0.2
  3
txt
  4

1001
AcadAnnotative
1000
AnnotativeData
1002
{
1070
     1
1070
     1
1002
}
  0
STYLE
  5
7E
330
3
100
AcDbSymbolTableRecord
100
AcDbTextStyleTableRecord
  2
ANKTATE
 70
     4
 40
0.0
 41
1.0
 50
0.0
 71
     0
 42
4.0
  3
TXT
  4

  0
STYLE
  5
7F
330
3
100
AcDbSymbolTableRecord
100
AcDbTextStyleTableRecord
  2
KNJYOKO
 70
     0
 40
0.0
 41
1.0
 50
0.0
 71
     0
 42
4.0
  3
TXT
  4
BIGFONT
  0
STYLE
  5
80
330
3
100
AcDbSymbolTableRecord
100
AcDbTextStyleTableRecord
  2
KNJTATE
 70
     4
 40
0.0
 41
1.0
 50
0.0
 71
     0
 42
4.0
  3
TXT
  4
BIGFONT
  0
ENDTAB
  0
TABLE
  2
VIEW
  5
6
330
0
100
AcDbSymbolTable
 70
     0
  0
ENDTAB
  0
TABLE
  2
UCS
  5
7
330
0
100
AcDbSymbolTable
 70
     0
  0
ENDTAB
  0
TABLE
  2
APPID
  5
9
330
0
100
AcDbSymbolTable
 70
     5
  0
APPID
  5
56
330
9
100
AcDbSymbolTableRecord
100
AcDbRegAppTableRecord
  2
ACAD
 70
     0
  0
APPID
  5
5D
330
9
100
AcDbSymbolTableRecord
100
AcDbRegAppTableRecord
  2
AcadAnnotative
 70
     0
  0
APPID
  5
594
330
9
100
AcDbSymbolTableRecord
100
AcDbRegAppTableRecord
  2
ACAD_EXEMPT_FROM_CAD_STANDARDS
 70
     0
  0
APPID
  5
5B0
330
9
100
AcDbSymbolTableRecord
100
AcDbRegAppTableRecord
  2
ACAD_NAV_VCDISPLAY
 70
     0
  0
APPID
  5
5E9
330
9
100
AcDbSymbolTableRecord
100
AcDbRegAppTableRecord
  2
ACAD_MLEADERVER
 70
     0
  0
ENDTAB
  0
TABLE
  2
DIMSTYLE
  5
A
330
0
100
AcDbSymbolTable
 70
     2
100
AcDbDimStyleTable
 71
     0
  0
DIMSTYLE
105
57
330
A
100
AcDbSymbolTableRecord
100
AcDbDimStyleTableRecord
  2
Standard
 70
     0
340
55
  0
DIMSTYLE
105
58
330
A
100
AcDbSymbolTableRecord
100
AcDbDimStyleTableRecord
  2
Annotative
 70
     0
340
55
1001
AcadAnnotative
1000
AnnotativeData
1002
{
1070
     1
1070
     1
1002
}
  0
ENDTAB
  0
TABLE
  2
BLOCK_RECORD
  5
1
330
0
100
AcDbSymbolTable
 70
     1
  0
BLOCK_RECORD
  5
6F
330
1
100
AcDbSymbolTableRecord
100
AcDbBlockTableRecord
  2
*Model_Space
340
72
 70
     0
280
     1
281
     0
  0
BLOCK_RECORD
  5
6B
330
1
100
AcDbSymbolTableRecord
100
AcDbBlockTableRecord
  2
*Paper_Space
340
6E
 70
     0
280
     1
281
     0
  0
BLOCK_RECORD
  5
84
330
1
100
AcDbSymbolTableRecord
100
AcDbBlockTableRecord
  2
*X0
340
0
102
{BLKREFS
331
FA
102
}
 70
     0
280
     1
281
     0
  0
ENDTAB
  0
ENDSEC
  0
SECTION
  2
BLOCKS
  0
BLOCK
  5
70
330
6F
100
AcDbEntity
  8
0
100
AcDbBlockBegin
  2
*Model_Space
 70
     0
 10
0.0
 20
0.0
 30
0.0
  3
*Model_Space
  1

  0
ENDBLK
  5
71
330
6F
100
AcDbEntity
  8
0
100
AcDbBlockEnd
  0
BLOCK
  5
6C
330
6B
100
AcDbEntity
 67
     1
  8
0
100
AcDbBlockBegin
  2
*Paper_Space
 70
     0
 10
0.0
 20
0.0
 30
0.0
  3
*Paper_Space
  1

  0
ENDBLK
  5
6D
330
6B
100
AcDbEntity
 67
     1
  8
0
100
AcDbBlockEnd
  0
BLOCK
  5
85
330
84
100
AcDbEntity
  8
KUTAI
  6
ByBlock
 62
    12
100
AcDbBlockBegin
  2
*X0
 70
     1
 10
0.0
 20
0.0
 30
0.0
  3
*X0
  1

  0
LINE
  5
86
330
84
100
AcDbEntity
  8
KUTAI
  6
ByBlock
 62
     0
100
AcDbLine
 10
212.7273721234332
 20
87.33644960962559
 30
0.0
 11
214.3273721234317
 21
88.93644960962364
 31
0.0
  0
LINE
  5
87
330
84
100
AcDbEntity
  8
KUTAI
  6
ByBlock
 62
     0
100
AcDbLine
 10
213.0509278357716
 20
86.24579175751655
 30
0.0
 11
214.3908846518858
 21
87.58574857507472
 31
0.0
  0
LINE
  5
88
330
84
100
AcDbEntity
  8
KUTAI
  6
ByBlock
 62
     0
100
AcDbLine
 10
212.7273721234332
 20
108.549653045222
 30
0.0
 11
214.3273721234304
 21
110.1496530452196
 31
0.0
  0
LINE
  5
89
330
84
100
AcDbEntity
  8
KUTAI
  6
ByBlock
 62
     0
100
AcDbLine
 10
241.1273721234333
 20
136.9496530452221
 30
0.0
 11
242.727372123432
 21
138.5496530452207
 31
0.0
  0
LINE
  5
8A
330
84
100
AcDbEntity
  8
KUTAI
  6
ByBlock
 62
     0
100
AcDbLine
 10
212.7273721234328
 20
107.1354394828479
 30
0.0
 11
214.3273721234317
 21
108.7354394828473
 31
0.0
  0
LINE
  5
8B
330
84
100
AcDbEntity
  8
KUTAI
  6
ByBlock
 62
     0
100
AcDbLine
 10
241.1273721234338
 20
135.5354394828492
 30
0.0
 11
242.7273721234333
 21
137.1354394828487
 31
0.0
  0
LINE
  5
8C
330
84
100
AcDbEntity
  8
KUTAI
  6
ByBlock
 62
     0
100
AcDbLine
 10
212.7273721234315
 20
129.7628564808165
 30
0.0
 11
214.3273721234309
 21
131.362856480816
 31
0.0
  0
LINE
  5
8D
330
84
100
AcDbEntity
  8
KUTAI
  6
ByBlock
 62
     0
100
AcDbLine
 10
226.7009652522406
 20
143.7364496096257
 30
0.0
 11
228.3009652522401
 21
145.3364496096252
 31
0.0
  0
LINE
  5
8E
330
84
100
AcDbEntity
  8
KUTAI
  6
ByBlock
 62
     0
100
AcDbLine
 10
212.7273721234324
 20
128.3486429184442
 30
0.0
 11
214.3273721234314
 21
129.9486429184427
 31
0.0
  0
LINE
  5
8F
330
84
100
AcDbEntity
  8
KUTAI
  6
ByBlock
 62
     0
100
AcDbLine
 10
228.1151788146158
 20
143.7364496096272
 30
0.0
 11
229.7151788146125
 21
145.3364496096243
 31
0.0
  0
LINE
  5
90
330
84
100
AcDbEntity
  8
KUTAI
  6
ByBlock
 62
     0
100
AcDbLine
 10
231.9405755590291
 20
85.33644960962519
 30
0.0
 11
233.5405755590271
 21
86.93644960962277
 31
0.0
  0
LINE
  5
91
330
84
100
AcDbEntity
  8
KUTAI
  6
ByBlock
 62
     0
100
AcDbLine
 10
241.1273721234342
 20
94.52324617403023
 30
0.0
 11
241.9405755590264
 21
95.3364496096224
 31
0.0
  0
LINE
  5
92
330
84
100
AcDbEntity
  8
KUTAI
  6
ByBlock
 62
     0
100
AcDbLine
 10
233.3547891214028
 20
85.33644960962558
 30
0.0
 11
234.9547891214004
 21
86.93644960962322
 31
0.0
  0
LINE
  5
93
330
84
100
AcDbEntity
  8
KUTAI
  6
ByBlock
 62
     0
100
AcDbLine
 10
241.1273721234346
 20
93.10903261165691
 30
0.0
 11
242.7273721234309
 21
94.70903261165359
 31
0.0
  0
ENDBLK
  5
94
330
84
100
AcDbEntity
  8
KUTAI
  6
ByBlock
 62
    12
100
AcDbBlockEnd
  0
ENDSEC
  0
SECTION
  2
ENTITIES
  0
LINE
  5
95
330
6F
100
AcDbEntity
  8
WASHER
  6
HIDDEN
100
AcDbLine
 10
224.5273721234329
 20
402.2555691123014
 30
0.0
 11
224.5273721234329
 21
404.2555691122946
 31
0.0
  0
LINE
  5
96
330
6F
100
AcDbEntity
  8
WASHER
  6
HIDDEN
100
AcDbLine
 10
230.9273721234328
 20
402.2555691123014
 30
0.0
 11
230.9273721234328
 21
404.2555691123081
 31
0.0
  0
LINE
  5
97
330
6F
100
AcDbEntity
  8
KUTAI
  6
Continuous
100
AcDbLine
 10
269.0129803851768
 20
364.6987978358873
 30
0.0
 11
305.0697516615909
 21
400.7555691123014
 31
0.0
  0
LINE
  5
98
330
6F
100
AcDbEntity
  8
KUTAI
  6
Continuous
100
AcDbLine
 10
261.941912573311
 20
364.6987978358871
 30
0.0
 11
297.9986838497251
 21
400.7555691123013
 31
0.0
  0
LINE
  5
99
330
6F
100
AcDbEntity
  8
KUTAI
  6
Continuous
100
AcDbLine
 10
254.8708447614457
 20
364.6987978358872
 30
0.0
 11
290.9276160378598
 21
400.7555691123013
 31
0.0
  0
LINE
  5
9A
330
6F
100
AcDbEntity
  8
KUTAI
  6
Continuous
100
AcDbLine
 10
133.4647851474592
 20
364.6987978358872
 30
0.0
 11
169.5215564238732
 21
400.7555691123013
 31
0.0
  0
LINE
  5
9B
330
6F
100
AcDbEntity
  8
KUTAI
  6
Continuous
100
AcDbLine
 10
126.3937173355936
 20
364.6987978358872
 30
0.0
 11
162.4504886120079
 21
400.7555691123013
 31
0.0
  0
LINE
  5
9C
330
6F
100
AcDbEntity
  8
KUTAI
  6
Continuous
100
AcDbLine
 10
119.3226495237282
 20
364.6987978358872
 30
0.0
 11
155.3794208001424
 21
400.7555691123013
 31
0.0
  0
LINE
  5
9D
330
6F
100
AcDbEntity
  8
KUTAI
  6
Continuous
100
AcDbLine
 10
605.2374472765317
 20
338.8720258366731
 30
0.0
 11
672.1209905521597
 21
405.7555691123011
 31
0.0
  0
LINE
  5
9E
330
6F
100
AcDbEntity
  8
KUTAI
  6
Continuous
100
AcDbLine
 10
598.1663794646665
 20
338.8720258366732
 30
0.0
 11
665.0499227402947
 21
405.7555691123011
 31
0.0
  0
LINE
  5
9F
330
6F
100
AcDbEntity
  8
ANCHOR
  6
HIDDEN
100
AcDbLine
 10
604.7412277190032
 20
399.1158044133073
 30
0.0
 11
604.7412277190032
 21
409.2555691123014
 31
0.0
  0
LINE
  5
A0
330
6F
100
AcDbEntity
  8
ANCHOR
  6
HIDDEN
100
AcDbLine
 10
610.7412277190031
 20
399.1158044133073
 30
0.0
 11
610.7412277190031
 21
409.2555691123014
 31
0.0
  0
LINE
  5
A1
330
6F
100
AcDbEntity
  8
ANCHOR
  6
HIDDEN
100
AcDbLine
 10
602.2412277204912
 20
160.3364496097355
 30
0.0
 11
592.7412277191625
 21
160.3364496097759
 31
0.0
  0
LINE
  5
A2
330
6F
100
AcDbEntity
  8
ANCHOR
  6
HIDDEN
100
AcDbLine
 10
602.2412277210462
 20
156.3364496097355
 30
0.0
 11
592.7412277191467
 21
156.3364496097759
 31
0.0
  0
LINE
  5
A3
330
6F
100
AcDbEntity
  8
ANCHOR
  6
HIDDEN
100
AcDbLine
 10
605.1638774512562
 20
159.3364496097441
 30
0.0
 11
603.2412277205017
 21
159.3364496097402
 31
0.0
  0
LINE
  5
A4
330
6F
100
AcDbEntity
  8
ANCHOR
  6
HIDDEN
100
AcDbLine
 10
605.1638774514522
 20
157.3364496097441
 30
0.0
 11
603.2412277210397
 21
157.3364496097402
 31
0.0
  0
LINE
  5
A5
330
6F
100
AcDbEntity
  8
ANCHOR
  6
HIDDEN
100
AcDbLine
 10
605.7412277205443
 20
158.3364496095839
 30
0.0
 11
605.1638774512566
 21
159.3364496097446
 31
0.0
  0
LINE
  5
A6
330
6F
100
AcDbEntity
  8
ANCHOR
  6
HIDDEN
100
AcDbLine
 10
605.1638774514529
 20
157.3364496097453
 30
0.0
 11
605.7412277205448
 21
158.3364496095842
 31
0.0
  0
ARC
  5
A7
330
6F
100
AcDbEntity
  8
ANCHOR
  6
HIDDEN
100
AcDbCircle
 10
603.7412277210489
 20
158.3364496097425
 30
0.0
 40
0.5
100
AcDbArc
 50
97.20679386168658
 51
262.7932061387912
  0
LINE
  5
A8
330
6F
100
AcDbEntity
  8
ANCHOR
  6
HIDDEN
100
AcDbLine
 10
603.6785022845842
 20
157.8403996932814
 30
0.0
 11
605.1638774514526
 21
157.3364496097436
 31
0.0
  0
LINE
  5
A9
330
6F
100
AcDbEntity
  8
ANCHOR
  6
HIDDEN
100
AcDbLine
 10
603.6785022845805
 20
158.8324995262023
 30
0.0
 11
605.1638774512562
 21
159.3364496097443
 31
0.0
  0
LINE
  5
AA
330
6F
100
AcDbEntity
  8
ANCHOR
  6
HIDDEN
100
AcDbLine
 10
603.2412277205001
 20
159.3364496097398
 30
0.0
 11
602.2412277204908
 21
160.3364496097371
 31
0.0
  0
LINE
  5
AB
330
6F
100
AcDbEntity
  8
ANCHOR
  6
HIDDEN
100
AcDbLine
 10
602.2412277210462
 20
156.3364496097388
 30
0.0
 11
603.2412277210387
 21
157.3364496097389
 31
0.0
  0
LINE
  5
AC
330
6F
100
AcDbEntity
  8
ANCHOR
  6
HIDDEN
100
AcDbLine
 10
602.2412277207777
 20
156.3364496097379
 30
0.0
 11
602.2412277207628
 21
160.3364496097379
 31
0.0
  0
LINE
  5
AD
330
6F
100
AcDbEntity
  8
ANCHOR
  6
HIDDEN
100
AcDbLine
 10
603.241227720543
 20
157.3364496097379
 30
0.0
 11
603.2412277205336
 21
159.3364496097379
 31
0.0
  0
LINE
  5
AE
330
6F
100
AcDbEntity
  8
ANCHOR
  6
HIDDEN
100
AcDbLine
 10
603.0412277210414
 20
157.1364496097384
 30
0.0
 11
592.7412277191507
 21
157.1364496097795
 31
0.0
  0
LINE
  5
AF
330
6F
100
AcDbEntity
  8
ANCHOR
  6
HIDDEN
100
AcDbLine
 10
603.0412277205003
 20
159.536449609738
 30
0.0
 11
592.7412277191597
 21
159.5364496097791
 31
0.0
  0
LINE
  5
B0
330
6F
100
AcDbEntity
  8
ANCHOR
  6
Continuous
100
AcDbLine
 10
590.7189171380127
 20
158.8346478573683
 30
0.0
 11
590.7189171380131
 21
157.8382513618861
 31
0.0
  0
LINE
  5
B1
330
6F
100
AcDbEntity
  8
ANCHOR
  6
Continuous
100
AcDbLine
 10
590.7189171380124
 20
158.8346478573685
 30
0.0
 11
590.2412277193381
 21
158.8346478573685
 31
0.0
  0
LINE
  5
B2
330
6F
100
AcDbEntity
  8
ANCHOR
  6
Continuous
100
AcDbLine
 10
590.7189171380129
 20
157.8382513618863
 30
0.0
 11
590.2412277193385
 21
157.8382513618863
 31
0.0
  0
LINE
  5
B3
330
6F
100
AcDbEntity
  8
ANCHOR
  6
Continuous
100
AcDbLine
 10
592.2412277193548
 20
153.6364496096253
 30
0.0
 11
592.7412277193548
 21
153.6364496096257
 31
0.0
  0
ARC
  5
B4
330
6F
100
AcDbEntity
  8
ANCHOR
  6
Continuous
100
AcDbCircle
 10
596.3326931136609
 20
158.16081817631
 30
0.0
 40
6.099999999999998
100
AcDbArc
 50
183.0312034848472
 51
227.876411461438
  0
LINE
  5
B5
330
6F
100
AcDbEntity
  8
ANCHOR
  6
Continuous
100
AcDbLine
 10
592.2412277193211
 20
163.0364496096272
 30
0.0
 11
592.2412277193557
 21
153.6364496096256
 31
0.0
  0
ARC
  5
B6
330
6F
100
AcDbEntity
  8
ANCHOR
  6
Continuous
100
AcDbCircle
 10
596.3326931136609
 20
158.5120810429476
 30
0.0
 40
6.099999999999998
100
AcDbArc
 50
132.1235885386251
 51
176.9687965152159
  0
LINE
  5
B7
330
6F
100
AcDbEntity
  8
ANCHOR
  6
Continuous
100
AcDbLine
 10
592.7412277193217
 20
163.0364496096285
 30
0.0
 11
592.7412277193564
 21
153.6364496096271
 31
0.0
  0
LINE
  5
B8
330
6F
100
AcDbEntity
  8
ANCHOR
  6
Continuous
100
AcDbLine
 10
592.2412277193507
 20
163.0364496096269
 30
0.0
 11
592.7412277193507
 21
163.0364496096273
 31
0.0
  0
LINE
  5
B9
330
6F
100
AcDbEntity
  8
KUTAI
  6
Continuous
100
AcDbLine
 10
117.4720475945935
 20
148.336449609626
 30
0.0
 11
319.6456117066339
 21
148.336449609626
 31
0.0
  0
LINE
  5
BA
330
6F
100
AcDbEntity
  8
ANCHOR
  6
HIDDEN
100
AcDbLine
 10
222.2273721249208
 20
160.3364496097352
 30
0.0
 11
212.727372123592
 21
160.3364496097755
 31
0.0
  0
LINE
  5
BB
330
6F
100
AcDbEntity
  8
ANCHOR
  6
HIDDEN
100
AcDbLine
 10
222.2273721254759
 20
156.3364496097352
 30
0.0
 11
212.7273721235764
 21
156.3364496097755
 31
0.0
  0
LINE
  5
BC
330
6F
100
AcDbEntity
  8
ANCHOR
  6
HIDDEN
100
AcDbLine
 10
225.1500218556859
 20
159.3364496097437
 30
0.0
 11
223.2273721249314
 21
159.3364496097398
 31
0.0
  0
LINE
  5
BD
330
6F
100
AcDbEntity
  8
ANCHOR
  6
HIDDEN
100
AcDbLine
 10
225.1500218558819
 20
157.3364496097437
 30
0.0
 11
223.2273721254694
 21
157.3364496097398
 31
0.0
  0
LINE
  5
BE
330
6F
100
AcDbEntity
  8
ANCHOR
  6
HIDDEN
100
AcDbLine
 10
225.7273721249738
 20
158.3364496095836
 30
0.0
 11
225.1500218556863
 21
159.3364496097443
 31
0.0
  0
LINE
  5
BF
330
6F
100
AcDbEntity
  8
ANCHOR
  6
HIDDEN
100
AcDbLine
 10
225.1500218558826
 20
157.3364496097451
 30
0.0
 11
225.7273721249743
 21
158.3364496095839
 31
0.0
  0
ARC
  5
C0
330
6F
100
AcDbEntity
  8
ANCHOR
  6
HIDDEN
100
AcDbCircle
 10
223.7273721254787
 20
158.3364496097421
 30
0.0
 40
0.5
100
AcDbArc
 50
97.20679386168658
 51
262.7932061387912
  0
LINE
  5
C1
330
6F
100
AcDbEntity
  8
ANCHOR
  6
HIDDEN
100
AcDbLine
 10
223.6646466890139
 20
157.840399693281
 30
0.0
 11
225.1500218558821
 21
157.3364496097432
 31
0.0
  0
LINE
  5
C2
330
6F
100
AcDbEntity
  8
ANCHOR
  6
HIDDEN
100
AcDbLine
 10
223.6646466890101
 20
158.8324995262019
 30
0.0
 11
225.1500218556859
 21
159.3364496097439
 31
0.0
  0
LINE
  5
C3
330
6F
100
AcDbEntity
  8
ANCHOR
  6
HIDDEN
100
AcDbLine
 10
223.2273721249296
 20
159.3364496097394
 30
0.0
 11
222.2273721249204
 21
160.3364496097368
 31
0.0
  0
LINE
  5
C4
330
6F
100
AcDbEntity
  8
ANCHOR
  6
HIDDEN
100
AcDbLine
 10
222.2273721254759
 20
156.3364496097385
 30
0.0
 11
223.2273721254686
 21
157.3364496097387
 31
0.0
  0
LINE
  5
C5
330
6F
100
AcDbEntity
  8
ANCHOR
  6
HIDDEN
100
AcDbLine
 10
222.2273721252073
 20
156.3364496097375
 30
0.0
 11
222.2273721251925
 21
160.3364496097375
 31
0.0
  0
LINE
  5
C6
330
6F
100
AcDbEntity
  8
ANCHOR
  6
HIDDEN
100
AcDbLine
 10
223.2273721249726
 20
157.3364496097375
 30
0.0
 11
223.2273721249634
 21
159.3364496097376
 31
0.0
  0
LINE
  5
C7
330
6F
100
AcDbEntity
  8
ANCHOR
  6
HIDDEN
100
AcDbLine
 10
223.0273721254709
 20
157.136449609738
 30
0.0
 11
212.7273721235803
 21
157.1364496097791
 31
0.0
  0
LINE
  5
C8
330
6F
100
AcDbEntity
  8
ANCHOR
  6
HIDDEN
100
AcDbLine
 10
223.0273721249297
 20
159.5364496097376
 30
0.0
 11
212.7273721235894
 21
159.5364496097787
 31
0.0
  0
LINE
  5
C9
330
6F
100
AcDbEntity
  8
ANCHOR
  6
Continuous
100
AcDbLine
 10
210.7050615424424
 20
158.8346478573679
 30
0.0
 11
210.7050615424429
 21
157.8382513618857
 31
0.0
  0
LINE
  5
CA
330
6F
100
AcDbEntity
  8
ANCHOR
  6
Continuous
100
AcDbLine
 10
210.7050615424421
 20
158.8346478573681
 30
0.0
 11
210.2273721237678
 21
158.8346478573681
 31
0.0
  0
LINE
  5
CB
330
6F
100
AcDbEntity
  8
ANCHOR
  6
Continuous
100
AcDbLine
 10
210.7050615424426
 20
157.8382513618859
 30
0.0
 11
210.2273721237682
 21
157.8382513618859
 31
0.0
  0
LINE
  5
CC
330
6F
100
AcDbEntity
  8
ANCHOR
  6
Continuous
100
AcDbLine
 10
212.2273721237846
 20
153.6364496096248
 30
0.0
 11
212.7273721237846
 21
153.6364496096251
 31
0.0
  0
ARC
  5
CD
330
6F
100
AcDbEntity
  8
ANCHOR
  6
Continuous
100
AcDbCircle
 10
216.3188375180907
 20
158.1608181763096
 30
0.0
 40
6.099999999999998
100
AcDbArc
 50
183.0312034848472
 51
227.876411461438
  0
LINE
  5
CE
330
6F
100
AcDbEntity
  8
ANCHOR
  6
Continuous
100
AcDbLine
 10
212.2273721237506
 20
163.0364496096268
 30
0.0
 11
212.2273721237854
 21
153.6364496096251
 31
0.0
  0
ARC
  5
CF
330
6F
100
AcDbEntity
  8
ANCHOR
  6
Continuous
100
AcDbCircle
 10
216.3188375180907
 20
158.5120810429472
 30
0.0
 40
6.099999999999998
100
AcDbArc
 50
132.1235885386251
 51
176.9687965152159
  0
LINE
  5
D0
330
6F
100
AcDbEntity
  8
ANCHOR
  6
Continuous
100
AcDbLine
 10
212.7273721237515
 20
163.0364496096282
 30
0.0
 11
212.7273721237862
 21
153.6364496096267
 31
0.0
  0
LINE
  5
D1
330
6F
100
AcDbEntity
  8
ANCHOR
  6
Continuous
100
AcDbLine
 10
212.2273721237803
 20
163.0364496096265
 30
0.0
 11
212.7273721237803
 21
163.0364496096269
 31
0.0
  0
LINE
  5
D2
330
6F
100
AcDbEntity
  8
ANCHOR
  6
Continuous
100
AcDbLine
 10
233.2273721234651
 20
151.8364496096299
 30
0.0
 11
222.2273721234651
 21
151.8364496096218
 31
0.0
  0
LINE
  5
D3
330
6F
100
AcDbEntity
  8
ANCHOR
  6
Continuous
100
AcDbLine
 10
233.2273721234645
 20
151.8364496096304
 30
0.0
 11
233.2273721234648
 21
152.6364496096301
 31
0.0
  0
LINE
  5
D4
330
6F
100
AcDbEntity
  8
ANCHOR
  6
Continuous
100
AcDbLine
 10
222.2273721234645
 20
151.8364496096219
 30
0.0
 11
222.2273721234648
 21
152.6364496096221
 31
0.0
  0
LINE
  5
D5
330
6F
100
AcDbEntity
  8
ANCHOR
  6
Continuous
100
AcDbLine
 10
233.2273721234645
 20
152.6364496096301
 30
0.0
 11
222.2273721234645
 21
152.636449609622
 31
0.0
  0
ARC
  5
D6
330
6F
100
AcDbEntity
  8
ANCHOR
  6
Continuous
100
AcDbCircle
 10
227.7273721234668
 20
148.7805672566849
 30
0.0
 40
5.555882352941173
100
AcDbArc
 50
43.94901598298635
 51
136.0509840170985
  0
LINE
  5
D7
330
6F
100
AcDbEntity
  8
ANCHOR
  6
HIDDEN
100
AcDbLine
 10
225.7273721233263
 20
115.3364496096782
 30
0.0
 11
225.7273721232859
 21
151.8364496098018
 31
0.0
  0
LINE
  5
D8
330
6F
100
AcDbEntity
  8
ANCHOR
  6
HIDDEN
100
AcDbLine
 10
229.7273721233263
 20
115.3364496091232
 30
0.0
 11
229.7273721232859
 21
151.8364496098173
 31
0.0
  0
LINE
  5
D9
330
6F
100
AcDbEntity
  8
ANCHOR
  6
HIDDEN
100
AcDbLine
 10
226.7273721233181
 20
112.4137998789131
 30
0.0
 11
226.727372123322
 21
114.3364496096676
 31
0.0
  0
LINE
  5
DA
330
6F
100
AcDbEntity
  8
ANCHOR
  6
HIDDEN
100
AcDbLine
 10
228.7273721233181
 20
112.4137998787172
 30
0.0
 11
228.727372123322
 21
114.3364496091297
 31
0.0
  0
LINE
  5
DB
330
6F
100
AcDbEntity
  8
ANCHOR
  6
HIDDEN
100
AcDbLine
 10
227.7273721234784
 20
111.836449609625
 30
0.0
 11
226.7273721233178
 21
112.4137998789124
 31
0.0
  0
LINE
  5
DC
330
6F
100
AcDbEntity
  8
ANCHOR
  6
HIDDEN
100
AcDbLine
 10
228.727372123317
 20
112.4137998787168
 30
0.0
 11
227.7273721234781
 21
111.836449609625
 31
0.0
  0
ARC
  5
DD
330
6F
100
AcDbEntity
  8
ANCHOR
  6
HIDDEN
100
AcDbCircle
 10
227.7273721233194
 20
113.8364496091199
 30
0.0
 40
0.5
100
AcDbArc
 50
7.206793861208892
 51
172.7932061383134
  0
LINE
  5
DE
330
6F
100
AcDbEntity
  8
ANCHOR
  6
HIDDEN
100
AcDbLine
 10
228.2234220397804
 20
113.8991750455848
 30
0.0
 11
228.7273721233182
 21
112.4137998787164
 31
0.0
  0
LINE
  5
DF
330
6F
100
AcDbEntity
  8
ANCHOR
  6
HIDDEN
100
AcDbLine
 10
227.2313222068598
 20
113.8991750455883
 30
0.0
 11
226.7273721233178
 21
112.4137998789128
 31
0.0
  0
LINE
  5
E0
330
6F
100
AcDbEntity
  8
ANCHOR
  6
HIDDEN
100
AcDbLine
 10
226.7273721233227
 20
114.3364496096696
 30
0.0
 11
225.7273721233254
 21
115.336449609679
 31
0.0
  0
LINE
  5
E1
330
6F
100
AcDbEntity
  8
ANCHOR
  6
HIDDEN
100
AcDbLine
 10
229.7273721233233
 20
115.3364496091232
 30
0.0
 11
228.7273721233233
 21
114.3364496091307
 31
0.0
  0
LINE
  5
E2
330
6F
100
AcDbEntity
  8
ANCHOR
  6
HIDDEN
100
AcDbLine
 10
229.727372123324
 20
115.3364496093916
 30
0.0
 11
225.727372123324
 21
115.3364496094064
 31
0.0
  0
LINE
  5
E3
330
6F
100
AcDbEntity
  8
ANCHOR
  6
HIDDEN
100
AcDbLine
 10
228.7273721233241
 20
114.3364496096263
 30
0.0
 11
226.7273721233241
 21
114.3364496096355
 31
0.0
  0
LINE
  5
E4
330
6F
100
AcDbEntity
  8
ANCHOR
  6
HIDDEN
100
AcDbLine
 10
228.9273721233239
 20
114.5364496091281
 30
0.0
 11
228.9273721232827
 21
151.8364496098135
 31
0.0
  0
LINE
  5
E5
330
6F
100
AcDbEntity
  8
ANCHOR
  6
HIDDEN
100
AcDbLine
 10
226.5273721233242
 20
114.5364496096693
 30
0.0
 11
226.5273721232831
 21
151.8364496098043
 31
0.0
  0
LINE
  5
E6
330
6F
100
AcDbEntity
  8
KUTAI
  6
Continuous
100
AcDbLine
 10
212.7273721234328
 20
87.33644960962593
 30
0.0
 11
212.7273721234328
 21
143.336449609626
 31
0.0
  0
LINE
  5
E7
330
6F
100
AcDbEntity
  8
KUTAI
  6
Continuous
100
AcDbLine
 10
214.7273721234328
 20
85.33644960962595
 30
0.0
 11
240.7273721234328
 21
85.33644960962595
 31
0.0
  0
LINE
  5
E8
330
6F
100
AcDbEntity
  8
KUTAI
  6
Continuous
100
AcDbLine
 10
215.3273721234328
 20
143.736449609626
 30
0.0
 11
240.1273721234328
 21
143.736449609626
 31
0.0
  0
LINE
  5
E9
330
6F
100
AcDbEntity
  8
KUTAI
  6
Continuous
100
AcDbLine
 10
214.3273721234328
 20
87.93644960962595
 30
0.0
 11
214.3273721234328
 21
142.736449609626
 31
0.0
  0
LINE
  5
EA
330
6F
100
AcDbEntity
  8
KUTAI
  6
Continuous
100
AcDbLine
 10
215.3273721234328
 20
86.93644960962595
 30
0.0
 11
240.1273721234329
 21
86.93644960962595
 31
0.0
  0
LINE
  5
EB
330
6F
100
AcDbEntity
  8
KUTAI
  6
Continuous
100
AcDbLine
 10
241.1273721234328
 20
135.336449609626
 30
0.0
 11
242.7273721234328
 21
135.336449609626
 31
0.0
  0
LINE
  5
EC
330
6F
100
AcDbEntity
  8
KUTAI
  6
Continuous
100
AcDbLine
 10
241.1273721234328
 20
95.33644960962595
 30
0.0
 11
242.7273721234328
 21
95.33644960962595
 31
0.0
  0
LINE
  5
ED
330
6F
100
AcDbEntity
  8
KUTAI
  6
Continuous
100
AcDbLine
 10
241.1273721234328
 20
87.93644960962595
 30
0.0
 11
241.1273721234328
 21
95.33644960962595
 31
0.0
  0
LINE
  5
EE
330
6F
100
AcDbEntity
  8
KUTAI
  6
Continuous
100
AcDbLine
 10
241.1273721234328
 20
135.336449609626
 30
0.0
 11
241.1273721234328
 21
142.736449609626
 31
0.0
  0
LINE
  5
EF
330
6F
100
AcDbEntity
  8
KUTAI
  6
Continuous
100
AcDbLine
 10
242.7273721234328
 20
87.33644960962593
 30
0.0
 11
242.7273721234328
 21
95.33644960962595
 31
0.0
  0
LINE
  5
F0
330
6F
100
AcDbEntity
  8
KUTAI
  6
Continuous
100
AcDbLine
 10
242.7273721234328
 20
135.336449609626
 30
0.0
 11
242.7273721234328
 21
143.336449609626
 31
0.0
  0
ARC
  5
F1
330
6F
100
AcDbEntity
  8
KUTAI
  6
Continuous
100
AcDbCircle
 10
240.7273721234328
 20
143.336449609626
 30
0.0
 40
2.0
100
AcDbArc
 50
0.0
 51
90.0
  0
ARC
  5
F2
330
6F
100
AcDbEntity
  8
KUTAI
  6
Continuous
100
AcDbCircle
 10
214.7273721234328
 20
143.336449609626
 30
0.0
 40
2.0
100
AcDbArc
 50
90.0
 51
180.0
  0
ARC
  5
F3
330
6F
100
AcDbEntity
  8
KUTAI
  6
Continuous
100
AcDbCircle
 10
214.7273721234328
 20
87.33644960962593
 30
0.0
 40
2.0
100
AcDbArc
 50
180.0
 51
270.0
  0
ARC
  5
F4
330
6F
100
AcDbEntity
  8
KUTAI
  6
Continuous
100
AcDbCircle
 10
240.7273721234328
 20
87.33644960962593
 30
0.0
 40
2.0
100
AcDbArc
 50
270.0
 51
0.0
  0
ARC
  5
F5
330
6F
100
AcDbEntity
  8
KUTAI
  6
Continuous
100
AcDbCircle
 10
240.1273721234329
 20
87.93644960962595
 30
0.0
 40
1.0
100
AcDbArc
 50
270.0
 51
0.0
  0
ARC
  5
F6
330
6F
100
AcDbEntity
  8
KUTAI
  6
Continuous
100
AcDbCircle
 10
240.1273721234328
 20
142.736449609626
 30
0.0
 40
1.0
100
AcDbArc
 50
0.0
 51
90.0
  0
ARC
  5
F7
330
6F
100
AcDbEntity
  8
KUTAI
  6
Continuous
100
AcDbCircle
 10
215.3273721234328
 20
142.736449609626
 30
0.0
 40
1.0
100
AcDbArc
 50
90.0
 51
180.0
  0
ARC
  5
F8
330
6F
100
AcDbEntity
  8
KUTAI
  6
Continuous
100
AcDbCircle
 10
215.3273721234328
 20
87.93644960962595
 30
0.0
 40
1.0
100
AcDbArc
 50
180.0
 51
270.0
  0
LINE
  5
F9
330
6F
100
AcDbEntity
  8
KUTAI
  6
Continuous
100
AcDbLine
 10
117.4720475945935
 20
145.336449609626
 30
0.0
 11
319.6456117066339
 21
145.336449609626
 31
0.0
  0
INSERT
  5
FA
330
6F
100
AcDbEntity
  8
KUTAI
  6
Continuous
100
AcDbBlockReference
  2
*X0
 10
0.0
 20
0.0
 30
0.0
  0
TEXT
  5
FB
330
6F
100
AcDbEntity
  8
COMMENT
  6
Continuous
100
AcDbText
 10
349.9418172490461
 20
322.2594101746117
 30
0.0
 40
6.0
  1
RC納まり図
  7
KNJYOKO
100
AcDbText
  0
LINE
  5
FC
330
6F
100
AcDbEntity
  8
COMMENT
  6
Continuous
100
AcDbLine
 10
343.7194436660042
 20
316.0977062953458
 30
0.0
 11
393.4272863119038
 21
316.0977062953458
 31
0.0
  0
LINE
  5
FD
330
6F
100
AcDbEntity
  8
COMMENT
  6
Continuous
100
AcDbLine
 10
393.4272863119038
 20
316.0977062953458
 30
0.0
 11
393.4272863119038
 21
332.4572886387153
 31
0.0
  0
LINE
  5
FE
330
6F
100
AcDbEntity
  8
COMMENT
  6
Continuous
100
AcDbLine
 10
393.4272863119038
 20
332.4572886387153
 30
0.0
 11
343.7194436660042
 21
332.4572886387153
 31
0.0
  0
LINE
  5
FF
330
6F
100
AcDbEntity
  8
COMMENT
  6
Continuous
100
AcDbLine
 10
343.7194436660042
 20
332.4572886387153
 30
0.0
 11
343.7194436660042
 21
316.0977062953458
 31
0.0
  0
TEXT
  5
100
330
6F
100
AcDbEntity
  8
COMMENT
  6
Continuous
100
AcDbText
 10
727.6557351031136
 20
321.7013496810606
 30
0.0
 40
6.0
  1
ALC納まり図
  7
KNJYOKO
100
AcDbText
  0
LINE
  5
101
330
6F
100
AcDbEntity
  8
COMMENT
  6
Continuous
100
AcDbLine
 10
723.8888328008928
 20
316.0977062953458
 30
0.0
 11
773.5966754467924
 21
316.0977062953458
 31
0.0
  0
LINE
  5
102
330
6F
100
AcDbEntity
  8
COMMENT
  6
Continuous
100
AcDbLine
 10
773.5966754467924
 20
316.0977062953458
 30
0.0
 11
773.5966754467924
 21
332.4572886387153
 31
0.0
  0
LINE
  5
103
330
6F
100
AcDbEntity
  8
COMMENT
  6
Continuous
100
AcDbLine
 10
773.5966754467924
 20
332.4572886387153
 30
0.0
 11
723.8888328008928
 21
332.4572886387153
 31
0.0
  0
LINE
  5
104
330
6F
100
AcDbEntity
  8
COMMENT
  6
Continuous
100
AcDbLine
 10
723.8888328008928
 20
332.4572886387153
 30
0.0
 11
723.8888328008928
 21
316.0977062953458
 31
0.0
  0
TEXT
  5
105
330
6F
100
AcDbEntity
  8
COMMENT
  6
Continuous
100
AcDbText
 10
727.6696757584102
 20
53.68204903107908
 30
0.0
 40
6.0
  1
ECP納まり図
  7
KNJYOKO
100
AcDbText
  0
LINE
  5
106
330
6F
100
AcDbEntity
  8
COMMENT
  6
Continuous
100
AcDbLine
 10
723.8888328008928
 20
47.52034515181314
 30
0.0
 11
773.5966754467924
 21
47.52034515181314
 31
0.0
  0
LINE
  5
107
330
6F
100
AcDbEntity
  8
COMMENT
  6
Continuous
100
AcDbLine
 10
773.5966754467924
 20
47.52034515181314
 30
0.0
 11
773.5966754467924
 21
63.87992749518264
 31
0.0
  0
LINE
  5
108
330
6F
100
AcDbEntity
  8
COMMENT
  6
Continuous
100
AcDbLine
 10
773.5966754467924
 20
63.87992749518264
 30
0.0
 11
723.8888328008928
 21
63.87992749518264
 31
0.0
  0
LINE
  5
109
330
6F
100
AcDbEntity
  8
COMMENT
  6
Continuous
100
AcDbLine
 10
723.8888328008928
 20
63.87992749518264
 30
0.0
 11
723.8888328008928
 21
47.52034515181314
 31
0.0
  0
TEXT
  5
10A
330
6F
100
AcDbEntity
  8
COMMENT
  6
Continuous
100
AcDbText
 10
349.941817249046
 20
53.68204903107908
 30
0.0
 40
6.0
  1
鉄骨納まり図
  7
KNJYOKO
100
AcDbText
  0
LINE
  5
10B
330
6F
100
AcDbEntity
  8
COMMENT
  6
Continuous
100
AcDbLine
 10
343.7194436660041
 20
47.52034515181314
 30
0.0
 11
393.4272863119038
 21
47.52034515181314
 31
0.0
  0
LINE
  5
10C
330
6F
100
AcDbEntity
  8
COMMENT
  6
Continuous
100
AcDbLine
 10
393.4272863119038
 20
47.52034515181314
 30
0.0
 11
393.4272863119038
 21
63.87992749518264
 31
0.0
  0
LINE
  5
10D
330
6F
100
AcDbEntity
  8
COMMENT
  6
Continuous
100
AcDbLine
 10
393.4272863119038
 20
63.87992749518264
 30
0.0
 11
343.7194436660041
 21
63.87992749518264
 31
0.0
  0
LINE
  5
10E
330
6F
100
AcDbEntity
  8
COMMENT
  6
Continuous
100
AcDbLine
 10
343.7194436660041
 20
63.87992749518264
 30
0.0
 11
343.7194436660041
 21
47.52034515181314
 31
0.0
  0
LINE
  5
10F
330
6F
100
AcDbEntity
  8
WAKU
  6
Continuous
100
AcDbLine
 10
33.25789717601344
 20
27.52034515181316
 30
0.0
 11
793.5966754467925
 21
27.52034515181316
 31
0.0
  0
LINE
  5
110
330
6F
100
AcDbEntity
  8
WAKU
  6
Continuous
100
AcDbLine
 10
793.5966754467925
 20
27.52034515181316
 30
0.0
 11
793.5966754467925
 21
574.6750674359868
 31
0.0
  0
LINE
  5
111
330
6F
100
AcDbEntity
  8
WAKU
  6
Continuous
100
AcDbLine
 10
33.25789717601344
 20
574.6750674359868
 30
0.0
 11
33.25789717601344
 21
27.52034515181316
 31
0.0
  0
LINE
  5
112
330
6F
100
AcDbEntity
  8
WAKU
  6
Continuous
100
AcDbLine
 10
793.5966754467925
 20
296.0977062953458
 30
0.0
 11
33.25789717601344
 21
296.0977062953458
 31
0.0
  0
LINE
  5
113
330
6F
100
AcDbEntity
  8
WAKU
  6
Continuous
100
AcDbLine
 10
413.4272863119038
 20
27.52034515181315
 30
0.0
 11
413.4272863119038
 21
549.6750674359868
 31
0.0
  0
LINE
  5
114
330
6F
100
AcDbEntity
  8
WAKU
  6
Continuous
100
AcDbLine
 10
793.5966754467925
 20
574.6750674359868
 30
0.0
 11
33.25789717601344
 21
574.6750674359868
 31
0.0
  0
LINE
  5
115
330
6F
100
AcDbEntity
  8
WAKU
  6
Continuous
100
AcDbLine
 10
793.5966754467925
 20
549.6750674359868
 30
0.0
 11
33.25789717601344
 21
549.6750674359868
 31
0.0
  0
LINE
  5
116
330
6F
100
AcDbEntity
  8
ANCHOR
  6
CENTER
100
AcDbLine
 10
227.7273721236393
 20
160.64850397211
 30
0.0
 11
227.727372123726
 21
105.3844665977245
 31
0.0
  0
LINE
  5
117
330
6F
100
AcDbEntity
  8
ANCHOR
  6
CENTER
100
AcDbLine
 10
205.4969337619797
 20
158.336449609626
 30
0.0
 11
229.8423238575598
 21
158.336449609626
 31
0.0
  0
LINE
  5
118
330
6F
100
AcDbEntity
  8
ANCHOR
  6
CENTER
100
AcDbLine
 10
607.7412277206577
 20
160.6485039721115
 30
0.0
 11
607.7412277207444
 21
105.384466597726
 31
0.0
  0
LINE
  5
119
330
6F
100
AcDbEntity
  8
ANCHOR
  6
CENTER
100
AcDbLine
 10
585.5107893589982
 20
158.3364496096274
 30
0.0
 11
609.8561794545783
 21
158.3364496096274
 31
0.0
  0
LINE
  5
11A
330
6F
100
AcDbEntity
  8
ANCHOR
  6
CENTER
100
AcDbLine
 10
607.741227722106
 20
418.0676234747878
 30
0.0
 11
607.7412277222176
 21
346.9515786088317
 31
0.0
  0
LINE
  5
11B
330
6F
100
AcDbEntity
  8
ANCHOR
  6
CENTER
100
AcDbLine
 10
585.5107893604464
 20
415.7555691123039
 30
0.0
 11
609.8561794560266
 21
415.7555691123039
 31
0.0
  0
LINE
  5
11C
330
6F
100
AcDbEntity
  8
ANCHOR
  6
CENTER
100
AcDbLine
 10
227.7273721250871
 20
413.0676234747872
 30
0.0
 11
227.7273721252
 21
341.0622285511648
 31
0.0
  0
LINE
  5
11D
330
6F
100
AcDbEntity
  8
ANCHOR
  6
CENTER
100
AcDbLine
 10
205.4969337634275
 20
410.7555691123031
 30
0.0
 11
229.8423238590077
 21
410.7555691123031
 31
0.0
  0
LINE
  5
11E
330
6F
100
AcDbEntity
  8
UKEZAI
  6
Continuous
100
AcDbLine
 10
619.4412277204831
 20
151.3364496096263
 30
0.0
 11
619.4412277204831
 21
158.3364496096263
 31
0.0
  0
LINE
  5
11F
330
6F
100
AcDbEntity
  8
UKEZAI
  6
Continuous
100
AcDbLine
 10
620.9412277205347
 20
148.3364496096261
 30
0.0
 11
620.9412277205371
 21
150.3364496093392
 31
0.0
  0
LINE
  5
120
330
6F
100
AcDbEntity
  8
UKEZAI
  6
Continuous
100
AcDbLine
 10
617.9412277204829
 20
149.8364496096263
 30
0.0
 11
617.9412277204829
 21
162.5864496096263
 31
0.0
  0
LINE
  5
121
330
6F
100
AcDbEntity
  8
UKEZAI
  6
Continuous
100
AcDbLine
 10
619.4412277204834
 20
158.3364496095807
 30
0.0
 11
620.7412277197524
 21
158.3364496095818
 31
0.0
  0
LINE
  5
122
330
6F
100
AcDbEntity
  8
UKEZAI
  6
Continuous
100
AcDbLine
 10
619.4412277204831
 20
151.3364496096263
 30
0.0
 11
620.7412277205382
 21
151.3364496096263
 31
0.0
  0
LINE
  5
123
330
6F
100
AcDbEntity
  8
UKEZAI
  6
Continuous
100
AcDbLine
 10
596.0412277204832
 20
151.3364496096263
 30
0.0
 11
596.0412277204832
 21
158.3364496096263
 31
0.0
  0
LINE
  5
124
330
6F
100
AcDbEntity
  8
UKEZAI
  6
Continuous
100
AcDbLine
 10
594.5412277204308
 20
148.3364496096263
 30
0.0
 11
594.5412277204284
 21
150.3364496093363
 31
0.0
  0
LINE
  5
125
330
6F
100
AcDbEntity
  8
UKEZAI
  6
Continuous
100
AcDbLine
 10
597.5412277204831
 20
149.8364496096263
 30
0.0
 11
597.5412277204831
 21
162.5864496096263
 31
0.0
  0
ARC
  5
126
330
6F
100
AcDbEntity
  8
UKEZAI
  6
Continuous
100
AcDbCircle
 10
596.7912277204832
 20
162.5864496096263
 30
0.0
 40
0.75
100
AcDbArc
 50
0.0
 51
160.1120357041571
  0
LINE
  5
127
330
6F
100
AcDbEntity
  8
UKEZAI
  6
Continuous
100
AcDbLine
 10
596.041227720483
 20
158.3364496095809
 30
0.0
 11
594.7412277212142
 21
158.3364496095819
 31
0.0
  0
LINE
  5
128
330
6F
100
AcDbEntity
  8
UKEZAI
  6
Continuous
100
AcDbLine
 10
596.0412277204832
 20
151.3364496096263
 30
0.0
 11
594.7412277204282
 21
151.3364496096263
 31
0.0
  0
LINE
  5
129
330
6F
100
AcDbEntity
  8
UKEZAI
  6
Continuous
100
AcDbLine
 10
594.5412277204316
 20
148.3364496096263
 30
0.0
 11
620.9412277205349
 21
148.3364496096263
 31
0.0
  0
ARC
  5
12A
330
6F
100
AcDbEntity
  8
UKEZAI
  6
Continuous
100
AcDbCircle
 10
607.7412277204833
 20
149.8364496096263
 30
0.0
 40
0.3
100
AcDbArc
 50
180.0
 51
0.0
  0
ARC
  5
12B
330
6F
100
AcDbEntity
  8
UKEZAI
  6
Continuous
100
AcDbCircle
 10
618.6912277204831
 20
162.5864496096263
 30
0.0
 40
0.75
100
AcDbArc
 50
19.8879642958426
 51
180.0
  0
LINE
  5
12C
330
6F
100
AcDbEntity
  8
UKEZAI
  6
Continuous
100
AcDbLine
 10
620.9412277205371
 20
150.3364496093394
 30
0.0
 11
620.7412277205382
 21
151.3364496096263
 31
0.0
  0
LINE
  5
12D
330
6F
100
AcDbEntity
  8
UKEZAI
  6
Continuous
100
AcDbLine
 10
594.5412277204288
 20
150.3364496093391
 30
0.0
 11
594.7412277204279
 21
151.3364496096261
 31
0.0
  0
ARC
  5
12E
330
6F
100
AcDbEntity
  8
UKEZAI
  6
Continuous
100
AcDbCircle
 10
594.7412277212143
 20
158.5364496095819
 30
0.0
 40
0.2
100
AcDbArc
 50
160.1120357041559
 51
270.0
  0
LINE
  5
12F
330
6F
100
AcDbEntity
  8
UKEZAI
  6
Continuous
100
AcDbLine
 10
594.5531557997542
 20
158.6044860142366
 30
0.0
 11
596.0859580150083
 21
162.8415861270821
 31
0.0
  0
ARC
  5
130
330
6F
100
AcDbEntity
  8
UKEZAI
  6
Continuous
100
AcDbCircle
 10
620.7412277197519
 20
158.5364496095819
 30
0.0
 40
0.2
100
AcDbArc
 50
270.0
 51
19.88796429584412
  0
LINE
  5
131
330
6F
100
AcDbEntity
  8
UKEZAI
  6
Continuous
100
AcDbLine
 10
620.9292996412117
 20
158.6044860142369
 30
0.0
 11
619.3964974259577
 21
162.8415861270822
 31
0.0
  0
ARC
  5
132
330
6F
100
AcDbEntity
  8
UKEZAI
  6
HIDDEN
100
AcDbCircle
 10
609.7412277204832
 20
149.8364496096263
 30
0.0
 40
0.3
100
AcDbArc
 50
0.0
 51
180.0
  0
LINE
  5
133
330
6F
100
AcDbEntity
  8
UKEZAI
  6
Continuous
100
AcDbLine
 10
608.0412277204832
 20
149.8364496096263
 30
0.0
 11
609.4412277204829
 21
149.8364496096263
 31
0.0
  0
LINE
  5
134
330
6F
100
AcDbEntity
  8
UKEZAI
  6
Continuous
100
AcDbLine
 10
610.0412277204831
 20
149.8364496096263
 30
0.0
 11
617.9412277204829
 21
149.8364496096263
 31
0.0
  0
ARC
  5
135
330
6F
100
AcDbEntity
  8
UKEZAI
  6
HIDDEN
100
AcDbCircle
 10
605.7412277204832
 20
149.8364496096263
 30
0.0
 40
0.3
100
AcDbArc
 50
0.0
 51
180.0
  0
LINE
  5
136
330
6F
100
AcDbEntity
  8
UKEZAI
  6
Continuous
100
AcDbLine
 10
597.5412277204831
 20
149.8364496096263
 30
0.0
 11
605.4412277204832
 21
149.8364496096263
 31
0.0
  0
LINE
  5
137
330
6F
100
AcDbEntity
  8
UKEZAI
  6
Continuous
100
AcDbLine
 10
606.0412277204832
 20
149.8364496096263
 30
0.0
 11
607.4412277204832
 21
149.8364496096263
 31
0.0
  0
LINE
  5
138
330
6F
100
AcDbEntity
  8
UKEZAI
  6
Continuous
100
AcDbLine
 10
239.4273721234647
 20
151.336449609626
 30
0.0
 11
239.4273721234647
 21
158.336449609626
 31
0.0
  0
LINE
  5
139
330
6F
100
AcDbEntity
  8
UKEZAI
  6
Continuous
100
AcDbLine
 10
240.9273721235165
 20
148.3364496096257
 30
0.0
 11
240.9273721235188
 21
150.3364496093389
 31
0.0
  0
LINE
  5
13A
330
6F
100
AcDbEntity
  8
UKEZAI
  6
Continuous
100
AcDbLine
 10
237.9273721234647
 20
149.836449609626
 30
0.0
 11
237.9273721234647
 21
162.586449609626
 31
0.0
  0
LINE
  5
13B
330
6F
100
AcDbEntity
  8
UKEZAI
  6
Continuous
100
AcDbLine
 10
239.427372123465
 20
158.3364496095804
 30
0.0
 11
240.7273721227339
 21
158.3364496095814
 31
0.0
  0
LINE
  5
13C
330
6F
100
AcDbEntity
  8
UKEZAI
  6
Continuous
100
AcDbLine
 10
239.4273721234647
 20
151.336449609626
 30
0.0
 11
240.7273721235199
 21
151.336449609626
 31
0.0
  0
LINE
  5
13D
330
6F
100
AcDbEntity
  8
UKEZAI
  6
Continuous
100
AcDbLine
 10
216.0273721234648
 20
151.336449609626
 30
0.0
 11
216.0273721234648
 21
158.336449609626
 31
0.0
  0
LINE
  5
13E
330
6F
100
AcDbEntity
  8
UKEZAI
  6
Continuous
100
AcDbLine
 10
214.5273721234123
 20
148.336449609626
 30
0.0
 11
214.5273721234101
 21
150.3364496093359
 31
0.0
  0
LINE
  5
13F
330
6F
100
AcDbEntity
  8
UKEZAI
  6
Continuous
100
AcDbLine
 10
217.5273721234648
 20
149.836449609626
 30
0.0
 11
217.5273721234648
 21
162.586449609626
 31
0.0
  0
ARC
  5
140
330
6F
100
AcDbEntity
  8
UKEZAI
  6
Continuous
100
AcDbCircle
 10
216.7773721234648
 20
162.586449609626
 30
0.0
 40
0.75
100
AcDbArc
 50
0.0
 51
160.1120357041571
  0
LINE
  5
141
330
6F
100
AcDbEntity
  8
UKEZAI
  6
Continuous
100
AcDbLine
 10
216.0273721234645
 20
158.3364496095806
 30
0.0
 11
214.7273721241956
 21
158.3364496095815
 31
0.0
  0
LINE
  5
142
330
6F
100
AcDbEntity
  8
UKEZAI
  6
Continuous
100
AcDbLine
 10
216.0273721234648
 20
151.336449609626
 30
0.0
 11
214.7273721234099
 21
151.336449609626
 31
0.0
  0
LINE
  5
143
330
6F
100
AcDbEntity
  8
UKEZAI
  6
Continuous
100
AcDbLine
 10
214.5273721234132
 20
148.336449609626
 30
0.0
 11
240.9273721235165
 21
148.336449609626
 31
0.0
  0
ARC
  5
144
330
6F
100
AcDbEntity
  8
UKEZAI
  6
Continuous
100
AcDbCircle
 10
227.7273721234649
 20
149.836449609626
 30
0.0
 40
0.3
100
AcDbArc
 50
180.0
 51
0.0
  0
ARC
  5
145
330
6F
100
AcDbEntity
  8
UKEZAI
  6
Continuous
100
AcDbCircle
 10
238.6773721234647
 20
162.586449609626
 30
0.0
 40
0.75
100
AcDbArc
 50
19.8879642958426
 51
180.0
  0
LINE
  5
146
330
6F
100
AcDbEntity
  8
UKEZAI
  6
Continuous
100
AcDbLine
 10
240.9273721235189
 20
150.3364496093392
 30
0.0
 11
240.72737212352
 21
151.336449609626
 31
0.0
  0
LINE
  5
147
330
6F
100
AcDbEntity
  8
UKEZAI
  6
Continuous
100
AcDbLine
 10
214.5273721234108
 20
150.3364496093388
 30
0.0
 11
214.7273721234097
 21
151.3364496096258
 31
0.0
  0
ARC
  5
148
330
6F
100
AcDbEntity
  8
UKEZAI
  6
Continuous
100
AcDbCircle
 10
214.7273721241961
 20
158.5364496095816
 30
0.0
 40
0.2
100
AcDbArc
 50
160.1120357041559
 51
270.0
  0
LINE
  5
149
330
6F
100
AcDbEntity
  8
UKEZAI
  6
Continuous
100
AcDbLine
 10
214.5393002027358
 20
158.6044860142362
 30
0.0
 11
216.0721024179898
 21
162.8415861270818
 31
0.0
  0
ARC
  5
14A
330
6F
100
AcDbEntity
  8
UKEZAI
  6
Continuous
100
AcDbCircle
 10
240.7273721227336
 20
158.5364496095816
 30
0.0
 40
0.2
100
AcDbArc
 50
270.0
 51
19.88796429584412
  0
LINE
  5
14B
330
6F
100
AcDbEntity
  8
UKEZAI
  6
Continuous
100
AcDbLine
 10
240.9154440441935
 20
158.6044860142365
 30
0.0
 11
239.3826418289395
 21
162.8415861270819
 31
0.0
  0
ARC
  5
14C
330
6F
100
AcDbEntity
  8
UKEZAI
  6
HIDDEN
100
AcDbCircle
 10
229.7273721234649
 20
149.836449609626
 30
0.0
 40
0.3
100
AcDbArc
 50
0.0
 51
180.0
  0
LINE
  5
14D
330
6F
100
AcDbEntity
  8
UKEZAI
  6
Continuous
100
AcDbLine
 10
228.0273721234648
 20
149.836449609626
 30
0.0
 11
229.4273721234647
 21
149.836449609626
 31
0.0
  0
LINE
  5
14E
330
6F
100
AcDbEntity
  8
UKEZAI
  6
Continuous
100
AcDbLine
 10
230.0273721234648
 20
149.836449609626
 30
0.0
 11
237.9273721234647
 21
149.836449609626
 31
0.0
  0
ARC
  5
14F
330
6F
100
AcDbEntity
  8
UKEZAI
  6
HIDDEN
100
AcDbCircle
 10
225.7273721234649
 20
149.836449609626
 30
0.0
 40
0.3
100
AcDbArc
 50
0.0
 51
180.0
  0
LINE
  5
150
330
6F
100
AcDbEntity
  8
UKEZAI
  6
Continuous
100
AcDbLine
 10
217.5273721234648
 20
149.836449609626
 30
0.0
 11
225.4273721234649
 21
149.836449609626
 31
0.0
  0
LINE
  5
151
330
6F
100
AcDbEntity
  8
UKEZAI
  6
Continuous
100
AcDbLine
 10
226.0273721234648
 20
149.836449609626
 30
0.0
 11
227.4273721234649
 21
149.836449609626
 31
0.0
  0
LINE
  5
152
330
6F
100
AcDbEntity
  8
UKEZAI
  6
Continuous
100
AcDbLine
 10
619.4412277219315
 20
408.7555691123013
 30
0.0
 11
619.4412277219315
 21
415.7555691123014
 31
0.0
  0
LINE
  5
153
330
6F
100
AcDbEntity
  8
UKEZAI
  6
Continuous
100
AcDbLine
 10
620.9412277219833
 20
405.7555691123011
 30
0.0
 11
620.9412277219853
 21
407.7555691120143
 31
0.0
  0
LINE
  5
154
330
6F
100
AcDbEntity
  8
UKEZAI
  6
Continuous
100
AcDbLine
 10
617.9412277219316
 20
407.2555691123014
 30
0.0
 11
617.9412277219316
 21
420.0055691123014
 31
0.0
  0
LINE
  5
155
330
6F
100
AcDbEntity
  8
UKEZAI
  6
Continuous
100
AcDbLine
 10
619.4412277219318
 20
415.7555691122557
 30
0.0
 11
620.7412277212007
 21
415.7555691122566
 31
0.0
  0
LINE
  5
156
330
6F
100
AcDbEntity
  8
UKEZAI
  6
Continuous
100
AcDbLine
 10
619.4412277219315
 20
408.7555691123013
 30
0.0
 11
620.7412277219868
 21
408.7555691123013
 31
0.0
  0
LINE
  5
157
330
6F
100
AcDbEntity
  8
UKEZAI
  6
Continuous
100
AcDbLine
 10
596.0412277219314
 20
408.7555691123013
 30
0.0
 11
596.0412277219314
 21
415.7555691123014
 31
0.0
  0
LINE
  5
158
330
6F
100
AcDbEntity
  8
UKEZAI
  6
Continuous
100
AcDbLine
 10
594.5412277218792
 20
405.7555691123014
 30
0.0
 11
594.5412277218768
 21
407.7555691120113
 31
0.0
  0
LINE
  5
159
330
6F
100
AcDbEntity
  8
UKEZAI
  6
Continuous
100
AcDbLine
 10
597.5412277219316
 20
407.2555691123014
 30
0.0
 11
597.5412277219316
 21
420.0055691123014
 31
0.0
  0
ARC
  5
15A
330
6F
100
AcDbEntity
  8
UKEZAI
  6
Continuous
100
AcDbCircle
 10
596.7912277219316
 20
420.0055691123014
 30
0.0
 40
0.75
100
AcDbArc
 50
0.0
 51
160.1120357041571
  0
LINE
  5
15B
330
6F
100
AcDbEntity
  8
UKEZAI
  6
Continuous
100
AcDbLine
 10
596.0412277219312
 20
415.755569112256
 30
0.0
 11
594.7412277226622
 21
415.7555691122567
 31
0.0
  0
LINE
  5
15C
330
6F
100
AcDbEntity
  8
UKEZAI
  6
Continuous
100
AcDbLine
 10
596.0412277219314
 20
408.7555691123013
 30
0.0
 11
594.7412277218766
 21
408.7555691123013
 31
0.0
  0
LINE
  5
15D
330
6F
100
AcDbEntity
  8
UKEZAI
  6
Continuous
100
AcDbLine
 10
594.54122772188
 20
405.7555691123014
 30
0.0
 11
620.9412277219833
 21
405.7555691123014
 31
0.0
  0
ARC
  5
15E
330
6F
100
AcDbEntity
  8
UKEZAI
  6
Continuous
100
AcDbCircle
 10
607.7412277219316
 20
407.2555691123014
 30
0.0
 40
0.3
100
AcDbArc
 50
180.0
 51
0.0
  0
ARC
  5
15F
330
6F
100
AcDbEntity
  8
UKEZAI
  6
Continuous
100
AcDbCircle
 10
618.6912277219315
 20
420.0055691123014
 30
0.0
 40
0.75
100
AcDbArc
 50
19.8879642958426
 51
180.0
  0
LINE
  5
160
330
6F
100
AcDbEntity
  8
UKEZAI
  6
Continuous
100
AcDbLine
 10
620.9412277219858
 20
407.7555691120143
 30
0.0
 11
620.7412277219868
 21
408.7555691123013
 31
0.0
  0
LINE
  5
161
330
6F
100
AcDbEntity
  8
UKEZAI
  6
Continuous
100
AcDbLine
 10
594.5412277218772
 20
407.7555691120138
 30
0.0
 11
594.7412277218762
 21
408.7555691123011
 31
0.0
  0
ARC
  5
162
330
6F
100
AcDbEntity
  8
UKEZAI
  6
Continuous
100
AcDbCircle
 10
594.7412277226629
 20
415.9555691122568
 30
0.0
 40
0.2
100
AcDbArc
 50
160.1120357041559
 51
270.0
  0
LINE
  5
163
330
6F
100
AcDbEntity
  8
UKEZAI
  6
Continuous
100
AcDbLine
 10
594.5531558012028
 20
416.0236055169116
 30
0.0
 11
596.0859580164568
 21
420.2607056297571
 31
0.0
  0
ARC
  5
164
330
6F
100
AcDbEntity
  8
UKEZAI
  6
Continuous
100
AcDbCircle
 10
620.7412277212004
 20
415.9555691122568
 30
0.0
 40
0.2
100
AcDbArc
 50
270.0
 51
19.88796429584412
  0
LINE
  5
165
330
6F
100
AcDbEntity
  8
UKEZAI
  6
Continuous
100
AcDbLine
 10
620.9292996426602
 20
416.023605516912
 30
0.0
 11
619.3964974274061
 21
420.2607056297574
 31
0.0
  0
ARC
  5
166
330
6F
100
AcDbEntity
  8
UKEZAI
  6
HIDDEN
100
AcDbCircle
 10
609.7412277219316
 20
407.2555691123014
 30
0.0
 40
0.3
100
AcDbArc
 50
0.0
 51
180.0
  0
LINE
  5
167
330
6F
100
AcDbEntity
  8
UKEZAI
  6
Continuous
100
AcDbLine
 10
608.0412277219314
 20
407.2555691123014
 30
0.0
 11
609.4412277219316
 21
407.2555691123014
 31
0.0
  0
LINE
  5
168
330
6F
100
AcDbEntity
  8
UKEZAI
  6
Continuous
100
AcDbLine
 10
610.0412277219316
 20
407.2555691123014
 30
0.0
 11
617.9412277219316
 21
407.2555691123014
 31
0.0
  0
ARC
  5
169
330
6F
100
AcDbEntity
  8
UKEZAI
  6
HIDDEN
100
AcDbCircle
 10
605.7412277219316
 20
407.2555691123014
 30
0.0
 40
0.3
100
AcDbArc
 50
0.0
 51
180.0
  0
LINE
  5
16A
330
6F
100
AcDbEntity
  8
UKEZAI
  6
Continuous
100
AcDbLine
 10
597.5412277219316
 20
407.2555691123014
 30
0.0
 11
605.4412277219317
 21
407.2555691123014
 31
0.0
  0
LINE
  5
16B
330
6F
100
AcDbEntity
  8
UKEZAI
  6
Continuous
100
AcDbLine
 10
606.0412277219316
 20
407.2555691123014
 30
0.0
 11
607.4412277219318
 21
407.2555691123014
 31
0.0
  0
LINE
  5
16C
330
6F
100
AcDbEntity
  8
UKEZAI
  6
Continuous
100
AcDbLine
 10
239.4273721249125
 20
403.7555691123014
 30
0.0
 11
239.4273721249125
 21
410.7555691123014
 31
0.0
  0
LINE
  5
16D
330
6F
100
AcDbEntity
  8
UKEZAI
  6
Continuous
100
AcDbLine
 10
240.9273721249643
 20
400.7555691123012
 30
0.0
 11
240.9273721249665
 21
402.7555691120141
 31
0.0
  0
LINE
  5
16E
330
6F
100
AcDbEntity
  8
UKEZAI
  6
Continuous
100
AcDbLine
 10
237.9273721249125
 20
402.2555691123014
 30
0.0
 11
237.9273721249125
 21
415.0055691123013
 31
0.0
  0
LINE
  5
16F
330
6F
100
AcDbEntity
  8
UKEZAI
  6
Continuous
100
AcDbLine
 10
239.4273721249129
 20
410.7555691122557
 30
0.0
 11
240.7273721241818
 21
410.7555691122566
 31
0.0
  0
LINE
  5
170
330
6F
100
AcDbEntity
  8
UKEZAI
  6
Continuous
100
AcDbLine
 10
239.4273721249125
 20
403.7555691123014
 30
0.0
 11
240.7273721249677
 21
403.7555691123014
 31
0.0
  0
LINE
  5
171
330
6F
100
AcDbEntity
  8
UKEZAI
  6
Continuous
100
AcDbLine
 10
216.0273721249126
 20
403.7555691123014
 30
0.0
 11
216.0273721249126
 21
410.7555691123014
 31
0.0
  0
LINE
  5
172
330
6F
100
AcDbEntity
  8
UKEZAI
  6
Continuous
100
AcDbLine
 10
214.5273721248602
 20
400.7555691123013
 30
0.0
 11
214.527372124858
 21
402.7555691120113
 31
0.0
  0
LINE
  5
173
330
6F
100
AcDbEntity
  8
UKEZAI
  6
Continuous
100
AcDbLine
 10
217.5273721249126
 20
402.2555691123014
 30
0.0
 11
217.5273721249126
 21
415.0055691123013
 31
0.0
  0
ARC
  5
174
330
6F
100
AcDbEntity
  8
UKEZAI
  6
Continuous
100
AcDbCircle
 10
216.7773721249126
 20
415.0055691123013
 30
0.0
 40
0.75
100
AcDbArc
 50
0.0
 51
160.1120357041571
  0
LINE
  5
175
330
6F
100
AcDbEntity
  8
UKEZAI
  6
Continuous
100
AcDbLine
 10
216.0273721249124
 20
410.755569112256
 30
0.0
 11
214.7273721256434
 21
410.7555691122568
 31
0.0
  0
LINE
  5
176
330
6F
100
AcDbEntity
  8
UKEZAI
  6
Continuous
100
AcDbLine
 10
216.0273721249126
 20
403.7555691123014
 30
0.0
 11
214.7273721248577
 21
403.7555691123014
 31
0.0
  0
LINE
  5
177
330
6F
100
AcDbEntity
  8
UKEZAI
  6
Continuous
100
AcDbLine
 10
214.527372124861
 20
400.7555691123014
 30
0.0
 11
240.9273721249643
 21
400.7555691123014
 31
0.0
  0
ARC
  5
178
330
6F
100
AcDbEntity
  8
UKEZAI
  6
Continuous
100
AcDbCircle
 10
227.7273721249127
 20
402.2555691123014
 30
0.0
 40
0.3
100
AcDbArc
 50
180.0
 51
0.0
  0
ARC
  5
179
330
6F
100
AcDbEntity
  8
UKEZAI
  6
Continuous
100
AcDbCircle
 10
238.6773721249125
 20
415.0055691123013
 30
0.0
 40
0.75
100
AcDbArc
 50
19.8879642958426
 51
180.0
  0
LINE
  5
17A
330
6F
100
AcDbEntity
  8
UKEZAI
  6
Continuous
100
AcDbLine
 10
240.9273721249667
 20
402.7555691120143
 30
0.0
 11
240.7273721249678
 21
403.7555691123015
 31
0.0
  0
LINE
  5
17B
330
6F
100
AcDbEntity
  8
UKEZAI
  6
Continuous
100
AcDbLine
 10
214.5273721248585
 20
402.755569112014
 30
0.0
 11
214.7273721248574
 21
403.755569112301
 31
0.0
  0
ARC
  5
17C
330
6F
100
AcDbEntity
  8
UKEZAI
  6
Continuous
100
AcDbCircle
 10
214.7273721256439
 20
410.955569112257
 30
0.0
 40
0.2
100
AcDbArc
 50
160.1120357041559
 51
270.0
  0
LINE
  5
17D
330
6F
100
AcDbEntity
  8
UKEZAI
  6
Continuous
100
AcDbLine
 10
214.5393002041837
 20
411.0236055169115
 30
0.0
 11
216.0721024194379
 21
415.2607056297571
 31
0.0
  0
ARC
  5
17E
330
6F
100
AcDbEntity
  8
UKEZAI
  6
Continuous
100
AcDbCircle
 10
240.7273721241814
 20
410.955569112257
 30
0.0
 40
0.2
100
AcDbArc
 50
270.0
 51
19.88796429584412
  0
LINE
  5
17F
330
6F
100
AcDbEntity
  8
UKEZAI
  6
Continuous
100
AcDbLine
 10
240.9154440456413
 20
411.0236055169118
 30
0.0
 11
239.3826418303873
 21
415.2607056297571
 31
0.0
  0
ARC
  5
180
330
6F
100
AcDbEntity
  8
UKEZAI
  6
HIDDEN
100
AcDbCircle
 10
229.7273721249127
 20
402.2555691123014
 30
0.0
 40
0.3
100
AcDbArc
 50
0.0
 51
180.0
  0
LINE
  5
181
330
6F
100
AcDbEntity
  8
UKEZAI
  6
Continuous
100
AcDbLine
 10
228.0273721249126
 20
402.2555691123014
 30
0.0
 11
229.4273721249125
 21
402.2555691123014
 31
0.0
  0
LINE
  5
182
330
6F
100
AcDbEntity
  8
UKEZAI
  6
Continuous
100
AcDbLine
 10
230.0273721249126
 20
402.2555691123014
 30
0.0
 11
237.9273721249125
 21
402.2555691123014
 31
0.0
  0
ARC
  5
183
330
6F
100
AcDbEntity
  8
UKEZAI
  6
HIDDEN
100
AcDbCircle
 10
225.7273721249127
 20
402.2555691123014
 30
0.0
 40
0.3
100
AcDbArc
 50
0.0
 51
180.0
  0
LINE
  5
184
330
6F
100
AcDbEntity
  8
UKEZAI
  6
Continuous
100
AcDbLine
 10
217.5273721249126
 20
402.2555691123014
 30
0.0
 11
225.4273721249127
 21
402.2555691123014
 31
0.0
  0
LINE
  5
185
330
6F
100
AcDbEntity
  8
UKEZAI
  6
Continuous
100
AcDbLine
 10
226.0273721249126
 20
402.2555691123014
 30
0.0
 11
227.4273721249127
 21
402.2555691123014
 31
0.0
  0
LINE
  5
186
330
6F
100
AcDbEntity
  8
WASHER
  6
Continuous
100
AcDbLine
 10
598.7412277204517
 20
409.2555691123016
 30
0.0
 11
616.7412277204517
 21
409.2555691123016
 31
0.0
  0
LINE
  5
187
330
6F
100
AcDbEntity
  8
WASHER
  6
Continuous
100
AcDbLine
 10
616.7412277204517
 20
407.2555691123016
 30
0.0
 11
616.7412277204517
 21
409.2555691123016
 31
0.0
  0
LINE
  5
188
330
6F
100
AcDbEntity
  8
WASHER
  6
Continuous
100
AcDbLine
 10
598.7412277204517
 20
407.2555691123016
 30
0.0
 11
616.7412277204517
 21
407.2555691123016
 31
0.0
  0
LINE
  5
189
330
6F
100
AcDbEntity
  8
WASHER
  6
HIDDEN
100
AcDbLine
 10
610.9412277204516
 20
407.2555691123014
 30
0.0
 11
610.9412277204516
 21
409.2555691123081
 31
0.0
  0
LINE
  5
18A
330
6F
100
AcDbEntity
  8
WASHER
  6
HIDDEN
100
AcDbLine
 10
604.5412277204517
 20
407.2555691123014
 30
0.0
 11
604.5412277204517
 21
409.2555691122946
 31
0.0
  0
LINE
  5
18B
330
6F
100
AcDbEntity
  8
WASHER
  6
Continuous
100
AcDbLine
 10
598.7412277204517
 20
407.2555691123016
 30
0.0
 11
598.7412277204517
 21
409.2555691123016
 31
0.0
  0
LINE
  5
18C
330
6F
100
AcDbEntity
  8
WASHER
  6
Continuous
100
AcDbLine
 10
598.7412277190036
 20
151.8364496096266
 30
0.0
 11
616.7412277190036
 21
151.8364496096266
 31
0.0
  0
LINE
  5
18D
330
6F
100
AcDbEntity
  8
WASHER
  6
Continuous
100
AcDbLine
 10
616.7412277190036
 20
149.8364496096266
 30
0.0
 11
616.7412277190036
 21
151.8364496096266
 31
0.0
  0
LINE
  5
18E
330
6F
100
AcDbEntity
  8
WASHER
  6
Continuous
100
AcDbLine
 10
598.7412277190036
 20
149.8364496096266
 30
0.0
 11
616.7412277190036
 21
149.8364496096266
 31
0.0
  0
LINE
  5
18F
330
6F
100
AcDbEntity
  8
WASHER
  6
HIDDEN
100
AcDbLine
 10
610.9412277190037
 20
149.8364496096264
 30
0.0
 11
610.9412277190037
 21
151.8364496096331
 31
0.0
  0
LINE
  5
190
330
6F
100
AcDbEntity
  8
WASHER
  6
HIDDEN
100
AcDbLine
 10
604.5412277190036
 20
149.8364496096264
 30
0.0
 11
604.5412277190036
 21
151.8364496096197
 31
0.0
  0
LINE
  5
191
330
6F
100
AcDbEntity
  8
WASHER
  6
Continuous
100
AcDbLine
 10
598.7412277190036
 20
149.8364496096266
 30
0.0
 11
598.7412277190036
 21
151.8364496096266
 31
0.0
  0
LINE
  5
192
330
6F
100
AcDbEntity
  8
WASHER
  6
Continuous
100
AcDbLine
 10
218.727372121985
 20
151.8364496096262
 30
0.0
 11
236.727372121985
 21
151.8364496096262
 31
0.0
  0
LINE
  5
193
330
6F
100
AcDbEntity
  8
WASHER
  6
Continuous
100
AcDbLine
 10
236.727372121985
 20
149.8364496096262
 30
0.0
 11
236.727372121985
 21
151.8364496096262
 31
0.0
  0
LINE
  5
194
330
6F
100
AcDbEntity
  8
WASHER
  6
Continuous
100
AcDbLine
 10
218.727372121985
 20
149.8364496096262
 30
0.0
 11
236.727372121985
 21
149.8364496096262
 31
0.0
  0
LINE
  5
195
330
6F
100
AcDbEntity
  8
WASHER
  6
HIDDEN
100
AcDbLine
 10
230.9273721219851
 20
149.836449609626
 30
0.0
 11
230.9273721219851
 21
151.8364496096327
 31
0.0
  0
LINE
  5
196
330
6F
100
AcDbEntity
  8
WASHER
  6
HIDDEN
100
AcDbLine
 10
224.5273721219851
 20
149.836449609626
 30
0.0
 11
224.5273721219851
 21
151.8364496096193
 31
0.0
  0
LINE
  5
197
330
6F
100
AcDbEntity
  8
WASHER
  6
Continuous
100
AcDbLine
 10
218.727372121985
 20
149.8364496096262
 30
0.0
 11
218.727372121985
 21
151.8364496096262
 31
0.0
  0
LINE
  5
198
330
6F
100
AcDbEntity
  8
COMMENT
  6
Continuous
100
AcDbLine
 10
212.7273721234669
 20
148.5364495977196
 30
0.0
 11
212.7273721234669
 21
105.547419735382
 31
0.0
  0
LINE
  5
199
330
6F
100
AcDbEntity
  8
COMMENT
  6
Continuous
100
AcDbLine
 10
212.7273721234669
 20
106.547419735382
 30
0.0
 11
227.727372123726
 21
106.547419735382
 31
0.0
  0
CIRCLE
  5
19A
330
6F
100
AcDbEntity
  8
COMMENT
  6
Continuous
100
AcDbCircle
 10
212.7273721234669
 20
106.547419735382
 30
0.0
 40
0.5
  0
CIRCLE
  5
19B
330
6F
100
AcDbEntity
  8
COMMENT
  6
Continuous
100
AcDbCircle
 10
227.727372123726
 20
106.547419735382
 30
0.0
 40
0.5
  0
TEXT
  5
19C
330
6F
100
AcDbEntity
  8
COMMENT
  6
Continuous
100
AcDbText
 10
217.6273720401499
 20
107.047419735382
 30
0.0
 40
3.099999904632568
  1
15
100
AcDbText
  0
LINE
  5
19D
330
6F
100
AcDbEntity
  8
COMMENT
  6
Continuous
100
AcDbLine
 10
227.727372123726
 20
106.547419735382
 30
0.0
 11
242.7273721234641
 21
106.547419735382
 31
0.0
  0
CIRCLE
  5
19E
330
6F
100
AcDbEntity
  8
COMMENT
  6
Continuous
100
AcDbCircle
 10
227.727372123726
 20
106.547419735382
 30
0.0
 40
0.5
  0
CIRCLE
  5
19F
330
6F
100
AcDbEntity
  8
COMMENT
  6
Continuous
100
AcDbCircle
 10
242.7273721234641
 20
106.547419735382
 30
0.0
 40
0.5
  0
TEXT
  5
1A0
330
6F
100
AcDbEntity
  8
COMMENT
  6
Continuous
100
AcDbText
 10
232.6273720401485
 20
107.047419735382
 30
0.0
 40
3.099999904632568
  1
15
100
AcDbText
  0
LINE
  5
1A1
330
6F
100
AcDbEntity
  8
COMMENT
  6
Continuous
100
AcDbLine
 10
242.7273721234641
 20
148.5364495977021
 30
0.0
 11
242.7273721234641
 21
105.547419735382
 31
0.0
  0
LINE
  5
1A2
330
6F
100
AcDbEntity
  8
COMMENT
  6
Continuous
100
AcDbLine
 10
212.7273721249148
 20
400.9555691003951
 30
0.0
 11
212.7273721249148
 21
332.3863537818537
 31
0.0
  0
LINE
  5
1A3
330
6F
100
AcDbEntity
  8
COMMENT
  6
Continuous
100
AcDbLine
 10
212.7273721249148
 20
333.3863537818536
 30
0.0
 11
227.7273721252
 21
333.3863537818536
 31
0.0
  0
CIRCLE
  5
1A4
330
6F
100
AcDbEntity
  8
COMMENT
  6
Continuous
100
AcDbCircle
 10
212.7273721249148
 20
333.3863537818536
 30
0.0
 40
0.5
  0
CIRCLE
  5
1A5
330
6F
100
AcDbEntity
  8
COMMENT
  6
Continuous
100
AcDbCircle
 10
227.7273721252
 20
333.3863537818536
 30
0.0
 40
0.5
  0
TEXT
  5
1A6
330
6F
100
AcDbEntity
  8
COMMENT
  6
Continuous
100
AcDbText
 10
217.6273720416109
 20
333.8863537818536
 30
0.0
 40
3.099999904632568
  1
15
100
AcDbText
  0
LINE
  5
1A7
330
6F
100
AcDbEntity
  8
COMMENT
  6
Continuous
100
AcDbLine
 10
227.7273721252
 20
340.2622285392439
 30
0.0
 11
227.7273721252
 21
332.3863537818537
 31
0.0
  0
LINE
  5
1A8
330
6F
100
AcDbEntity
  8
COMMENT
  6
Continuous
100
AcDbLine
 10
227.7273721252
 20
333.3863537818536
 30
0.0
 11
242.7273721249119
 21
333.3863537818536
 31
0.0
  0
CIRCLE
  5
1A9
330
6F
100
AcDbEntity
  8
COMMENT
  6
Continuous
100
AcDbCircle
 10
227.7273721252
 20
333.3863537818536
 30
0.0
 40
0.5
  0
CIRCLE
  5
1AA
330
6F
100
AcDbEntity
  8
COMMENT
  6
Continuous
100
AcDbCircle
 10
242.7273721249119
 20
333.3863537818536
 30
0.0
 40
0.5
  0
TEXT
  5
1AB
330
6F
100
AcDbEntity
  8
COMMENT
  6
Continuous
100
AcDbText
 10
232.6273720416094
 20
333.8863537818536
 30
0.0
 40
3.099999904632568
  1
15
100
AcDbText
  0
LINE
  5
1AC
330
6F
100
AcDbEntity
  8
COMMENT
  6
Continuous
100
AcDbLine
 10
242.7273721249119
 20
400.9555691003776
 30
0.0
 11
242.7273721249119
 21
332.3863537818537
 31
0.0
  0
LINE
  5
1AD
330
6F
100
AcDbEntity
  8
COMMENT
  6
Continuous
100
AcDbLine
 10
622.7412277219307
 20
405.9555691003773
 30
0.0
 11
622.7412277219307
 21
332.1587110662708
 31
0.0
  0
LINE
  5
1AE
330
6F
100
AcDbEntity
  8
COMMENT
  6
Continuous
100
AcDbLine
 10
622.7412277219307
 20
333.1587110662708
 30
0.0
 11
607.741227722106
 21
333.1587110662708
 31
0.0
  0
CIRCLE
  5
1AF
330
6F
100
AcDbEntity
  8
COMMENT
  6
Continuous
100
AcDbCircle
 10
622.7412277219307
 20
333.1587110662708
 30
0.0
 40
0.5
  0
CIRCLE
  5
1B0
330
6F
100
AcDbEntity
  8
COMMENT
  6
Continuous
100
AcDbCircle
 10
607.741227722106
 20
333.1587110662708
 30
0.0
 40
0.5
  0
TEXT
  5
1B1
330
6F
100
AcDbEntity
  8
COMMENT
  6
Continuous
100
AcDbText
 10
612.6412276385718
 20
333.6587110662708
 30
0.0
 40
3.099999904632568
  1
15
100
AcDbText
  0
LINE
  5
1B2
330
6F
100
AcDbEntity
  8
COMMENT
  6
Continuous
100
AcDbLine
 10
607.7412277222111
 20
346.1515785969108
 30
0.0
 11
607.7412277220977
 21
332.1587110662708
 31
0.0
  0
LINE
  5
1B3
330
6F
100
AcDbEntity
  8
COMMENT
  6
Continuous
100
AcDbLine
 10
607.741227722106
 20
333.1587110662708
 30
0.0
 11
592.7412277219338
 21
333.1587110662708
 31
0.0
  0
CIRCLE
  5
1B4
330
6F
100
AcDbEntity
  8
COMMENT
  6
Continuous
100
AcDbCircle
 10
607.741227722106
 20
333.1587110662708
 30
0.0
 40
0.5
  0
CIRCLE
  5
1B5
330
6F
100
AcDbEntity
  8
COMMENT
  6
Continuous
100
AcDbCircle
 10
592.7412277219338
 20
333.1587110662708
 30
0.0
 40
0.5
  0
TEXT
  5
1B6
330
6F
100
AcDbEntity
  8
COMMENT
  6
Continuous
100
AcDbText
 10
597.6412276385732
 20
333.6587110662708
 30
0.0
 40
3.099999904632568
  1
15
100
AcDbText
  0
LINE
  5
1B7
330
6F
100
AcDbEntity
  8
COMMENT
  6
Continuous
100
AcDbLine
 10
592.7412277219338
 20
405.9555691003951
 30
0.0
 11
592.7412277219338
 21
332.1587110662708
 31
0.0
  0
LINE
  5
1B8
330
6F
100
AcDbEntity
  8
COMMENT
  6
Continuous
100
AcDbLine
 10
622.7412277204823
 20
148.5364495977025
 30
0.0
 11
622.7412277204823
 21
108.2388349671641
 31
0.0
  0
LINE
  5
1B9
330
6F
100
AcDbEntity
  8
COMMENT
  6
Continuous
100
AcDbLine
 10
622.7412277204823
 20
109.2388349671641
 30
0.0
 11
607.7412277207444
 21
109.2388349671641
 31
0.0
  0
CIRCLE
  5
1BA
330
6F
100
AcDbEntity
  8
COMMENT
  6
Continuous
100
AcDbCircle
 10
622.7412277204823
 20
109.2388349671641
 30
0.0
 40
0.5
  0
CIRCLE
  5
1BB
330
6F
100
AcDbEntity
  8
COMMENT
  6
Continuous
100
AcDbCircle
 10
607.7412277207444
 20
109.2388349671641
 30
0.0
 40
0.5
  0
TEXT
  5
1BC
330
6F
100
AcDbEntity
  8
COMMENT
  6
Continuous
100
AcDbText
 10
612.6412276371669
 20
109.7388349671641
 30
0.0
 40
3.099999904632568
  1
15
100
AcDbText
  0
LINE
  5
1BD
330
6F
100
AcDbEntity
  8
COMMENT
  6
Continuous
100
AcDbLine
 10
607.7412277207444
 20
109.2388349671641
 30
0.0
 11
592.7412277204852
 21
109.2388349671641
 31
0.0
  0
CIRCLE
  5
1BE
330
6F
100
AcDbEntity
  8
COMMENT
  6
Continuous
100
AcDbCircle
 10
607.7412277207444
 20
109.2388349671641
 30
0.0
 40
0.5
  0
CIRCLE
  5
1BF
330
6F
100
AcDbEntity
  8
COMMENT
  6
Continuous
100
AcDbCircle
 10
592.7412277204852
 20
109.2388349671641
 30
0.0
 40
0.5
  0
TEXT
  5
1C0
330
6F
100
AcDbEntity
  8
COMMENT
  6
Continuous
100
AcDbText
 10
597.6412276371682
 20
109.7388349671641
 30
0.0
 40
3.099999904632568
  1
15
100
AcDbText
  0
LINE
  5
1C1
330
6F
100
AcDbEntity
  8
COMMENT
  6
Continuous
100
AcDbLine
 10
592.7412277204852
 20
148.53644959772
 30
0.0
 11
592.7412277204852
 21
108.2388349671641
 31
0.0
  0
LINE
  5
1C2
330
6F
100
AcDbEntity
  8
COMMENT
  6
Continuous
100
AcDbLine
 10
584.7107893470772
 20
158.3364496096274
 30
0.0
 11
578.0617203949227
 21
158.3364496096274
 31
0.0
  0
LINE
  5
1C3
330
6F
100
AcDbEntity
  8
COMMENT
  6
Continuous
100
AcDbLine
 10
579.0617203949227
 20
158.3364496096274
 30
0.0
 11
579.0617203949227
 21
148.3364496096263
 31
0.0
  0
CIRCLE
  5
1C4
330
6F
100
AcDbEntity
  8
COMMENT
  6
Continuous
100
AcDbCircle
 10
579.0617203949227
 20
158.3364496096274
 30
0.0
 40
0.5
  0
CIRCLE
  5
1C5
330
6F
100
AcDbEntity
  8
COMMENT
  6
Continuous
100
AcDbCircle
 10
579.0617203949227
 20
148.3364496096263
 30
0.0
 40
0.5
  0
TEXT
  5
1C6
330
6F
100
AcDbEntity
  8
COMMENT
  6
Continuous
100
AcDbText
 10
578.5617203949227
 20
150.7364495261804
 30
0.0
 40
3.099999904632568
  1
10
 50
90.0
100
AcDbText
  0
LINE
  5
1C7
330
6F
100
AcDbEntity
  8
COMMENT
  6
Continuous
100
AcDbLine
 10
591.9412277087563
 20
149.3364496096263
 30
0.0
 11
584.5179618756644
 21
149.3364496096263
 31
0.0
  0
LINE
  5
1C8
330
6F
100
AcDbEntity
  8
COMMENT
  6
Continuous
100
AcDbLine
 10
585.5179618756644
 20
153.6527538164744
 30
0.0
 11
585.5179618756644
 21
148.3364496096263
 31
0.0
  0
CIRCLE
  5
1C9
330
6F
100
AcDbEntity
  8
COMMENT
  6
Continuous
100
AcDbCircle
 10
585.5179618756644
 20
149.3364496096263
 30
0.0
 40
0.5
  0
CIRCLE
  5
1CA
330
6F
100
AcDbEntity
  8
COMMENT
  6
Continuous
100
AcDbCircle
 10
585.5179618756644
 20
148.3364496096263
 30
0.0
 40
0.5
  0
TEXT
  5
1CB
330
6F
100
AcDbEntity
  8
COMMENT
  6
Continuous
100
AcDbText
 10
585.0179618756644
 20
151.0527537058035
 30
0.0
 40
3.099999904632568
  1
1
 50
90.0
100
AcDbText
  0
LINE
  5
1CC
330
6F
100
AcDbEntity
  8
COMMENT
  6
Continuous
100
AcDbLine
 10
204.6969337500588
 20
158.336449609626
 30
0.0
 11
196.4532586239802
 21
158.336449609626
 31
0.0
  0
LINE
  5
1CD
330
6F
100
AcDbEntity
  8
COMMENT
  6
Continuous
100
AcDbLine
 10
197.4532586239802
 20
158.336449609626
 30
0.0
 11
197.4532586239802
 21
148.336449609626
 31
0.0
  0
CIRCLE
  5
1CE
330
6F
100
AcDbEntity
  8
COMMENT
  6
Continuous
100
AcDbCircle
 10
197.4532586239802
 20
158.336449609626
 30
0.0
 40
0.5
  0
CIRCLE
  5
1CF
330
6F
100
AcDbEntity
  8
COMMENT
  6
Continuous
100
AcDbCircle
 10
197.4532586239802
 20
148.336449609626
 30
0.0
 40
0.5
  0
TEXT
  5
1D0
330
6F
100
AcDbEntity
  8
COMMENT
  6
Continuous
100
AcDbText
 10
196.9532586239802
 20
150.7364495261795
 30
0.0
 40
3.099999904632568
  1
10
 50
90.0
100
AcDbText
  0
LINE
  5
1D1
330
6F
100
AcDbEntity
  8
COMMENT
  6
Continuous
100
AcDbLine
 10
211.9273721117376
 20
149.3364496096259
 30
0.0
 11
203.589649197089
 21
149.3364496096259
 31
0.0
  0
LINE
  5
1D2
330
6F
100
AcDbEntity
  8
COMMENT
  6
Continuous
100
AcDbLine
 10
204.589649197089
 20
153.0539951189643
 30
0.0
 11
204.589649197089
 21
148.336449609626
 31
0.0
  0
CIRCLE
  5
1D3
330
6F
100
AcDbEntity
  8
COMMENT
  6
Continuous
100
AcDbCircle
 10
204.589649197089
 20
149.3364496096259
 30
0.0
 40
0.5
  0
CIRCLE
  5
1D4
330
6F
100
AcDbEntity
  8
COMMENT
  6
Continuous
100
AcDbCircle
 10
204.589649197089
 20
148.336449609626
 30
0.0
 40
0.5
  0
TEXT
  5
1D5
330
6F
100
AcDbEntity
  8
COMMENT
  6
Continuous
100
AcDbText
 10
204.089649197089
 20
150.4539949760675
 30
0.0
 40
3.099999904632568
  1
1
 50
90.0
100
AcDbText
  0
LINE
  5
1D6
330
6F
100
AcDbEntity
  8
COMMENT
  6
Continuous
100
AcDbLine
 10
584.7107893485254
 20
415.7555691123039
 30
0.0
 11
577.5612808818756
 21
415.7555691123039
 31
0.0
  0
LINE
  5
1D7
330
6F
100
AcDbEntity
  8
COMMENT
  6
Continuous
100
AcDbLine
 10
578.5612808818756
 20
415.7555691123039
 30
0.0
 11
578.5612808818756
 21
405.7555691123014
 31
0.0
  0
CIRCLE
  5
1D8
330
6F
100
AcDbEntity
  8
COMMENT
  6
Continuous
100
AcDbCircle
 10
578.5612808818756
 20
415.7555691123039
 30
0.0
 40
0.5
  0
CIRCLE
  5
1D9
330
6F
100
AcDbEntity
  8
COMMENT
  6
Continuous
100
AcDbCircle
 10
578.5612808818756
 20
405.7555691123014
 30
0.0
 40
0.5
  0
TEXT
  5
1DA
330
6F
100
AcDbEntity
  8
COMMENT
  6
Continuous
100
AcDbText
 10
578.0612808818756
 20
408.1555690288561
 30
0.0
 40
3.099999904632568
  1
10
 50
90.0
100
AcDbText
  0
LINE
  5
1DB
330
6F
100
AcDbEntity
  8
COMMENT
  6
Continuous
100
AcDbLine
 10
591.9412277102044
 20
406.7555691123014
 30
0.0
 11
583.8243329729719
 21
406.7555691123014
 31
0.0
  0
LINE
  5
1DC
330
6F
100
AcDbEntity
  8
COMMENT
  6
Continuous
100
AcDbLine
 10
584.8243329729719
 20
411.184528958798
 30
0.0
 11
584.8243329729719
 21
405.7555691123014
 31
0.0
  0
CIRCLE
  5
1DD
330
6F
100
AcDbEntity
  8
COMMENT
  6
Continuous
100
AcDbCircle
 10
584.8243329729719
 20
406.7555691123014
 30
0.0
 40
0.5
  0
CIRCLE
  5
1DE
330
6F
100
AcDbEntity
  8
COMMENT
  6
Continuous
100
AcDbCircle
 10
584.8243329729719
 20
405.7555691123014
 30
0.0
 40
0.5
  0
TEXT
  5
1DF
330
6F
100
AcDbEntity
  8
COMMENT
  6
Continuous
100
AcDbText
 10
584.3243329729719
 20
408.584528754618
 30
0.0
 40
3.099999904632568
  1
1
 50
90.0
100
AcDbText
  0
LINE
  5
1E0
330
6F
100
AcDbEntity
  8
COMMENT
  6
Continuous
100
AcDbLine
 10
204.6969337515066
 20
410.7555691123031
 30
0.0
 11
197.9994873239741
 21
410.7555691123031
 31
0.0
  0
LINE
  5
1E1
330
6F
100
AcDbEntity
  8
COMMENT
  6
Continuous
100
AcDbLine
 10
198.9994873239741
 20
410.7555691123031
 30
0.0
 11
198.9994873239741
 21
400.7555691123014
 31
0.0
  0
CIRCLE
  5
1E2
330
6F
100
AcDbEntity
  8
COMMENT
  6
Continuous
100
AcDbCircle
 10
198.9994873239741
 20
410.7555691123031
 30
0.0
 40
0.5
  0
CIRCLE
  5
1E3
330
6F
100
AcDbEntity
  8
COMMENT
  6
Continuous
100
AcDbCircle
 10
198.9994873239741
 20
400.7555691123014
 30
0.0
 40
0.5
  0
TEXT
  5
1E4
330
6F
100
AcDbEntity
  8
COMMENT
  6
Continuous
100
AcDbText
 10
198.4994873239741
 20
403.1555690288556
 30
0.0
 40
3.099999904632568
  1
10
 50
90.0
100
AcDbText
  0
LINE
  5
1E5
330
6F
100
AcDbEntity
  8
COMMENT
  6
Continuous
100
AcDbLine
 10
211.9273721131854
 20
401.7555691123011
 30
0.0
 11
204.674166099886
 21
401.7555691123011
 31
0.0
  0
LINE
  5
1E6
330
6F
100
AcDbEntity
  8
COMMENT
  6
Continuous
100
AcDbLine
 10
205.674166099886
 20
405.9313484549527
 30
0.0
 11
205.674166099886
 21
400.7555691123014
 31
0.0
  0
CIRCLE
  5
1E7
330
6F
100
AcDbEntity
  8
COMMENT
  6
Continuous
100
AcDbCircle
 10
205.674166099886
 20
401.7555691123011
 30
0.0
 40
0.5
  0
CIRCLE
  5
1E8
330
6F
100
AcDbEntity
  8
COMMENT
  6
Continuous
100
AcDbCircle
 10
205.674166099886
 20
400.7555691123014
 30
0.0
 40
0.5
  0
TEXT
  5
1E9
330
6F
100
AcDbEntity
  8
COMMENT
  6
Continuous
100
AcDbText
 10
205.174166099886
 20
403.3313484357892
 30
0.0
 40
3.099999904632568
  1
1
 50
90.0
100
AcDbText
  0
LINE
  5
1EA
330
6F
100
AcDbEntity
  8
COMMENT
  6
Continuous
100
AcDbLine
 10
592.7412277214805
 20
456.5555691242217
 30
0.0
 11
592.7412277214805
 21
473.782779861825
 31
0.0
  0
LINE
  5
1EB
330
6F
100
AcDbEntity
  8
COMMENT
  6
Continuous
100
AcDbLine
 10
592.7412277214805
 20
472.7827798618251
 30
0.0
 11
622.7412277214805
 21
472.7827798618251
 31
0.0
  0
CIRCLE
  5
1EC
330
6F
100
AcDbEntity
  8
COMMENT
  6
Continuous
100
AcDbCircle
 10
592.7412277214805
 20
472.7827798618251
 30
0.0
 40
0.5
  0
CIRCLE
  5
1ED
330
6F
100
AcDbEntity
  8
COMMENT
  6
Continuous
100
AcDbCircle
 10
622.7412277214805
 20
472.7827798618251
 30
0.0
 40
0.5
  0
TEXT
  5
1EE
330
6F
100
AcDbEntity
  8
COMMENT
  6
Continuous
100
AcDbText
 10
605.1412276380339
 20
473.282779861825
 30
0.0
 40
3.099999904632568
  1
30
100
AcDbText
  0
LINE
  5
1EF
330
6F
100
AcDbEntity
  8
COMMENT
  6
Continuous
100
AcDbLine
 10
622.7412277214805
 20
456.5555691242217
 30
0.0
 11
622.7412277214805
 21
473.782779861825
 31
0.0
  0
LINE
  5
1F0
330
6F
100
AcDbEntity
  8
COMMENT
  6
Continuous
100
AcDbLine
 10
212.7273721244616
 20
451.5555691242219
 30
0.0
 11
212.7273721244616
 21
467.6552521007886
 31
0.0
  0
LINE
  5
1F1
330
6F
100
AcDbEntity
  8
COMMENT
  6
Continuous
100
AcDbLine
 10
212.7273721244616
 20
466.6552521007885
 30
0.0
 11
242.7273721244616
 21
466.6552521007885
 31
0.0
  0
CIRCLE
  5
1F2
330
6F
100
AcDbEntity
  8
COMMENT
  6
Continuous
100
AcDbCircle
 10
212.7273721244616
 20
466.6552521007885
 30
0.0
 40
0.5
  0
CIRCLE
  5
1F3
330
6F
100
AcDbEntity
  8
COMMENT
  6
Continuous
100
AcDbCircle
 10
242.7273721244616
 20
466.6552521007885
 30
0.0
 40
0.5
  0
TEXT
  5
1F4
330
6F
100
AcDbEntity
  8
COMMENT
  6
Continuous
100
AcDbText
 10
225.1273720410151
 20
467.1552521007886
 30
0.0
 40
3.099999904632568
  1
30
100
AcDbText
  0
LINE
  5
1F5
330
6F
100
AcDbEntity
  8
COMMENT
  6
Continuous
100
AcDbLine
 10
242.7273721244616
 20
451.5555691242219
 30
0.0
 11
242.7273721244616
 21
467.6552521007886
 31
0.0
  0
LINE
  5
1F6
330
6F
100
AcDbEntity
  8
COMMENT
  6
Continuous
100
AcDbLine
 10
242.7273721230138
 20
199.1364496215464
 30
0.0
 11
242.7273721230138
 21
214.8956961592214
 31
0.0
  0
LINE
  5
1F7
330
6F
100
AcDbEntity
  8
COMMENT
  6
Continuous
100
AcDbLine
 10
242.7273721230138
 20
213.8956961592214
 30
0.0
 11
212.7273721230138
 21
213.8956961592214
 31
0.0
  0
CIRCLE
  5
1F8
330
6F
100
AcDbEntity
  8
COMMENT
  6
Continuous
100
AcDbCircle
 10
242.7273721230138
 20
213.8956961592214
 30
0.0
 40
0.5
  0
CIRCLE
  5
1F9
330
6F
100
AcDbEntity
  8
COMMENT
  6
Continuous
100
AcDbCircle
 10
212.7273721230138
 20
213.8956961592214
 30
0.0
 40
0.5
  0
TEXT
  5
1FA
330
6F
100
AcDbEntity
  8
COMMENT
  6
Continuous
100
AcDbText
 10
225.1273720395673
 20
214.3956961592214
 30
0.0
 40
3.099999904632568
  1
30
100
AcDbText
  0
LINE
  5
1FB
330
6F
100
AcDbEntity
  8
COMMENT
  6
Continuous
100
AcDbLine
 10
212.7273721230138
 20
199.1364496215464
 30
0.0
 11
212.7273721230138
 21
214.8956961592214
 31
0.0
  0
LINE
  5
1FC
330
6F
100
AcDbEntity
  8
COMMENT
  6
Continuous
100
AcDbLine
 10
592.7412277200324
 20
199.1364496215468
 30
0.0
 11
592.7412277200324
 21
213.36384343718
 31
0.0
  0
LINE
  5
1FD
330
6F
100
AcDbEntity
  8
COMMENT
  6
Continuous
100
AcDbLine
 10
592.7412277200324
 20
212.36384343718
 30
0.0
 11
622.7412277200324
 21
212.36384343718
 31
0.0
  0
CIRCLE
  5
1FE
330
6F
100
AcDbEntity
  8
COMMENT
  6
Continuous
100
AcDbCircle
 10
592.7412277200324
 20
212.36384343718
 30
0.0
 40
0.5
  0
CIRCLE
  5
1FF
330
6F
100
AcDbEntity
  8
COMMENT
  6
Continuous
100
AcDbCircle
 10
622.7412277200324
 20
212.36384343718
 30
0.0
 40
0.5
  0
TEXT
  5
200
330
6F
100
AcDbEntity
  8
COMMENT
  6
Continuous
100
AcDbText
 10
605.1412276365859
 20
212.86384343718
 30
0.0
 40
3.099999904632568
  1
30
100
AcDbText
  0
LINE
  5
201
330
6F
100
AcDbEntity
  8
COMMENT
  6
Continuous
100
AcDbLine
 10
622.7412277200324
 20
199.1364496215468
 30
0.0
 11
622.7412277200324
 21
213.36384343718
 31
0.0
  0
LINE
  5
202
330
6F
100
AcDbEntity
  8
COMMENT
  6
Continuous
100
AcDbLine
 10
591.9412277081113
 20
198.3364496096259
 30
0.0
 11
570.0528570732411
 21
198.3364496096259
 31
0.0
  0
LINE
  5
203
330
6F
100
AcDbEntity
  8
COMMENT
  6
Continuous
100
AcDbLine
 10
571.0528570732411
 20
198.3364496096259
 30
0.0
 11
571.0528570732411
 21
148.3364496096263
 31
0.0
  0
CIRCLE
  5
204
330
6F
100
AcDbEntity
  8
COMMENT
  6
Continuous
100
AcDbCircle
 10
571.0528570732411
 20
198.3364496096259
 30
0.0
 40
0.5
  0
CIRCLE
  5
205
330
6F
100
AcDbEntity
  8
COMMENT
  6
Continuous
100
AcDbCircle
 10
571.0528570732411
 20
148.3364496096263
 30
0.0
 40
0.5
  0
TEXT
  5
206
330
6F
100
AcDbEntity
  8
COMMENT
  6
Continuous
100
AcDbText
 10
570.5528570732411
 20
170.7364495261796
 30
0.0
 40
3.099999904632568
  1
50
 50
90.0
100
AcDbText
  0
LINE
  5
207
330
6F
100
AcDbEntity
  8
COMMENT
  6
Continuous
100
AcDbLine
 10
591.9412277095594
 20
455.7555691123008
 30
0.0
 11
569.5379570623584
 21
455.7555691123008
 31
0.0
  0
LINE
  5
208
330
6F
100
AcDbEntity
  8
COMMENT
  6
Continuous
100
AcDbLine
 10
570.5379570623586
 20
455.7555691123008
 30
0.0
 11
570.5379570623586
 21
405.7555691123014
 31
0.0
  0
CIRCLE
  5
209
330
6F
100
AcDbEntity
  8
COMMENT
  6
Continuous
100
AcDbCircle
 10
570.5379570623586
 20
455.7555691123008
 30
0.0
 40
0.5
  0
CIRCLE
  5
20A
330
6F
100
AcDbEntity
  8
COMMENT
  6
Continuous
100
AcDbCircle
 10
570.5379570623586
 20
405.7555691123014
 30
0.0
 40
0.5
  0
TEXT
  5
20B
330
6F
100
AcDbEntity
  8
COMMENT
  6
Continuous
100
AcDbText
 10
570.0379570623586
 20
428.1555690288546
 30
0.0
 40
3.099999904632568
  1
50
 50
90.0
100
AcDbText
  0
LINE
  5
20C
330
6F
100
AcDbEntity
  8
COMMENT
  6
Continuous
100
AcDbLine
 10
211.9273721125406
 20
450.7555691123008
 30
0.0
 11
189.6306742468443
 21
450.7555691123008
 31
0.0
  0
LINE
  5
20D
330
6F
100
AcDbEntity
  8
COMMENT
  6
Continuous
100
AcDbLine
 10
190.6306742468443
 20
450.7555691123008
 30
0.0
 11
190.6306742468443
 21
400.7555691123014
 31
0.0
  0
CIRCLE
  5
20E
330
6F
100
AcDbEntity
  8
COMMENT
  6
Continuous
100
AcDbCircle
 10
190.6306742468443
 20
450.7555691123008
 30
0.0
 40
0.5
  0
CIRCLE
  5
20F
330
6F
100
AcDbEntity
  8
COMMENT
  6
Continuous
100
AcDbCircle
 10
190.6306742468443
 20
400.7555691123014
 30
0.0
 40
0.5
  0
TEXT
  5
210
330
6F
100
AcDbEntity
  8
COMMENT
  6
Continuous
100
AcDbText
 10
190.1306742468443
 20
423.1555690288545
 30
0.0
 40
3.099999904632568
  1
50
 50
90.0
100
AcDbText
  0
LINE
  5
211
330
6F
100
AcDbEntity
  8
COMMENT
  6
Continuous
100
AcDbLine
 10
211.9273721110929
 20
198.3364496096255
 30
0.0
 11
188.8022368981737
 21
198.3364496096255
 31
0.0
  0
LINE
  5
212
330
6F
100
AcDbEntity
  8
COMMENT
  6
Continuous
100
AcDbLine
 10
189.8022368981736
 20
198.3364496096255
 30
0.0
 11
189.8022368981736
 21
148.336449609626
 31
0.0
  0
CIRCLE
  5
213
330
6F
100
AcDbEntity
  8
COMMENT
  6
Continuous
100
AcDbCircle
 10
189.8022368981736
 20
198.3364496096255
 30
0.0
 40
0.5
  0
CIRCLE
  5
214
330
6F
100
AcDbEntity
  8
COMMENT
  6
Continuous
100
AcDbCircle
 10
189.8022368981736
 20
148.336449609626
 30
0.0
 40
0.5
  0
TEXT
  5
215
330
6F
100
AcDbEntity
  8
COMMENT
  6
Continuous
100
AcDbText
 10
189.3022368981736
 20
170.736449526179
 30
0.0
 40
3.099999904632568
  1
50
 50
90.0
100
AcDbText
  0
LINE
  5
216
330
6F
100
AcDbEntity
  8
ANCHOR
  6
Continuous
100
AcDbLine
 10
602.7412277189593
 20
413.2555691123013
 30
0.0
 11
612.7412277189592
 21
413.2555691123013
 31
0.0
  0
LINE
  5
217
330
6F
100
AcDbEntity
  8
ANCHOR
  6
Continuous
100
AcDbLine
 10
613.5147304108556
 20
412.8089871249161
 30
0.0
 11
613.5147304108556
 21
409.2555691123014
 31
0.0
  0
LINE
  5
218
330
6F
100
AcDbEntity
  8
ANCHOR
  6
Continuous
100
AcDbLine
 10
601.9677250270631
 20
412.8089871249161
 30
0.0
 11
601.9677250270631
 21
409.2555691123014
 31
0.0
  0
LINE
  5
219
330
6F
100
AcDbEntity
  8
ANCHOR
  6
Continuous
100
AcDbLine
 10
604.8544763730108
 20
412.7040143487
 30
0.0
 11
604.8544763730108
 21
409.2555691123014
 31
0.0
  0
LINE
  5
21A
330
6F
100
AcDbEntity
  8
ANCHOR
  6
Continuous
100
AcDbLine
 10
610.6279790649071
 20
412.7040143487
 30
0.0
 11
610.6279790649071
 21
409.2555691123014
 31
0.0
  0
LINE
  5
21B
330
6F
100
AcDbEntity
  8
ANCHOR
  6
Continuous
100
AcDbLine
 10
613.5147304108555
 20
412.8089871249165
 30
0.0
 11
612.741227718959
 21
413.2555691123017
 31
0.0
  0
LINE
  5
21C
330
6F
100
AcDbEntity
  8
ANCHOR
  6
Continuous
100
AcDbLine
 10
601.9677250270631
 20
412.808987124916
 30
0.0
 11
602.7412277189593
 21
413.2555691123011
 31
0.0
  0
ARC
  5
21D
330
6F
100
AcDbEntity
  8
ANCHOR
  6
Continuous
100
AcDbCircle
 10
607.7412277189588
 20
405.4253892638075
 30
0.0
 40
7.830179848493714
100
AcDbArc
 50
68.36639223264487
 51
111.6336077673514
  0
ARC
  5
21E
330
6F
100
AcDbEntity
  8
ANCHOR
  6
Continuous
100
AcDbCircle
 10
603.4111007000368
 20
411.0911911138279
 30
0.0
 40
2.164377998473439
100
AcDbArc
 50
48.17345191046694
 51
89.9999999994255
  0
ARC
  5
21F
330
6F
100
AcDbEntity
  8
ANCHOR
  6
Continuous
100
AcDbCircle
 10
612.0713547378812
 20
411.0911911138265
 30
0.0
 40
2.16437799847471
100
AcDbArc
 50
89.9999999994255
 51
131.8265480895158
  0
LINE
  5
220
330
6F
100
AcDbEntity
  8
ANCHOR
  6
Continuous
100
AcDbLine
 10
601.9677250270631
 20
409.2555691123014
 30
0.0
 11
613.5147304108556
 21
409.2555691123014
 31
0.0
  0
LINE
  5
221
330
6F
100
AcDbEntity
  8
KUTAI
  6
Continuous
100
AcDbLine
 10
517.4856009406731
 20
405.7555691123014
 30
0.0
 11
692.665189448772
 21
405.7555691123014
 31
0.0
  0
ARC
  5
222
330
6F
100
AcDbEntity
  8
ANCHOR
  6
HIDDEN
100
AcDbCircle
 10
615.1912277190031
 20
405.3555691123011
 30
0.0
 40
0.3
100
AcDbArc
 50
270.0
 51
0.0
  0
LINE
  5
223
330
6F
100
AcDbEntity
  8
ANCHOR
  6
HIDDEN
100
AcDbLine
 10
615.4912277190027
 20
405.3555691123013
 30
0.0
 11
615.4912277190027
 21
405.7555691123014
 31
0.0
  0
LINE
  5
224
330
6F
100
AcDbEntity
  8
ANCHOR
  6
HIDDEN
100
AcDbLine
 10
618.2412277190027
 20
405.7555691123014
 30
0.0
 11
618.2412277190027
 21
397.7555691123015
 31
0.0
  0
LINE
  5
225
330
6F
100
AcDbEntity
  8
ANCHOR
  6
HIDDEN
100
AcDbLine
 10
606.835506704211
 20
404.055569112302
 30
0.0
 11
607.7412277190031
 21
397.7555691123022
 31
0.0
  0
LINE
  5
226
330
6F
100
AcDbEntity
  8
ANCHOR
  6
HIDDEN
100
AcDbLine
 10
607.7412277190031
 20
405.0555691123011
 30
0.0
 11
607.7412277190027
 21
397.7555691123046
 31
0.0
  0
ARC
  5
227
330
6F
100
AcDbEntity
  8
ANCHOR
  6
HIDDEN
100
AcDbCircle
 10
607.4652741066792
 20
403.8954668481943
 30
0.0
 40
1.192471240466957
100
AcDbArc
 50
7.715883603285383
 51
76.61971166401229
  0
LINE
  5
228
330
6F
100
AcDbEntity
  8
ANCHOR
  6
HIDDEN
100
AcDbLine
 10
608.6469487337948
 20
404.0555691123008
 30
0.0
 11
607.741227719002
 21
397.7555691123012
 31
0.0
  0
ARC
  5
229
330
6F
100
AcDbEntity
  8
ANCHOR
  6
HIDDEN
100
AcDbCircle
 10
608.0171813313262
 20
403.8954668481943
 30
0.0
 40
1.192471240466957
100
AcDbArc
 50
103.3802883359746
 51
172.2841163967017
  0
LINE
  5
22A
330
6F
100
AcDbEntity
  8
ANCHOR
  6
HIDDEN
100
AcDbLine
 10
608.6469487337948
 20
404.0555691123013
 30
0.0
 11
613.7412277190027
 21
404.0555691123003
 31
0.0
  0
LINE
  5
22B
330
6F
100
AcDbEntity
  8
ANCHOR
  6
HIDDEN
100
AcDbLine
 10
599.9912277190027
 20
405.3555691123013
 30
0.0
 11
599.9912277190027
 21
405.7555691123014
 31
0.0
  0
ARC
  5
22C
330
6F
100
AcDbEntity
  8
ANCHOR
  6
HIDDEN
100
AcDbCircle
 10
600.7412277190027
 20
404.0555691123013
 30
0.0
 40
1.0
100
AcDbArc
 50
0.0
 51
90.0
  0
LINE
  5
22D
330
6F
100
AcDbEntity
  8
ANCHOR
  6
HIDDEN
100
AcDbLine
 10
597.2412277190036
 20
405.7555691123011
 30
0.0
 11
597.2412277190027
 21
397.7555691123013
 31
0.0
  0
ARC
  5
22E
330
6F
100
AcDbEntity
  8
ANCHOR
  6
HIDDEN
100
AcDbCircle
 10
600.291227719003
 20
405.3555691123011
 30
0.0
 40
0.3
100
AcDbArc
 50
180.0
 51
270.0
  0
LINE
  5
22F
330
6F
100
AcDbEntity
  8
ANCHOR
  6
HIDDEN
100
AcDbLine
 10
606.8355067042106
 20
404.055569112301
 30
0.0
 11
601.7412277190027
 21
404.055569112301
 31
0.0
  0
LINE
  5
230
330
6F
100
AcDbEntity
  8
ANCHOR
  6
HIDDEN
100
AcDbLine
 10
597.2412277190036
 20
405.7555691123014
 30
0.0
 11
618.2412277190027
 21
405.7555691123014
 31
0.0
  0
ARC
  5
231
330
6F
100
AcDbEntity
  8
ANCHOR
  6
HIDDEN
100
AcDbCircle
 10
614.7412277190027
 20
404.0555691123013
 30
0.0
 40
1.0
100
AcDbArc
 50
90.0
 51
180.0
  0
LINE
  5
232
330
6F
100
AcDbEntity
  8
ANCHOR
  6
HIDDEN
100
AcDbLine
 10
600.291227719003
 20
405.0555691123021
 30
0.0
 11
615.1912277190031
 21
405.0555691123001
 31
0.0
  0
LINE
  5
233
330
6F
100
AcDbEntity
  8
ANCHOR
  6
HIDDEN
100
AcDbLine
 10
613.9805777024335
 20
365.8623028133493
 30
0.0
 11
617.0805777024336
 21
360.4929453098862
 31
0.0
  0
LINE
  5
234
330
6F
100
AcDbEntity
  8
ANCHOR
  6
HIDDEN
100
AcDbLine
 10
616.042119670852
 20
359.8933912858097
 30
0.0
 11
617.080577702433
 21
360.4929453098857
 31
0.0
  0
LINE
  5
235
330
6F
100
AcDbEntity
  8
ANCHOR
  6
HIDDEN
100
AcDbLine
 10
617.1027041099628
 20
381.03404099899
 30
0.0
 11
614.2851055676682
 21
375.3201175062493
 31
0.0
  0
ARC
  5
236
330
6F
100
AcDbEntity
  8
ANCHOR
  6
HIDDEN
100
AcDbCircle
 10
600.3627507548399
 20
394.991693621243
 30
0.0
 40
14.09781378264538
100
AcDbArc
 50
261.9139567489959
 51
286.0860432509978
  0
LINE
  5
237
330
6F
100
AcDbEntity
  8
ANCHOR
  6
HIDDEN
100
AcDbLine
 10
611.340038142834
 20
359.8933912858099
 30
0.0
 11
611.340038142834
 21
365.9555691123011
 31
0.0
  0
LINE
  5
238
330
6F
100
AcDbEntity
  8
ANCHOR
  6
HIDDEN
100
AcDbLine
 10
604.1424172951714
 20
359.8933912858099
 30
0.0
 11
604.1424172951714
 21
365.9555691123011
 31
0.0
  0
LINE
  5
239
330
6F
100
AcDbEntity
  8
ANCHOR
  6
HIDDEN
100
AcDbLine
 10
602.2412277190027
 20
361.7555691123013
 30
0.0
 11
604.1424172951714
 21
361.7555691123013
 31
0.0
  0
LINE
  5
23A
330
6F
100
AcDbEntity
  8
ANCHOR
  6
HIDDEN
100
AcDbLine
 10
613.2412277190027
 20
361.7555691123013
 30
0.0
 11
611.340038142834
 21
361.7555691123013
 31
0.0
  0
LINE
  5
23B
330
6F
100
AcDbEntity
  8
ANCHOR
  6
HIDDEN
100
AcDbLine
 10
604.1424172951714
 20
365.9555691123011
 30
0.0
 11
602.9403357671542
 21
365.9555691123011
 31
0.0
  0
LINE
  5
23C
330
6F
100
AcDbEntity
  8
ANCHOR
  6
HIDDEN
100
AcDbLine
 10
602.2412277190039
 20
375.0634744676819
 30
0.0
 11
602.2412277190031
 21
374.2555691123018
 31
0.0
  0
LINE
  5
23D
330
6F
100
AcDbEntity
  8
ANCHOR
  6
HIDDEN
100
AcDbLine
 10
612.9452349220048
 20
366.6555691123007
 30
0.0
 11
613.5475650005412
 21
365.6123028133488
 31
0.0
  0
LINE
  5
23E
330
6F
100
AcDbEntity
  8
ANCHOR
  6
HIDDEN
100
AcDbLine
 10
613.2412277190027
 20
375.0634744676816
 30
0.0
 11
613.2412277190027
 21
374.2555691123014
 31
0.0
  0
LINE
  5
23F
330
6F
100
AcDbEntity
  8
ANCHOR
  6
HIDDEN
100
AcDbLine
 10
613.7412277190027
 20
374.2555691123014
 30
0.0
 11
613.7412277190027
 21
366.655569112301
 31
0.0
  0
LINE
  5
240
330
6F
100
AcDbEntity
  8
ANCHOR
  6
HIDDEN
100
AcDbLine
 10
606.8912277190032
 20
374.9555691123015
 30
0.0
 11
608.5912277190032
 21
374.9555691123014
 31
0.0
  0
LINE
  5
241
330
6F
100
AcDbEntity
  8
ANCHOR
  6
HIDDEN
100
AcDbLine
 10
611.340038142834
 20
365.9555691123011
 30
0.0
 11
612.5421196708511
 21
365.9555691123011
 31
0.0
  0
LINE
  5
242
330
6F
100
AcDbEntity
  8
ANCHOR
  6
HIDDEN
100
AcDbLine
 10
604.1424172951717
 20
365.862302813349
 30
0.0
 11
611.340038142834
 21
365.862302813349
 31
0.0
  0
LINE
  5
243
330
6F
100
AcDbEntity
  8
ANCHOR
  6
HIDDEN
100
AcDbLine
 10
604.1424172951714
 20
359.8933912858099
 30
0.0
 11
611.340038142834
 21
359.8933912858099
 31
0.0
  0
LINE
  5
244
330
6F
100
AcDbEntity
  8
ANCHOR
  6
HIDDEN
100
AcDbLine
 10
601.5018777355726
 20
365.8623028133493
 30
0.0
 11
598.4018777355727
 21
360.4929453098861
 31
0.0
  0
LINE
  5
245
330
6F
100
AcDbEntity
  8
ANCHOR
  6
HIDDEN
100
AcDbLine
 10
599.4403357671552
 20
359.8933912858105
 30
0.0
 11
598.4018777355736
 21
360.4929453098863
 31
0.0
  0
LINE
  5
246
330
6F
100
AcDbEntity
  8
ANCHOR
  6
HIDDEN
100
AcDbLine
 10
600.8324523097505
 20
360.7864447411872
 30
0.0
 11
599.4403357671541
 21
359.8933912858094
 31
0.0
  0
LINE
  5
247
330
6F
100
AcDbEntity
  8
ANCHOR
  6
HIDDEN
100
AcDbLine
 10
601.7412277190027
 20
374.2555691123014
 30
0.0
 11
601.7412277190027
 21
366.655569112301
 31
0.0
  0
LINE
  5
248
330
6F
100
AcDbEntity
  8
ANCHOR
  6
HIDDEN
100
AcDbLine
 10
600.8324523097512
 20
360.7864447411877
 30
0.0
 11
603.8168476568877
 21
365.9555691123006
 31
0.0
  0
LINE
  5
249
330
6F
100
AcDbEntity
  8
ANCHOR
  6
HIDDEN
100
AcDbLine
 10
599.4403357671548
 20
359.89339128581
 30
0.0
 11
602.9403357671547
 21
365.9555691123013
 31
0.0
  0
ARC
  5
24A
330
6F
100
AcDbEntity
  8
ANCHOR
  6
HIDDEN
100
AcDbCircle
 10
603.4300332413833
 20
382.1501309669957
 30
0.0
 40
7.185677345199168
100
AcDbArc
 50
251.8977955235752
 51
296.102204476418
  0
LINE
  5
24B
330
6F
100
AcDbEntity
  8
ANCHOR
  6
HIDDEN
100
AcDbLine
 10
602.5403357671542
 20
365.2627487892735
 30
0.0
 11
601.5018777355725
 21
365.8623028133492
 31
0.0
  0
LINE
  5
24C
330
6F
100
AcDbEntity
  8
ANCHOR
  6
HIDDEN
100
AcDbLine
 10
602.5372205160011
 20
366.6555691123017
 30
0.0
 11
601.9348904374651
 21
365.6123028133495
 31
0.0
  0
LINE
  5
24D
330
6F
100
AcDbEntity
  8
ANCHOR
  6
HIDDEN
100
AcDbLine
 10
601.7412277190027
 20
366.655569112301
 30
0.0
 11
613.7412277190027
 21
366.655569112301
 31
0.0
  0
LINE
  5
24E
330
6F
100
AcDbEntity
  8
ANCHOR
  6
HIDDEN
100
AcDbLine
 10
601.7412277190028
 20
374.2555691123019
 30
0.0
 11
613.7412277190028
 21
374.2555691123019
 31
0.0
  0
LINE
  5
24F
330
6F
100
AcDbEntity
  8
ANCHOR
  6
HIDDEN
100
AcDbLine
 10
604.2689815650922
 20
381.4458560942688
 30
0.0
 11
606.8912277190035
 21
374.9555691123015
 31
0.0
  0
LINE
  5
250
330
6F
100
AcDbEntity
  8
ANCHOR
  6
HIDDEN
100
AcDbLine
 10
611.213473872915
 20
381.4458560942697
 30
0.0
 11
608.5912277190034
 21
374.9555691123023
 31
0.0
  0
LINE
  5
251
330
6F
100
AcDbEntity
  8
ANCHOR
  6
HIDDEN
100
AcDbLine
 10
598.3797513280425
 20
381.0340409989908
 30
0.0
 11
601.1973498703375
 21
375.3201175062498
 31
0.0
  0
ARC
  5
252
330
6F
100
AcDbEntity
  8
ANCHOR
  6
HIDDEN
100
AcDbCircle
 10
615.1197046831661
 20
394.991693621243
 30
0.0
 40
14.09781378264538
100
AcDbArc
 50
253.9139567490022
 51
278.086043251004
  0
LINE
  5
253
330
6F
100
AcDbEntity
  8
ANCHOR
  6
HIDDEN
100
AcDbLine
 10
616.0421196708515
 20
359.8933912858105
 30
0.0
 11
612.5421196708513
 21
365.9555691123018
 31
0.0
  0
LINE
  5
254
330
6F
100
AcDbEntity
  8
ANCHOR
  6
HIDDEN
100
AcDbLine
 10
612.9421196708504
 20
365.262748789274
 30
0.0
 11
613.9805777024321
 21
365.8623028133496
 31
0.0
  0
ARC
  5
255
330
6F
100
AcDbEntity
  8
ANCHOR
  6
HIDDEN
100
AcDbCircle
 10
612.0524221966234
 20
382.1501309669957
 30
0.0
 40
7.185677345199168
100
AcDbArc
 50
243.897795523582
 51
288.1022044764124
  0
LINE
  5
256
330
6F
100
AcDbEntity
  8
ANCHOR
  6
HIDDEN
100
AcDbLine
 10
614.7465357453569
 20
380.8988195923593
 30
0.0
 11
618.2412277190028
 21
397.7555691123017
 31
0.0
  0
LINE
  5
257
330
6F
100
AcDbEntity
  8
ANCHOR
  6
HIDDEN
100
AcDbLine
 10
613.7412277190027
 20
404.055569112301
 30
0.0
 11
613.7412277190027
 21
380.9614350808805
 31
0.0
  0
LINE
  5
258
330
6F
100
AcDbEntity
  8
ANCHOR
  6
HIDDEN
100
AcDbLine
 10
600.7359196926499
 20
380.8988195923587
 30
0.0
 11
597.2412277190032
 21
397.7555691123015
 31
0.0
  0
LINE
  5
259
330
6F
100
AcDbEntity
  8
ANCHOR
  6
HIDDEN
100
AcDbLine
 10
601.7412277190027
 20
404.055569112301
 30
0.0
 11
601.7412277190027
 21
380.9614350808805
 31
0.0
  0
ARC
  5
25A
330
6F
100
AcDbEntity
  8
ANCHOR
  6
HIDDEN
100
AcDbCircle
 10
602.2412277190027
 20
362.2555691123017
 30
0.0
 40
0.5
100
AcDbArc
 50
180.0
 51
270.0
  0
ARC
  5
25B
330
6F
100
AcDbEntity
  8
ANCHOR
  6
HIDDEN
100
AcDbCircle
 10
613.2412277190027
 20
362.2555691123017
 30
0.0
 40
0.5
100
AcDbArc
 50
270.0
 51
0.0
  0
LINE
  5
25C
330
6F
100
AcDbEntity
  8
ANCHOR
  6
HIDDEN
100
AcDbLine
 10
614.6500031282548
 20
360.786444741188
 30
0.0
 11
611.6656077811183
 21
365.9555691123015
 31
0.0
  0
LINE
  5
25D
330
6F
100
AcDbEntity
  8
ANCHOR
  6
HIDDEN
100
AcDbLine
 10
614.6500031282546
 20
360.7864447411876
 30
0.0
 11
616.0421196708512
 21
359.8933912858098
 31
0.0
  0
TEXT
  5
25E
330
6F
100
AcDbEntity
  8
WAKU
  6
Continuous
100
AcDbText
 10
38.64675006063919
 20
555.4024753726626
 30
0.0
 40
12.0
  1
直付タイプ
  7
KNJYOKO
100
AcDbText
  0
LINE
  5
25F
330
6F
100
AcDbEntity
  8
WASHER
  6
Continuous
100
AcDbLine
 10
218.7273721234328
 20
404.2555691123016
 30
0.0
 11
236.7273721234328
 21
404.2555691123016
 31
0.0
  0
LINE
  5
260
330
6F
100
AcDbEntity
  8
WASHER
  6
Continuous
100
AcDbLine
 10
236.7273721234328
 20
402.2555691123016
 30
0.0
 11
236.7273721234328
 21
404.2555691123016
 31
0.0
  0
LINE
  5
261
330
6F
100
AcDbEntity
  8
WASHER
  6
Continuous
100
AcDbLine
 10
218.7273721234328
 20
402.2555691123016
 30
0.0
 11
218.7273721234328
 21
404.2555691123016
 31
0.0
  0
LINE
  5
262
330
6F
100
AcDbEntity
  8
KUTAI
  6
Continuous
100
AcDbLine
 10
320.1307796053935
 20
400.7555691123014
 30
0.0
 11
117.957215493353
 21
400.7555691123014
 31
0.0
  0
LINE
  5
263
330
6F
100
AcDbEntity
  8
ANCHOR
  6
HIDDEN
100
AcDbLine
 10
222.2273721249206
 20
412.7555691124106
 30
0.0
 11
212.7273721235919
 21
412.755569112451
 31
0.0
  0
LINE
  5
264
330
6F
100
AcDbEntity
  8
ANCHOR
  6
HIDDEN
100
AcDbLine
 10
222.2273721254757
 20
408.7555691124107
 30
0.0
 11
212.7273721235762
 21
408.755569112451
 31
0.0
  0
LINE
  5
265
330
6F
100
AcDbEntity
  8
ANCHOR
  6
HIDDEN
100
AcDbLine
 10
225.1500218556861
 20
411.7555691124192
 30
0.0
 11
223.2273721249313
 21
411.7555691124153
 31
0.0
  0
LINE
  5
266
330
6F
100
AcDbEntity
  8
ANCHOR
  6
HIDDEN
100
AcDbLine
 10
225.150021855882
 20
409.7555691124194
 30
0.0
 11
223.2273721254692
 21
409.7555691124155
 31
0.0
  0
LINE
  5
267
330
6F
100
AcDbEntity
  8
ANCHOR
  6
HIDDEN
100
AcDbLine
 10
225.7273721249735
 20
410.7555691122591
 30
0.0
 11
225.150021855686
 21
411.7555691124199
 31
0.0
  0
LINE
  5
268
330
6F
100
AcDbEntity
  8
ANCHOR
  6
HIDDEN
100
AcDbLine
 10
225.1500218558827
 20
409.7555691124206
 30
0.0
 11
225.7273721249744
 21
410.7555691122596
 31
0.0
  0
ARC
  5
269
330
6F
100
AcDbEntity
  8
ANCHOR
  6
HIDDEN
100
AcDbCircle
 10
223.7273721254787
 20
410.7555691124178
 30
0.0
 40
0.5
100
AcDbArc
 50
97.20679386168658
 51
262.7932061387912
  0
LINE
  5
26A
330
6F
100
AcDbEntity
  8
ANCHOR
  6
HIDDEN
100
AcDbLine
 10
223.6646466890137
 20
410.259519195957
 30
0.0
 11
225.150021855882
 21
409.7555691124192
 31
0.0
  0
LINE
  5
26B
330
6F
100
AcDbEntity
  8
ANCHOR
  6
HIDDEN
100
AcDbLine
 10
223.6646466890101
 20
411.2516190288781
 30
0.0
 11
225.1500218556859
 21
411.75556911242
 31
0.0
  0
LINE
  5
26C
330
6F
100
AcDbEntity
  8
ANCHOR
  6
HIDDEN
100
AcDbLine
 10
223.2273721249297
 20
411.7555691124147
 30
0.0
 11
222.2273721249203
 21
412.755569112412
 31
0.0
  0
LINE
  5
26D
330
6F
100
AcDbEntity
  8
ANCHOR
  6
HIDDEN
100
AcDbLine
 10
222.2273721254762
 20
408.7555691124147
 30
0.0
 11
223.2273721254689
 21
409.7555691124147
 31
0.0
  0
LINE
  5
26E
330
6F
100
AcDbEntity
  8
ANCHOR
  6
HIDDEN
100
AcDbLine
 10
222.2273721252072
 20
408.7555691124132
 30
0.0
 11
222.2273721251924
 21
412.7555691124132
 31
0.0
  0
LINE
  5
26F
330
6F
100
AcDbEntity
  8
ANCHOR
  6
HIDDEN
100
AcDbLine
 10
223.2273721249732
 20
409.7555691124133
 30
0.0
 11
223.2273721249639
 21
411.7555691124134
 31
0.0
  0
LINE
  5
270
330
6F
100
AcDbEntity
  8
ANCHOR
  6
HIDDEN
100
AcDbLine
 10
223.0273721254709
 20
409.5555691124133
 30
0.0
 11
212.7273721235803
 21
409.5555691124546
 31
0.0
  0
LINE
  5
271
330
6F
100
AcDbEntity
  8
ANCHOR
  6
HIDDEN
100
AcDbLine
 10
223.0273721249297
 20
411.9555691124132
 30
0.0
 11
212.7273721235894
 21
411.9555691124543
 31
0.0
  0
LINE
  5
272
330
6F
100
AcDbEntity
  8
ANCHOR
  6
Continuous
100
AcDbLine
 10
210.7050615424423
 20
411.2537673600436
 30
0.0
 11
210.7050615424429
 21
410.2573708645611
 31
0.0
  0
LINE
  5
273
330
6F
100
AcDbEntity
  8
ANCHOR
  6
Continuous
100
AcDbLine
 10
210.7050615424421
 20
411.2537673600439
 30
0.0
 11
210.2273721237677
 21
411.2537673600439
 31
0.0
  0
LINE
  5
274
330
6F
100
AcDbEntity
  8
ANCHOR
  6
Continuous
100
AcDbLine
 10
210.7050615424425
 20
410.2573708645616
 30
0.0
 11
210.2273721237682
 21
410.2573708645616
 31
0.0
  0
LINE
  5
275
330
6F
100
AcDbEntity
  8
ANCHOR
  6
Continuous
100
AcDbLine
 10
212.2273721237847
 20
406.0555691123006
 30
0.0
 11
212.7273721237847
 21
406.055569112301
 31
0.0
  0
ARC
  5
276
330
6F
100
AcDbEntity
  8
ANCHOR
  6
Continuous
100
AcDbCircle
 10
216.3188375180907
 20
410.5799376789855
 30
0.0
 40
6.099999999999998
100
AcDbArc
 50
183.0312034848472
 51
227.876411461438
  0
LINE
  5
277
330
6F
100
AcDbEntity
  8
ANCHOR
  6
Continuous
100
AcDbLine
 10
212.2273721237507
 20
415.4555691123026
 30
0.0
 11
212.2273721237855
 21
406.0555691123012
 31
0.0
  0
ARC
  5
278
330
6F
100
AcDbEntity
  8
ANCHOR
  6
Continuous
100
AcDbCircle
 10
216.3188375180907
 20
410.9312005456231
 30
0.0
 40
6.099999999999998
100
AcDbArc
 50
132.1235885386251
 51
176.9687965152159
  0
LINE
  5
279
330
6F
100
AcDbEntity
  8
ANCHOR
  6
Continuous
100
AcDbLine
 10
212.7273721237513
 20
415.4555691123039
 30
0.0
 11
212.7273721237859
 21
406.0555691123024
 31
0.0
  0
LINE
  5
27A
330
6F
100
AcDbEntity
  8
ANCHOR
  6
Continuous
100
AcDbLine
 10
212.2273721237802
 20
415.4555691123023
 30
0.0
 11
212.7273721237802
 21
415.4555691123027
 31
0.0
  0
LINE
  5
27B
330
6F
100
AcDbEntity
  8
WASHER
  6
Continuous
100
AcDbLine
 10
218.7273721234328
 20
402.2555691123016
 30
0.0
 11
236.7273721234328
 21
402.2555691123016
 31
0.0
  0
LINE
  5
27C
330
6F
100
AcDbEntity
  8
ANCHOR
  6
HIDDEN
100
AcDbLine
 10
227.7273721234749
 20
393.7555691123123
 30
0.0
 11
228.0273721234833
 21
393.7555691123123
 31
0.0
  0
LINE
  5
27D
330
6F
100
AcDbEntity
  8
ANCHOR
  6
HIDDEN
100
AcDbLine
 10
228.0273721235101
 20
368.2555691123125
 30
0.0
 11
228.0273721234819
 21
393.7555691123126
 31
0.0
  0
LINE
  5
27E
330
6F
100
AcDbEntity
  8
ANCHOR
  6
HIDDEN
100
AcDbLine
 10
226.0689159441694
 20
360.4272652920452
 30
0.0
 11
223.6982166493241
 21
360.6863360534821
 31
0.0
  0
LINE
  5
27F
330
6F
100
AcDbEntity
  8
ANCHOR
  6
HIDDEN
100
AcDbLine
 10
223.7273721234808
 20
395.7555691123033
 30
0.0
 11
223.0273721234754
 21
400.7555691123013
 31
0.0
  0
LINE
  5
280
330
6F
100
AcDbEntity
  8
ANCHOR
  6
HIDDEN
100
AcDbLine
 10
227.7273721234893
 20
393.7555691123116
 30
0.0
 11
227.4273721234827
 21
393.7555691123109
 31
0.0
  0
LINE
  5
281
330
6F
100
AcDbEntity
  8
ANCHOR
  6
HIDDEN
100
AcDbLine
 10
227.4273721235109
 20
368.255569112311
 30
0.0
 11
227.4273721234825
 21
393.7555691123114
 31
0.0
  0
LINE
  5
282
330
6F
100
AcDbEntity
  8
ANCHOR
  6
HIDDEN
100
AcDbLine
 10
223.7273721234866
 20
390.2555691123031
 30
0.0
 11
224.7273721234866
 21
389.7555691123056
 31
0.0
  0
LINE
  5
283
330
6F
100
AcDbEntity
  8
ANCHOR
  6
HIDDEN
100
AcDbLine
 10
224.7273721234872
 20
389.755569112306
 30
0.0
 11
224.9773721234958
 21
381.7555691123065
 31
0.0
  0
LINE
  5
284
330
6F
100
AcDbEntity
  8
ANCHOR
  6
HIDDEN
100
AcDbLine
 10
223.7273721234875
 20
390.2555691123035
 30
0.0
 11
223.7273721234759
 21
400.7555691123035
 31
0.0
  0
LINE
  5
285
330
6F
100
AcDbEntity
  8
ANCHOR
  6
HIDDEN
100
AcDbLine
 10
226.8918576058291
 20
363.3551940858354
 30
0.0
 11
222.6324027755069
 21
363.8206686437424
 31
0.0
  0
LINE
  5
286
330
6F
100
AcDbEntity
  8
ANCHOR
  6
HIDDEN
100
AcDbLine
 10
227.0004911829199
 20
364.3492759466138
 30
0.0
 11
223.3871895621033
 21
364.7441386794126
 31
0.0
  0
LINE
  5
287
330
6F
100
AcDbEntity
  8
ANCHOR
  6
HIDDEN
100
AcDbLine
 10
223.6982166493257
 20
360.6863360534813
 30
0.0
 11
222.6324027755076
 21
363.8206686437418
 31
0.0
  0
LINE
  5
288
330
6F
100
AcDbEntity
  8
ANCHOR
  6
HIDDEN
100
AcDbLine
 10
222.6324027755062
 20
363.8206686437414
 30
0.0
 11
223.3871895621033
 21
364.7441386794122
 31
0.0
  0
LINE
  5
289
330
6F
100
AcDbEntity
  8
ANCHOR
  6
HIDDEN
100
AcDbLine
 10
227.1091247600114
 20
365.3433578073913
 30
0.0
 11
222.8496699296875
 21
365.8088323652983
 31
0.0
  0
LINE
  5
28A
330
6F
100
AcDbEntity
  8
ANCHOR
  6
HIDDEN
100
AcDbLine
 10
223.387189562104
 20
364.7441386794114
 30
0.0
 11
222.8496699296887
 21
365.8088323652978
 31
0.0
  0
LINE
  5
28B
330
6F
100
AcDbEntity
  8
ANCHOR
  6
HIDDEN
100
AcDbLine
 10
227.2720751256485
 20
366.8344805985589
 30
0.0
 11
223.0126202953246
 21
367.299955156466
 31
0.0
  0
LINE
  5
28C
330
6F
100
AcDbEntity
  8
ANCHOR
  6
HIDDEN
100
AcDbLine
 10
222.8496699296879
 20
365.8088323652983
 30
0.0
 11
223.0126202953238
 21
367.2999551564658
 31
0.0
  0
LINE
  5
28D
330
6F
100
AcDbEntity
  8
ANCHOR
  6
HIDDEN
100
AcDbLine
 10
223.1918656975244
 20
368.9401902267448
 30
0.0
 11
223.4471546036878
 21
371.2762825995789
 31
0.0
  0
LINE
  5
28E
330
6F
100
AcDbEntity
  8
ANCHOR
  6
HIDDEN
100
AcDbLine
 10
227.3263919141914
 20
367.3315215289492
 30
0.0
 11
223.7130902933712
 21
367.7263842617481
 31
0.0
  0
LINE
  5
28F
330
6F
100
AcDbEntity
  8
ANCHOR
  6
HIDDEN
100
AcDbLine
 10
227.3807087027382
 20
367.8285624593377
 30
0.0
 11
223.7674070819162
 21
368.223425192137
 31
0.0
  0
LINE
  5
290
330
6F
100
AcDbEntity
  8
ANCHOR
  6
HIDDEN
100
AcDbLine
 10
223.713090293372
 20
367.7263842617473
 30
0.0
 11
223.0126202953234
 21
367.2999551564657
 31
0.0
  0
LINE
  5
291
330
6F
100
AcDbEntity
  8
ANCHOR
  6
HIDDEN
100
AcDbLine
 10
223.7130902933732
 20
367.726384261747
 30
0.0
 11
223.7674070819173
 21
368.2234251921363
 31
0.0
  0
LINE
  5
292
330
6F
100
AcDbEntity
  8
ANCHOR
  6
HIDDEN
100
AcDbLine
 10
223.7674070819152
 20
368.2234251921371
 30
0.0
 11
223.191865697522
 21
368.9401902267456
 31
0.0
  0
LINE
  5
293
330
6F
100
AcDbEntity
  8
ANCHOR
  6
HIDDEN
100
AcDbLine
 10
227.0258493024886
 20
370.8852017220568
 30
0.0
 11
223.4471546036859
 21
371.2762825995792
 31
0.0
  0
LINE
  5
294
330
6F
100
AcDbEntity
  8
ANCHOR
  6
HIDDEN
100
AcDbLine
 10
224.0933078131907
 20
371.2056707744711
 30
0.0
 11
224.1476246017349
 21
371.7027117048602
 31
0.0
  0
LINE
  5
295
330
6F
100
AcDbEntity
  8
ANCHOR
  6
HIDDEN
100
AcDbLine
 10
227.0801660910341
 20
371.3822426524469
 30
0.0
 11
224.1476246017333
 21
371.7027117048614
 31
0.0
  0
LINE
  5
296
330
6F
100
AcDbEntity
  8
ANCHOR
  6
HIDDEN
100
AcDbLine
 10
224.1476246017321
 20
371.702711704859
 30
0.0
 11
223.5720832173387
 21
372.4194767394674
 31
0.0
  0
LINE
  5
297
330
6F
100
AcDbEntity
  8
ANCHOR
  6
HIDDEN
100
AcDbLine
 10
223.8273721235076
 20
372.4055691122989
 30
0.0
 11
223.8273721235049
 21
374.7555691123039
 31
0.0
  0
LINE
  5
298
330
6F
100
AcDbEntity
  8
ANCHOR
  6
HIDDEN
100
AcDbLine
 10
227.4273721235044
 20
374.755569112311
 30
0.0
 11
223.827372123504
 21
374.7555691123031
 31
0.0
  0
LINE
  5
299
330
6F
100
AcDbEntity
  8
ANCHOR
  6
HIDDEN
100
AcDbLine
 10
224.4773721234997
 20
374.7555691123043
 30
0.0
 11
224.4773721234979
 21
375.2555691123043
 31
0.0
  0
LINE
  5
29A
330
6F
100
AcDbEntity
  8
ANCHOR
  6
HIDDEN
100
AcDbLine
 10
227.4273721235045
 20
375.2555691123116
 30
0.0
 11
224.4773721234983
 21
375.255569112305
 31
0.0
  0
LINE
  5
29B
330
6F
100
AcDbEntity
  8
ANCHOR
  6
HIDDEN
100
AcDbLine
 10
224.4773721234978
 20
375.2555691123055
 30
0.0
 11
223.8273721235016
 21
375.9055691122989
 31
0.0
  0
LINE
  5
29C
330
6F
100
AcDbEntity
  8
ANCHOR
  6
HIDDEN
100
AcDbLine
 10
223.8273721235035
 20
375.9055691122987
 30
0.0
 11
223.8273721235008
 21
378.2555691123036
 31
0.0
  0
LINE
  5
29D
330
6F
100
AcDbEntity
  8
ANCHOR
  6
HIDDEN
100
AcDbLine
 10
227.427372123501
 20
378.2555691123121
 30
0.0
 11
223.8273721235007
 21
378.255569112304
 31
0.0
  0
LINE
  5
29E
330
6F
100
AcDbEntity
  8
ANCHOR
  6
HIDDEN
100
AcDbLine
 10
224.4773721234977
 20
378.2555691123051
 30
0.0
 11
224.4773721234961
 21
378.7555691123051
 31
0.0
  0
LINE
  5
29F
330
6F
100
AcDbEntity
  8
ANCHOR
  6
HIDDEN
100
AcDbLine
 10
227.4273721235005
 20
378.7555691123121
 30
0.0
 11
224.4773721234961
 21
378.7555691123055
 31
0.0
  0
LINE
  5
2A0
330
6F
100
AcDbEntity
  8
ANCHOR
  6
HIDDEN
100
AcDbLine
 10
224.4773721234946
 20
378.7555691123051
 30
0.0
 11
223.8273721234984
 21
379.4055691122985
 31
0.0
  0
LINE
  5
2A1
330
6F
100
AcDbEntity
  8
ANCHOR
  6
HIDDEN
100
AcDbLine
 10
223.8273721235006
 20
378.2555691123039
 30
0.0
 11
223.8273721234967
 21
381.7555691123041
 31
0.0
  0
LINE
  5
2A2
330
6F
100
AcDbEntity
  8
ANCHOR
  6
HIDDEN
100
AcDbLine
 10
227.4273721234962
 20
381.7555691123116
 30
0.0
 11
223.7273721233555
 21
381.7555691123033
 31
0.0
  0
LINE
  5
2A3
330
6F
100
AcDbEntity
  8
ANCHOR
  6
HIDDEN
100
AcDbLine
 10
227.4273721234953
 20
382.2555691123118
 30
0.0
 11
224.9617471234945
 21
382.2555691123063
 31
0.0
  0
LINE
  5
2A4
330
6F
100
AcDbEntity
  8
ANCHOR
  6
HIDDEN
100
AcDbLine
 10
227.4273721234893
 20
385.2555691123123
 30
0.0
 11
224.8679971234922
 21
385.2555691123066
 31
0.0
  0
LINE
  5
2A5
330
6F
100
AcDbEntity
  8
ANCHOR
  6
HIDDEN
100
AcDbLine
 10
227.4273721234866
 20
385.7555691123118
 30
0.0
 11
224.8523721234914
 21
385.7555691123062
 31
0.0
  0
LINE
  5
2A6
330
6F
100
AcDbEntity
  8
ANCHOR
  6
HIDDEN
100
AcDbLine
 10
227.4273721234815
 20
388.7555691123115
 30
0.0
 11
224.758622123488
 21
388.7555691123056
 31
0.0
  0
LINE
  5
2A7
330
6F
100
AcDbEntity
  8
ANCHOR
  6
HIDDEN
100
AcDbLine
 10
227.4273721234794
 20
389.2555691123118
 30
0.0
 11
224.7429971234878
 21
389.2555691123059
 31
0.0
  0
LINE
  5
2A8
330
6F
100
AcDbEntity
  8
ANCHOR
  6
HIDDEN
100
AcDbLine
 10
227.4273721235093
 20
368.2555691122997
 30
0.0
 11
226.6202736631017
 21
360.8699894338887
 31
0.0
  0
ARC
  5
2A9
330
6F
100
AcDbEntity
  8
ANCHOR
  6
HIDDEN
100
AcDbCircle
 10
226.123232732715
 20
360.9243062224343
 30
0.0
 40
0.5
100
AcDbArc
 50
263.7634467283077
 51
353.7634467282444
  0
LINE
  5
2AA
330
6F
100
AcDbEntity
  8
ANCHOR
  6
HIDDEN
100
AcDbLine
 10
227.7273720779525
 20
393.7555691123127
 30
0.0
 11
227.4273720779441
 21
393.7555691123101
 31
0.0
  0
LINE
  5
2AB
330
6F
100
AcDbEntity
  8
ANCHOR
  6
HIDDEN
100
AcDbLine
 10
227.4273720781444
 20
368.2555691123097
 30
0.0
 11
227.4273720779464
 21
393.7555691123098
 31
0.0
  0
LINE
  5
2AC
330
6F
100
AcDbEntity
  8
ANCHOR
  6
HIDDEN
100
AcDbLine
 10
229.3858282575542
 20
360.4272652920599
 30
0.0
 11
231.7565275523972
 21
360.686336053518
 31
0.0
  0
LINE
  5
2AD
330
6F
100
AcDbEntity
  8
ANCHOR
  6
HIDDEN
100
AcDbLine
 10
231.7273720779322
 20
395.7555691123387
 30
0.0
 11
232.4273720778933
 21
400.7555691123438
 31
0.0
  0
LINE
  5
2AE
330
6F
100
AcDbEntity
  8
ANCHOR
  6
HIDDEN
100
AcDbLine
 10
227.7273720779369
 20
393.7555691123117
 30
0.0
 11
228.0273720779453
 21
393.7555691123138
 31
0.0
  0
LINE
  5
2AF
330
6F
100
AcDbEntity
  8
ANCHOR
  6
HIDDEN
100
AcDbLine
 10
228.0273720781441
 20
368.2555691123138
 30
0.0
 11
228.0273720779462
 21
393.7555691123138
 31
0.0
  0
LINE
  5
2B0
330
6F
100
AcDbEntity
  8
ANCHOR
  6
HIDDEN
100
AcDbLine
 10
231.7273720779745
 20
390.2555691123391
 30
0.0
 11
230.7273720779772
 21
389.7555691123321
 31
0.0
  0
LINE
  5
2B1
330
6F
100
AcDbEntity
  8
ANCHOR
  6
HIDDEN
100
AcDbLine
 10
230.7273720779773
 20
389.755569112332
 30
0.0
 11
230.4773720780396
 21
381.7555691123305
 31
0.0
  0
LINE
  5
2B2
330
6F
100
AcDbEntity
  8
ANCHOR
  6
HIDDEN
100
AcDbLine
 10
231.727372077972
 20
390.2555691123394
 30
0.0
 11
231.7273720778905
 21
400.7555691123394
 31
0.0
  0
LINE
  5
2B3
330
6F
100
AcDbEntity
  8
ANCHOR
  6
HIDDEN
100
AcDbLine
 10
228.5628865958691
 20
363.3551940858421
 30
0.0
 11
232.8223414261872
 21
363.8206686437869
 31
0.0
  0
LINE
  5
2B4
330
6F
100
AcDbEntity
  8
ANCHOR
  6
HIDDEN
100
AcDbLine
 10
228.4542530187665
 20
364.3492759466192
 30
0.0
 11
232.0675546395795
 21
364.7441386794499
 31
0.0
  0
LINE
  5
2B5
330
6F
100
AcDbEntity
  8
ANCHOR
  6
HIDDEN
100
AcDbLine
 10
231.7565275523973
 20
360.6863360535178
 30
0.0
 11
232.8223414261875
 21
363.8206686437874
 31
0.0
  0
LINE
  5
2B6
330
6F
100
AcDbEntity
  8
ANCHOR
  6
HIDDEN
100
AcDbLine
 10
232.8223414261859
 20
363.8206686437876
 30
0.0
 11
232.0675546395812
 21
364.7441386794508
 31
0.0
  0
LINE
  5
2B7
330
6F
100
AcDbEntity
  8
ANCHOR
  6
HIDDEN
100
AcDbLine
 10
228.3456194416708
 20
365.3433578073973
 30
0.0
 11
232.6050742719883
 21
365.8088323653418
 31
0.0
  0
LINE
  5
2B8
330
6F
100
AcDbEntity
  8
ANCHOR
  6
HIDDEN
100
AcDbLine
 10
232.0675546395805
 20
364.7441386794515
 30
0.0
 11
232.6050742719866
 21
365.8088323653429
 31
0.0
  0
LINE
  5
2B9
330
6F
100
AcDbEntity
  8
ANCHOR
  6
HIDDEN
100
AcDbLine
 10
228.1826690760211
 20
366.8344805985627
 30
0.0
 11
232.4421239063409
 21
367.2999551565073
 31
0.0
  0
LINE
  5
2BA
330
6F
100
AcDbEntity
  8
ANCHOR
  6
HIDDEN
100
AcDbLine
 10
232.6050742719886
 20
365.8088323653415
 30
0.0
 11
232.4421239063396
 21
367.2999551565076
 31
0.0
  0
LINE
  5
2BB
330
6F
100
AcDbEntity
  8
ANCHOR
  6
HIDDEN
100
AcDbLine
 10
232.2628785041254
 20
368.940190226785
 30
0.0
 11
232.0075895979412
 21
371.2762825996169
 31
0.0
  0
LINE
  5
2BC
330
6F
100
AcDbEntity
  8
ANCHOR
  6
HIDDEN
100
AcDbLine
 10
228.1283522874706
 20
367.3315215289524
 30
0.0
 11
231.7416539082872
 21
367.7263842617833
 31
0.0
  0
LINE
  5
2BD
330
6F
100
AcDbEntity
  8
ANCHOR
  6
HIDDEN
100
AcDbLine
 10
228.0740354989202
 20
367.8285624593409
 30
0.0
 11
231.6873371197386
 21
368.2234251921723
 31
0.0
  0
LINE
  5
2BE
330
6F
100
AcDbEntity
  8
ANCHOR
  6
HIDDEN
100
AcDbLine
 10
231.7416539082859
 20
367.7263842617834
 30
0.0
 11
232.4421239063382
 21
367.2999551565081
 31
0.0
  0
LINE
  5
2BF
330
6F
100
AcDbEntity
  8
ANCHOR
  6
HIDDEN
100
AcDbLine
 10
231.7416539082867
 20
367.726384261783
 30
0.0
 11
231.6873371197381
 21
368.2234251921717
 31
0.0
  0
LINE
  5
2C0
330
6F
100
AcDbEntity
  8
ANCHOR
  6
HIDDEN
100
AcDbLine
 10
231.6873371197378
 20
368.2234251921717
 30
0.0
 11
232.2628785041248
 21
368.9401902267853
 31
0.0
  0
LINE
  5
2C1
330
6F
100
AcDbEntity
  8
ANCHOR
  6
HIDDEN
100
AcDbLine
 10
228.4288948991427
 20
370.885201722063
 30
0.0
 11
232.007589597942
 21
371.2762825996168
 31
0.0
  0
LINE
  5
2C2
330
6F
100
AcDbEntity
  8
ANCHOR
  6
HIDDEN
100
AcDbLine
 10
231.3614363884375
 20
371.2056707745028
 30
0.0
 11
231.3071195998889
 21
371.7027117048917
 31
0.0
  0
LINE
  5
2C3
330
6F
100
AcDbEntity
  8
ANCHOR
  6
HIDDEN
100
AcDbLine
 10
228.3745781105925
 20
371.3822426524522
 30
0.0
 11
231.3071195998904
 21
371.7027117048928
 31
0.0
  0
LINE
  5
2C4
330
6F
100
AcDbEntity
  8
ANCHOR
  6
HIDDEN
100
AcDbLine
 10
231.3071195998911
 20
371.7027117048918
 30
0.0
 11
231.8826609842782
 21
372.4194767395053
 31
0.0
  0
LINE
  5
2C5
330
6F
100
AcDbEntity
  8
ANCHOR
  6
HIDDEN
100
AcDbLine
 10
231.6273720781127
 20
372.4055691123329
 30
0.0
 11
231.6273720780944
 21
374.7555691123378
 31
0.0
  0
LINE
  5
2C6
330
6F
100
AcDbEntity
  8
ANCHOR
  6
HIDDEN
100
AcDbLine
 10
228.027372078093
 20
374.7555691123138
 30
0.0
 11
231.6273720780934
 21
374.7555691123378
 31
0.0
  0
LINE
  5
2C7
330
6F
100
AcDbEntity
  8
ANCHOR
  6
HIDDEN
100
AcDbLine
 10
230.977372078096
 20
374.7555691123339
 30
0.0
 11
230.9773720780933
 21
375.2555691123339
 31
0.0
  0
LINE
  5
2C8
330
6F
100
AcDbEntity
  8
ANCHOR
  6
HIDDEN
100
AcDbLine
 10
228.0273720780882
 20
375.255569112315
 30
0.0
 11
230.9773720780926
 21
375.2555691123346
 31
0.0
  0
LINE
  5
2C9
330
6F
100
AcDbEntity
  8
ANCHOR
  6
HIDDEN
100
AcDbLine
 10
230.9773720780935
 20
375.255569112332
 30
0.0
 11
231.627372078084
 21
375.905569112331
 31
0.0
  0
LINE
  5
2CA
330
6F
100
AcDbEntity
  8
ANCHOR
  6
HIDDEN
100
AcDbLine
 10
231.6273720780855
 20
375.9055691123328
 30
0.0
 11
231.6273720780672
 21
378.2555691123378
 31
0.0
  0
LINE
  5
2CB
330
6F
100
AcDbEntity
  8
ANCHOR
  6
HIDDEN
100
AcDbLine
 10
228.0273720780668
 20
378.2555691123138
 30
0.0
 11
231.6273720780671
 21
378.2555691123378
 31
0.0
  0
LINE
  5
2CC
330
6F
100
AcDbEntity
  8
ANCHOR
  6
HIDDEN
100
AcDbLine
 10
230.9773720780699
 20
378.2555691123334
 30
0.0
 11
230.9773720780672
 21
378.7555691123334
 31
0.0
  0
LINE
  5
2CD
330
6F
100
AcDbEntity
  8
ANCHOR
  6
HIDDEN
100
AcDbLine
 10
228.0273720780612
 20
378.7555691123147
 30
0.0
 11
230.9773720780656
 21
378.7555691123344
 31
0.0
  0
LINE
  5
2CE
330
6F
100
AcDbEntity
  8
ANCHOR
  6
HIDDEN
100
AcDbLine
 10
230.9773720780665
 20
378.7555691123338
 30
0.0
 11
231.627372078057
 21
379.4055691123331
 31
0.0
  0
LINE
  5
2CF
330
6F
100
AcDbEntity
  8
ANCHOR
  6
HIDDEN
100
AcDbLine
 10
231.6273720780676
 20
378.2555691123383
 30
0.0
 11
231.6273720780405
 21
381.7555691123388
 31
0.0
  0
LINE
  5
2D0
330
6F
100
AcDbEntity
  8
ANCHOR
  6
HIDDEN
100
AcDbLine
 10
228.0273720780384
 20
381.7555691123144
 30
0.0
 11
231.727372078181
 21
381.755569112339
 31
0.0
  0
LINE
  5
2D1
330
6F
100
AcDbEntity
  8
ANCHOR
  6
HIDDEN
100
AcDbLine
 10
228.0273720780355
 20
382.2555691123142
 30
0.0
 11
230.4929970780345
 21
382.2555691123307
 31
0.0
  0
LINE
  5
2D2
330
6F
100
AcDbEntity
  8
ANCHOR
  6
HIDDEN
100
AcDbLine
 10
228.0273720780167
 20
385.2555691123147
 30
0.0
 11
230.586747078012
 21
385.2555691123318
 31
0.0
  0
LINE
  5
2D3
330
6F
100
AcDbEntity
  8
ANCHOR
  6
HIDDEN
100
AcDbLine
 10
228.027372078013
 20
385.7555691123138
 30
0.0
 11
230.6023720780082
 21
385.7555691123309
 31
0.0
  0
LINE
  5
2D4
330
6F
100
AcDbEntity
  8
ANCHOR
  6
HIDDEN
100
AcDbLine
 10
228.0273720779926
 20
388.7555691123137
 30
0.0
 11
230.6961220779842
 21
388.7555691123314
 31
0.0
  0
LINE
  5
2D5
330
6F
100
AcDbEntity
  8
ANCHOR
  6
HIDDEN
100
AcDbLine
 10
228.0273720779903
 20
389.255569112314
 30
0.0
 11
230.7117470779819
 21
389.2555691123318
 31
0.0
  0
LINE
  5
2D6
330
6F
100
AcDbEntity
  8
ANCHOR
  6
HIDDEN
100
AcDbLine
 10
228.0273720781427
 20
368.2555691123026
 30
0.0
 11
228.8344705386158
 21
360.8699894338989
 31
0.0
  0
ARC
  5
2D7
330
6F
100
AcDbEntity
  8
ANCHOR
  6
HIDDEN
100
AcDbCircle
 10
229.3315114690056
 20
360.9243062224483
 30
0.0
 40
0.5
100
AcDbArc
 50
186.2365532722638
 51
276.2365532722005
  0
LINE
  5
2D8
330
6F
100
AcDbEntity
  8
ANCHOR
  6
HIDDEN
100
AcDbLine
 10
223.7273721233561
 20
381.7555691123039
 30
0.0
 11
222.1158880971461
 21
389.5915833560878
 31
0.0
  0
LINE
  5
2D9
330
6F
100
AcDbEntity
  8
ANCHOR
  6
HIDDEN
100
AcDbLine
 10
223.2116887197267
 20
389.2275032425846
 30
0.0
 11
222.1158880971752
 21
389.5915833559479
 31
0.0
  0
LINE
  5
2DA
330
6F
100
AcDbEntity
  8
ANCHOR
  6
HIDDEN
100
AcDbLine
 10
224.7482993129742
 20
381.7555691123058
 30
0.0
 11
223.2116887197267
 21
389.2275032425848
 31
0.0
  0
LINE
  5
2DB
330
6F
100
AcDbEntity
  8
ANCHOR
  6
HIDDEN
100
AcDbLine
 10
231.7273720781786
 20
381.7555691123098
 30
0.0
 11
233.3388561043711
 21
389.5915833560975
 31
0.0
  0
LINE
  5
2DC
330
6F
100
AcDbEntity
  8
ANCHOR
  6
HIDDEN
100
AcDbLine
 10
232.2430554817934
 20
389.2275032425914
 30
0.0
 11
233.3388561043439
 21
389.5915833559573
 31
0.0
  0
LINE
  5
2DD
330
6F
100
AcDbEntity
  8
ANCHOR
  6
HIDDEN
100
AcDbLine
 10
230.7064448885614
 20
381.755569112309
 30
0.0
 11
232.2430554817921
 21
389.227503242591
 31
0.0
  0
LINE
  5
2DE
330
6F
100
AcDbEntity
  8
ANCHOR
  6
HIDDEN
100
AcDbLine
 10
227.7273721689339
 20
348.7555691123112
 30
0.0
 11
224.9773721344775
 21
359.0187089614263
 31
0.0
  0
LINE
  5
2DF
330
6F
100
AcDbEntity
  8
ANCHOR
  6
HIDDEN
100
AcDbLine
 10
227.7273721234753
 20
348.7555691123109
 30
0.0
 11
230.4773721342489
 21
359.0187088734046
 31
0.0
  0
LINE
  5
2E0
330
6F
100
AcDbEntity
  8
ANCHOR
  6
HIDDEN
100
AcDbLine
 10
224.977372134479
 20
359.0187089614267
 30
0.0
 11
224.9773721339327
 21
360.5465495414958
 31
0.0
  0
LINE
  5
2E1
330
6F
100
AcDbEntity
  8
ANCHOR
  6
HIDDEN
100
AcDbLine
 10
230.477372134249
 20
359.0187088734045
 30
0.0
 11
230.4773721338875
 21
360.5465495487436
 31
0.0
  0
ARC
  5
2E2
330
6F
100
AcDbEntity
  8
ANCHOR
  6
Continuous
100
AcDbCircle
 10
227.727372123424
 20
394.1555691123022
 30
0.0
 40
14.0
100
AcDbArc
 50
74.63751496329646
 51
105.3624850364064
  0
LINE
  5
2E3
330
6F
100
AcDbEntity
  8
ANCHOR
  6
Continuous
100
AcDbLine
 10
222.4773721234012
 20
404.8555691122911
 30
0.0
 11
222.485713432094
 21
404.9179062927615
 31
0.0
  0
LINE
  5
2E4
330
6F
100
AcDbEntity
  8
ANCHOR
  6
Continuous
100
AcDbLine
 10
232.9773721234049
 20
404.8555691123131
 30
0.0
 11
232.8257322491111
 21
405.988820806653
 31
0.0
  0
ARC
  5
2E5
330
6F
100
AcDbEntity
  8
ANCHOR
  6
Continuous
100
AcDbCircle
 10
230.9329623227175
 20
405.8232248953987
 30
0.0
 40
1.9
100
AcDbArc
 50
5.000000000119887
 51
74.63751496329646
  0
LINE
  5
2E6
330
6F
100
AcDbEntity
  8
ANCHOR
  6
Continuous
100
AcDbLine
 10
234.2273721234341
 20
404.8555691123151
 30
0.0
 11
221.2273721234414
 21
404.855569112288
 31
0.0
  0
LINE
  5
2E7
330
6F
100
AcDbEntity
  8
ANCHOR
  6
Continuous
100
AcDbLine
 10
221.2273721234336
 20
404.2555691122892
 30
0.0
 11
221.2273721234337
 21
404.2899579990402
 31
0.0
  0
LINE
  5
2E8
330
6F
100
AcDbEntity
  8
ANCHOR
  6
Continuous
100
AcDbLine
 10
234.2273721234325
 20
404.2555691123162
 30
0.0
 11
234.227372123433
 21
404.8555691123159
 31
0.0
  0
LINE
  5
2E9
330
6F
100
AcDbEntity
  8
ANCHOR
  6
HIDDEN
100
AcDbLine
 10
230.4773721246137
 20
399.2555691121237
 30
0.0
 11
230.4773721234311
 21
404.2555691123077
 31
0.0
  0
LINE
  5
2EA
330
6F
100
AcDbEntity
  8
ANCHOR
  6
HIDDEN
100
AcDbLine
 10
224.9773721252206
 20
399.255569112138
 30
0.0
 11
224.9773721234328
 21
404.2555691122966
 31
0.0
  0
LINE
  5
2EB
330
6F
100
AcDbEntity
  8
ANCHOR
  6
Continuous
100
AcDbLine
 10
234.2273721234336
 20
404.2555691123149
 30
0.0
 11
221.2273721234336
 21
404.2555691122876
 31
0.0
  0
LINE
  5
2EC
330
6F
100
AcDbEntity
  8
ANCHOR
  6
Continuous
100
AcDbLine
 10
222.4773721234735
 20
404.8555691123846
 30
0.0
 11
222.6290119977819
 21
405.9888208067216
 31
0.0
  0
ARC
  5
2ED
330
6F
100
AcDbEntity
  8
ANCHOR
  6
Continuous
100
AcDbCircle
 10
224.5217819241686
 20
405.8232248954421
 30
0.0
 40
1.9
100
AcDbArc
 50
105.3624850359274
 51
174.999999999104
  0
LINE
  5
2EE
330
6F
100
AcDbEntity
  8
ANCHOR
  6
Continuous
100
AcDbLine
 10
221.2273721234348
 20
404.255569112404
 30
0.0
 11
221.2273721234426
 21
404.8555691124041
 31
0.0
  0
LINE
  5
2EF
330
6F
100
AcDbEntity
  8
KUTAI
  6
Continuous
100
AcDbLine
 10
632.7412277187526
 20
134.3364496096263
 30
0.0
 11
582.7412277187526
 21
134.3364496096263
 31
0.0
  0
LINE
  5
2F0
330
6F
100
AcDbEntity
  8
KUTAI
  6
Continuous
100
AcDbLine
 10
635.7412277187527
 20
105.3364496096263
 30
0.0
 11
635.7412277187527
 21
131.3364496096263
 31
0.0
  0
LINE
  5
2F1
330
6F
100
AcDbEntity
  8
KUTAI
  6
Continuous
100
AcDbLine
 10
579.7412277187527
 20
131.3364496096263
 30
0.0
 11
579.7412277187527
 21
105.3364496096263
 31
0.0
  0
LINE
  5
2F2
330
6F
100
AcDbEntity
  8
KUTAI
  6
Continuous
100
AcDbLine
 10
582.7412277187526
 20
102.3364496096263
 30
0.0
 11
632.7412277187526
 21
102.3364496096263
 31
0.0
  0
LINE
  5
2F3
330
6F
100
AcDbEntity
  8
KUTAI
  6
Continuous
100
AcDbLine
 10
518.9620800525037
 20
134.3364496096263
 30
0.0
 11
562.7412277187528
 21
134.3364496096263
 31
0.0
  0
LINE
  5
2F4
330
6F
100
AcDbEntity
  8
KUTAI
  6
Continuous
100
AcDbLine
 10
565.7412277187527
 20
105.3364496096263
 30
0.0
 11
565.7412277187527
 21
131.3364496096263
 31
0.0
  0
LINE
  5
2F5
330
6F
100
AcDbEntity
  8
KUTAI
  6
Continuous
100
AcDbLine
 10
518.9620800525037
 20
102.3364496096263
 30
0.0
 11
562.7412277187528
 21
102.3364496096263
 31
0.0
  0
LINE
  5
2F6
330
6F
100
AcDbEntity
  8
KUTAI
  6
Continuous
100
AcDbLine
 10
652.7412277187527
 20
134.3364496096263
 30
0.0
 11
694.1524096246031
 21
134.3364496096263
 31
0.0
  0
LINE
  5
2F7
330
6F
100
AcDbEntity
  8
KUTAI
  6
Continuous
100
AcDbLine
 10
649.7412277187527
 20
131.3364496096263
 30
0.0
 11
649.7412277187527
 21
105.3364496096263
 31
0.0
  0
LINE
  5
2F8
330
6F
100
AcDbEntity
  8
KUTAI
  6
Continuous
100
AcDbLine
 10
652.7412277187527
 20
102.3364496096263
 30
0.0
 11
694.1524096246031
 21
102.3364496096263
 31
0.0
  0
LINE
  5
2F9
330
6F
100
AcDbEntity
  8
KUTAI
  6
Continuous
100
AcDbLine
 10
518.9620800525037
 20
148.3364496096263
 30
0.0
 11
694.1524096246031
 21
148.3364496096263
 31
0.0
  0
LINE
  5
2FA
330
6F
100
AcDbEntity
  8
KUTAI
  6
Continuous
100
AcDbLine
 10
518.9620800525037
 20
88.33644960962633
 30
0.0
 11
694.1524096246031
 21
88.33644960962633
 31
0.0
  0
ARC
  5
2FB
330
6F
100
AcDbEntity
  8
KUTAI
  6
Continuous
100
AcDbCircle
 10
632.7412277187526
 20
131.3364496096263
 30
0.0
 40
3.000000191249998
100
AcDbArc
 50
0.0
 51
90.0
  0
ARC
  5
2FC
330
6F
100
AcDbEntity
  8
KUTAI
  6
Continuous
100
AcDbCircle
 10
582.7412277187526
 20
131.3364496096263
 30
0.0
 40
3.000000191249998
100
AcDbArc
 50
90.0
 51
180.0
  0
ARC
  5
2FD
330
6F
100
AcDbEntity
  8
KUTAI
  6
Continuous
100
AcDbCircle
 10
632.7412277187526
 20
105.3364496096263
 30
0.0
 40
3.000000191249998
100
AcDbArc
 50
270.0
 51
0.0
  0
ARC
  5
2FE
330
6F
100
AcDbEntity
  8
KUTAI
  6
Continuous
100
AcDbCircle
 10
582.7412277187526
 20
105.3364496096263
 30
0.0
 40
3.000000191249998
100
AcDbArc
 50
180.0
 51
270.0
  0
ARC
  5
2FF
330
6F
100
AcDbEntity
  8
KUTAI
  6
Continuous
100
AcDbCircle
 10
562.7412277187528
 20
131.3364496096263
 30
0.0
 40
3.000000191249998
100
AcDbArc
 50
0.0
 51
90.0
  0
ARC
  5
300
330
6F
100
AcDbEntity
  8
KUTAI
  6
Continuous
100
AcDbCircle
 10
562.7412277187528
 20
105.3364496096263
 30
0.0
 40
3.000000191249998
100
AcDbArc
 50
270.0
 51
0.0
  0
ARC
  5
301
330
6F
100
AcDbEntity
  8
KUTAI
  6
Continuous
100
AcDbCircle
 10
652.7412277187527
 20
131.3364496096263
 30
0.0
 40
3.000000191249998
100
AcDbArc
 50
90.0
 51
180.0
  0
ARC
  5
302
330
6F
100
AcDbEntity
  8
KUTAI
  6
Continuous
100
AcDbCircle
 10
652.7412277187527
 20
105.3364496096263
 30
0.0
 40
3.000000191249998
100
AcDbArc
 50
180.0
 51
270.0
  0
LINE
  5
303
330
6F
100
AcDbEntity
  8
ANCHOR
  6
HIDDEN
100
AcDbLine
 10
611.2412277190035
 20
151.8364496094665
 30
0.0
 11
610.1812277190036
 21
150.7764496094667
 31
0.0
  0
LINE
  5
304
330
6F
100
AcDbEntity
  8
ANCHOR
  6
HIDDEN
100
AcDbLine
 10
605.7412277190032
 20
121.3364496094668
 30
0.0
 11
605.7412277190032
 21
118.8364496094665
 31
0.0
  0
LINE
  5
305
330
6F
100
AcDbEntity
  8
ANCHOR
  6
HIDDEN
100
AcDbLine
 10
609.7412277190032
 20
121.3364496094668
 30
0.0
 11
609.7412277190032
 21
118.8364496094665
 31
0.0
  0
LINE
  5
306
330
6F
100
AcDbEntity
  8
ANCHOR
  6
Continuous
100
AcDbLine
 10
611.9912277190032
 20
154.2364496094666
 30
0.0
 11
603.4912277190032
 21
154.2364496094666
 31
0.0
  0
LINE
  5
307
330
6F
100
AcDbEntity
  8
ANCHOR
  6
HIDDEN
100
AcDbLine
 10
609.8912277190033
 20
122.8364496094668
 30
0.0
 11
605.5912277190032
 21
122.8364496094668
 31
0.0
  0
LINE
  5
308
330
6F
100
AcDbEntity
  8
ANCHOR
  6
HIDDEN
100
AcDbLine
 10
609.7412277190032
 20
118.8364496094665
 30
0.0
 11
605.7412277190032
 21
118.8364496094665
 31
0.0
  0
LINE
  5
309
330
6F
100
AcDbEntity
  8
ANCHOR
  6
HIDDEN
100
AcDbLine
 10
609.7412277190032
 20
121.3364496094668
 30
0.0
 11
605.7412277190032
 21
121.3364496094668
 31
0.0
  0
LINE
  5
30A
330
6F
100
AcDbEntity
  8
ANCHOR
  6
HIDDEN
100
AcDbLine
 10
609.7412277190032
 20
121.3364496094667
 30
0.0
 11
609.8912277190033
 21
122.8364496094667
 31
0.0
  0
LINE
  5
30B
330
6F
100
AcDbEntity
  8
ANCHOR
  6
HIDDEN
100
AcDbLine
 10
605.7412277190032
 20
121.3364496094667
 30
0.0
 11
605.5912277190032
 21
122.8364496094667
 31
0.0
  0
LINE
  5
30C
330
6F
100
AcDbEntity
  8
ANCHOR
  6
HIDDEN
100
AcDbLine
 10
604.2412277190028
 20
151.8364496094665
 30
0.0
 11
605.3012277190028
 21
150.7764496094664
 31
0.0
  0
LINE
  5
30D
330
6F
100
AcDbEntity
  8
ANCHOR
  6
HIDDEN
100
AcDbLine
 10
610.1812277190032
 20
150.7764496094666
 30
0.0
 11
605.3012277190032
 21
150.7764496094666
 31
0.0
  0
LINE
  5
30E
330
6F
100
AcDbEntity
  8
ANCHOR
  6
HIDDEN
100
AcDbLine
 10
610.3912277190032
 20
135.3574496095208
 30
0.0
 11
609.8912277190033
 21
135.0687744749258
 31
0.0
  0
LINE
  5
30F
330
6F
100
AcDbEntity
  8
ANCHOR
  6
HIDDEN
100
AcDbLine
 10
604.5412277190028
 20
135.3574496095205
 30
0.0
 11
605.5912277190032
 21
135.076102957468
 31
0.0
  0
LINE
  5
310
330
6F
100
AcDbEntity
  8
ANCHOR
  6
HIDDEN
100
AcDbLine
 10
610.9412277190037
 20
137.1714496095205
 30
0.0
 11
609.8912277190037
 21
137.4527962615731
 31
0.0
  0
LINE
  5
311
330
6F
100
AcDbEntity
  8
ANCHOR
  6
HIDDEN
100
AcDbLine
 10
610.3912277190032
 20
135.3574496095209
 30
0.0
 11
609.8912277190033
 21
135.6461247441158
 31
0.0
  0
LINE
  5
312
330
6F
100
AcDbEntity
  8
ANCHOR
  6
HIDDEN
100
AcDbLine
 10
605.0912277190035
 20
133.5434496095207
 30
0.0
 11
605.5912277190035
 21
133.8321247441155
 31
0.0
  0
LINE
  5
313
330
6F
100
AcDbEntity
  8
ANCHOR
  6
HIDDEN
100
AcDbLine
 10
605.0912277190032
 20
133.5434496095205
 30
0.0
 11
605.5912277190034
 21
133.2547744749257
 31
0.0
  0
LINE
  5
314
330
6F
100
AcDbEntity
  8
ANCHOR
  6
HIDDEN
100
AcDbLine
 10
610.9412277190032
 20
137.1714496095206
 30
0.0
 11
604.5412277190031
 21
135.3574496095206
 31
0.0
  0
LINE
  5
315
330
6F
100
AcDbEntity
  8
ANCHOR
  6
HIDDEN
100
AcDbLine
 10
605.5912277190032
 20
135.076102957468
 30
0.0
 11
610.9412277190032
 21
137.1714496095207
 31
0.0
  0
LINE
  5
316
330
6F
100
AcDbEntity
  8
ANCHOR
  6
HIDDEN
100
AcDbLine
 10
609.8912277190028
 20
137.452796261573
 30
0.0
 11
604.541227719003
 21
135.3574496095204
 31
0.0
  0
LINE
  5
317
330
6F
100
AcDbEntity
  8
ANCHOR
  6
HIDDEN
100
AcDbLine
 10
609.8912277190028
 20
135.6461247441155
 30
0.0
 11
605.591227719003
 21
133.8321247441155
 31
0.0
  0
LINE
  5
318
330
6F
100
AcDbEntity
  8
ANCHOR
  6
HIDDEN
100
AcDbLine
 10
605.0912277190032
 20
133.5434496095206
 30
0.0
 11
610.391227719003
 21
135.3574496095205
 31
0.0
  0
LINE
  5
319
330
6F
100
AcDbEntity
  8
ANCHOR
  6
HIDDEN
100
AcDbLine
 10
605.5912277190032
 20
133.254774474926
 30
0.0
 11
609.8912277190028
 21
135.0687744749258
 31
0.0
  0
LINE
  5
31A
330
6F
100
AcDbEntity
  8
ANCHOR
  6
HIDDEN
100
AcDbLine
 10
610.3912277190032
 20
131.7294496095342
 30
0.0
 11
609.8912277190033
 21
131.4407744749393
 31
0.0
  0
LINE
  5
31B
330
6F
100
AcDbEntity
  8
ANCHOR
  6
HIDDEN
100
AcDbLine
 10
604.541227719003
 20
131.729449609534
 30
0.0
 11
605.5912277190032
 21
131.4481029574814
 31
0.0
  0
LINE
  5
31C
330
6F
100
AcDbEntity
  8
ANCHOR
  6
HIDDEN
100
AcDbLine
 10
610.9412277190036
 20
133.5434496095344
 30
0.0
 11
609.8912277190033
 21
133.824796261587
 31
0.0
  0
LINE
  5
31D
330
6F
100
AcDbEntity
  8
ANCHOR
  6
HIDDEN
100
AcDbLine
 10
610.3912277190032
 20
131.729449609534
 30
0.0
 11
609.8912277190033
 21
132.0181247441291
 31
0.0
  0
LINE
  5
31E
330
6F
100
AcDbEntity
  8
ANCHOR
  6
HIDDEN
100
AcDbLine
 10
605.0912277190032
 20
129.9154496095342
 30
0.0
 11
605.591227719003
 21
130.2041247441289
 31
0.0
  0
LINE
  5
31F
330
6F
100
AcDbEntity
  8
ANCHOR
  6
HIDDEN
100
AcDbLine
 10
605.0912277190027
 20
129.915449609534
 30
0.0
 11
605.5912277190027
 21
129.6267744749391
 31
0.0
  0
LINE
  5
320
330
6F
100
AcDbEntity
  8
ANCHOR
  6
HIDDEN
100
AcDbLine
 10
610.9412277190036
 20
133.5434496095343
 30
0.0
 11
604.5412277190036
 21
131.7294496095342
 31
0.0
  0
LINE
  5
321
330
6F
100
AcDbEntity
  8
ANCHOR
  6
HIDDEN
100
AcDbLine
 10
605.5912277190032
 20
131.4481029574812
 30
0.0
 11
610.9412277190031
 21
133.5434496095339
 31
0.0
  0
LINE
  5
322
330
6F
100
AcDbEntity
  8
ANCHOR
  6
HIDDEN
100
AcDbLine
 10
609.8912277190028
 20
133.8247962615868
 30
0.0
 11
604.541227719003
 21
131.7294496095341
 31
0.0
  0
LINE
  5
323
330
6F
100
AcDbEntity
  8
ANCHOR
  6
HIDDEN
100
AcDbLine
 10
609.891227719003
 20
132.0181247441291
 30
0.0
 11
605.5912277190032
 21
130.2041247441291
 31
0.0
  0
LINE
  5
324
330
6F
100
AcDbEntity
  8
ANCHOR
  6
HIDDEN
100
AcDbLine
 10
605.0912277190028
 20
129.915449609534
 30
0.0
 11
610.391227719003
 21
131.7294496095341
 31
0.0
  0
LINE
  5
325
330
6F
100
AcDbEntity
  8
ANCHOR
  6
HIDDEN
100
AcDbLine
 10
605.5912277190034
 20
129.6267744749394
 30
0.0
 11
609.8912277190033
 21
131.4407744749393
 31
0.0
  0
LINE
  5
326
330
6F
100
AcDbEntity
  8
ANCHOR
  6
HIDDEN
100
AcDbLine
 10
609.8912277190033
 20
132.0181247441291
 30
0.0
 11
609.8912277190033
 21
133.13221335072
 31
0.0
  0
LINE
  5
327
330
6F
100
AcDbEntity
  8
ANCHOR
  6
HIDDEN
100
AcDbLine
 10
609.8912277190033
 20
133.8247962615868
 30
0.0
 11
609.8912277190033
 21
135.0687744749256
 31
0.0
  0
LINE
  5
328
330
6F
100
AcDbEntity
  8
ANCHOR
  6
HIDDEN
100
AcDbLine
 10
609.8912277190033
 20
135.6461247441156
 30
0.0
 11
609.8912277190033
 21
136.7602133507066
 31
0.0
  0
LINE
  5
329
330
6F
100
AcDbEntity
  8
ANCHOR
  6
HIDDEN
100
AcDbLine
 10
605.5912277190032
 20
135.076102957468
 30
0.0
 11
605.5912277190032
 21
133.8321247441155
 31
0.0
  0
LINE
  5
32A
330
6F
100
AcDbEntity
  8
ANCHOR
  6
HIDDEN
100
AcDbLine
 10
605.5912277190032
 20
133.2547744749258
 30
0.0
 11
605.5912277190032
 21
132.1406858683482
 31
0.0
  0
LINE
  5
32B
330
6F
100
AcDbEntity
  8
ANCHOR
  6
HIDDEN
100
AcDbLine
 10
605.5912277190032
 20
131.4481029574816
 30
0.0
 11
605.5912277190032
 21
130.2041247441292
 31
0.0
  0
LINE
  5
32C
330
6F
100
AcDbEntity
  8
ANCHOR
  6
HIDDEN
100
AcDbLine
 10
610.3912277190032
 20
138.9854496095068
 30
0.0
 11
609.8912277190033
 21
138.6967744749121
 31
0.0
  0
LINE
  5
32D
330
6F
100
AcDbEntity
  8
ANCHOR
  6
HIDDEN
100
AcDbLine
 10
604.5412277190028
 20
138.9854496095068
 30
0.0
 11
605.591227719003
 21
138.7041029574543
 31
0.0
  0
LINE
  5
32E
330
6F
100
AcDbEntity
  8
ANCHOR
  6
HIDDEN
100
AcDbLine
 10
610.9412277190032
 20
140.7994496095072
 30
0.0
 11
609.8912277190033
 21
141.0807962615597
 31
0.0
  0
LINE
  5
32F
330
6F
100
AcDbEntity
  8
ANCHOR
  6
HIDDEN
100
AcDbLine
 10
610.3912277190032
 20
138.9854496095071
 30
0.0
 11
609.8912277190033
 21
139.274124744102
 31
0.0
  0
LINE
  5
330
330
6F
100
AcDbEntity
  8
ANCHOR
  6
HIDDEN
100
AcDbLine
 10
605.0912277190035
 20
137.1714496095071
 30
0.0
 11
605.5912277190032
 21
137.4601247441017
 31
0.0
  0
LINE
  5
331
330
6F
100
AcDbEntity
  8
ANCHOR
  6
HIDDEN
100
AcDbLine
 10
605.0912277190032
 20
137.1714496095072
 30
0.0
 11
605.591227719003
 21
136.8827744749123
 31
0.0
  0
LINE
  5
332
330
6F
100
AcDbEntity
  8
ANCHOR
  6
HIDDEN
100
AcDbLine
 10
610.9412277190031
 20
140.799449609507
 30
0.0
 11
604.5412277190032
 21
138.985449609507
 31
0.0
  0
LINE
  5
333
330
6F
100
AcDbEntity
  8
ANCHOR
  6
HIDDEN
100
AcDbLine
 10
605.5912277190032
 20
138.7041029574547
 30
0.0
 11
610.9412277190031
 21
140.7994496095073
 31
0.0
  0
LINE
  5
334
330
6F
100
AcDbEntity
  8
ANCHOR
  6
HIDDEN
100
AcDbLine
 10
609.8912277190028
 20
141.0807962615597
 30
0.0
 11
604.5412277190028
 21
138.9854496095071
 31
0.0
  0
LINE
  5
335
330
6F
100
AcDbEntity
  8
ANCHOR
  6
HIDDEN
100
AcDbLine
 10
609.8912277190033
 20
139.274124744102
 30
0.0
 11
605.5912277190034
 21
137.460124744102
 31
0.0
  0
LINE
  5
336
330
6F
100
AcDbEntity
  8
ANCHOR
  6
HIDDEN
100
AcDbLine
 10
605.0912277190032
 20
137.1714496095071
 30
0.0
 11
610.3912277190032
 21
138.9854496095069
 31
0.0
  0
LINE
  5
337
330
6F
100
AcDbEntity
  8
ANCHOR
  6
HIDDEN
100
AcDbLine
 10
605.591227719003
 20
136.8827744749123
 30
0.0
 11
609.8912277190028
 21
138.6967744749122
 31
0.0
  0
LINE
  5
338
330
6F
100
AcDbEntity
  8
ANCHOR
  6
HIDDEN
100
AcDbLine
 10
609.8912277190033
 20
137.4527962615731
 30
0.0
 11
609.8912277190033
 21
138.6967744749121
 31
0.0
  0
LINE
  5
339
330
6F
100
AcDbEntity
  8
ANCHOR
  6
HIDDEN
100
AcDbLine
 10
609.8912277190033
 20
139.2741247441021
 30
0.0
 11
609.8912277190033
 21
140.3882133506931
 31
0.0
  0
LINE
  5
33A
330
6F
100
AcDbEntity
  8
ANCHOR
  6
HIDDEN
100
AcDbLine
 10
605.5912277190032
 20
138.7041029574544
 30
0.0
 11
605.5912277190032
 21
137.460124744102
 31
0.0
  0
LINE
  5
33B
330
6F
100
AcDbEntity
  8
ANCHOR
  6
HIDDEN
100
AcDbLine
 10
605.5912277190032
 20
136.8827744749123
 30
0.0
 11
605.5912277190032
 21
135.7686858683348
 31
0.0
  0
LINE
  5
33C
330
6F
100
AcDbEntity
  8
ANCHOR
  6
HIDDEN
100
AcDbLine
 10
610.3912277190028
 20
142.6134496094936
 30
0.0
 11
609.8912277190028
 21
142.3247744748987
 31
0.0
  0
LINE
  5
33D
330
6F
100
AcDbEntity
  8
ANCHOR
  6
HIDDEN
100
AcDbLine
 10
604.5412277190032
 20
142.6134496094935
 30
0.0
 11
605.5912277190032
 21
142.3321029574408
 31
0.0
  0
LINE
  5
33E
330
6F
100
AcDbEntity
  8
ANCHOR
  6
HIDDEN
100
AcDbLine
 10
610.9412277190036
 20
144.4274496094934
 30
0.0
 11
609.8912277190033
 21
144.708796261546
 31
0.0
  0
LINE
  5
33F
330
6F
100
AcDbEntity
  8
ANCHOR
  6
HIDDEN
100
AcDbLine
 10
610.3912277190032
 20
142.6134496094935
 30
0.0
 11
609.8912277190033
 21
142.9021247440883
 31
0.0
  0
LINE
  5
340
330
6F
100
AcDbEntity
  8
ANCHOR
  6
HIDDEN
100
AcDbLine
 10
605.0912277190032
 20
140.7994496094933
 30
0.0
 11
605.5912277190032
 21
141.0881247440881
 31
0.0
  0
LINE
  5
341
330
6F
100
AcDbEntity
  8
ANCHOR
  6
HIDDEN
100
AcDbLine
 10
605.0912277190032
 20
140.7994496094934
 30
0.0
 11
605.5912277190032
 21
140.5107744748985
 31
0.0
  0
LINE
  5
342
330
6F
100
AcDbEntity
  8
ANCHOR
  6
HIDDEN
100
AcDbLine
 10
610.9412277190032
 20
144.4274496094935
 30
0.0
 11
604.5412277190032
 21
142.6134496094935
 31
0.0
  0
LINE
  5
343
330
6F
100
AcDbEntity
  8
ANCHOR
  6
HIDDEN
100
AcDbLine
 10
605.591227719003
 20
142.3321029574408
 30
0.0
 11
610.9412277190032
 21
144.4274496094936
 31
0.0
  0
LINE
  5
344
330
6F
100
AcDbEntity
  8
ANCHOR
  6
HIDDEN
100
AcDbLine
 10
609.8912277190033
 20
144.7087962615464
 30
0.0
 11
604.5412277190035
 21
142.6134496094937
 31
0.0
  0
LINE
  5
345
330
6F
100
AcDbEntity
  8
ANCHOR
  6
HIDDEN
100
AcDbLine
 10
609.8912277190028
 20
142.9021247440883
 30
0.0
 11
605.5912277190032
 21
141.0881247440884
 31
0.0
  0
LINE
  5
346
330
6F
100
AcDbEntity
  8
ANCHOR
  6
HIDDEN
100
AcDbLine
 10
605.0912277190032
 20
140.7994496094934
 30
0.0
 11
610.391227719003
 21
142.6134496094934
 31
0.0
  0
LINE
  5
347
330
6F
100
AcDbEntity
  8
ANCHOR
  6
HIDDEN
100
AcDbLine
 10
605.5912277190032
 20
140.5107744748989
 30
0.0
 11
609.8912277190033
 21
142.324774474899
 31
0.0
  0
LINE
  5
348
330
6F
100
AcDbEntity
  8
ANCHOR
  6
HIDDEN
100
AcDbLine
 10
609.8912277190033
 20
141.0807962615596
 30
0.0
 11
609.8912277190033
 21
142.3247744748989
 31
0.0
  0
LINE
  5
349
330
6F
100
AcDbEntity
  8
ANCHOR
  6
HIDDEN
100
AcDbLine
 10
609.8912277190033
 20
142.9021247440884
 30
0.0
 11
609.8912277190033
 21
144.0162133506795
 31
0.0
  0
LINE
  5
34A
330
6F
100
AcDbEntity
  8
ANCHOR
  6
HIDDEN
100
AcDbLine
 10
605.5912277190032
 20
142.3321029574408
 30
0.0
 11
605.5912277190032
 21
141.0881247440886
 31
0.0
  0
LINE
  5
34B
330
6F
100
AcDbEntity
  8
ANCHOR
  6
HIDDEN
100
AcDbLine
 10
605.5912277190032
 20
140.5107744748988
 30
0.0
 11
605.5912277190032
 21
139.3966858683213
 31
0.0
  0
LINE
  5
34C
330
6F
100
AcDbEntity
  8
ANCHOR
  6
HIDDEN
100
AcDbLine
 10
610.391227719003
 20
146.2414496094801
 30
0.0
 11
609.8912277190033
 21
145.9527744748851
 31
0.0
  0
LINE
  5
34D
330
6F
100
AcDbEntity
  8
ANCHOR
  6
HIDDEN
100
AcDbLine
 10
604.541227719003
 20
146.2414496094801
 30
0.0
 11
605.591227719003
 21
145.9601029574275
 31
0.0
  0
LINE
  5
34E
330
6F
100
AcDbEntity
  8
ANCHOR
  6
HIDDEN
100
AcDbLine
 10
610.9412277190032
 20
148.0554496094798
 30
0.0
 11
609.8912277190033
 21
148.3367962615324
 31
0.0
  0
LINE
  5
34F
330
6F
100
AcDbEntity
  8
ANCHOR
  6
HIDDEN
100
AcDbLine
 10
610.3912277190032
 20
146.2414496094799
 30
0.0
 11
609.8912277190033
 21
146.530124744075
 31
0.0
  0
LINE
  5
350
330
6F
100
AcDbEntity
  8
ANCHOR
  6
HIDDEN
100
AcDbLine
 10
605.0912277190032
 20
144.4274496094803
 30
0.0
 11
605.5912277190032
 21
144.7161247440751
 31
0.0
  0
LINE
  5
351
330
6F
100
AcDbEntity
  8
ANCHOR
  6
HIDDEN
100
AcDbLine
 10
605.0912277190032
 20
144.4274496094803
 30
0.0
 11
605.5912277190027
 21
144.1387744748855
 31
0.0
  0
LINE
  5
352
330
6F
100
AcDbEntity
  8
ANCHOR
  6
HIDDEN
100
AcDbLine
 10
610.9412277190028
 20
148.05544960948
 30
0.0
 11
604.5412277190031
 21
146.2414496094799
 31
0.0
  0
LINE
  5
353
330
6F
100
AcDbEntity
  8
ANCHOR
  6
HIDDEN
100
AcDbLine
 10
605.5912277190034
 20
145.9601029574274
 30
0.0
 11
610.9412277190032
 21
148.0554496094802
 31
0.0
  0
LINE
  5
354
330
6F
100
AcDbEntity
  8
ANCHOR
  6
HIDDEN
100
AcDbLine
 10
609.8912277190028
 20
148.3367962615325
 30
0.0
 11
604.5412277190028
 21
146.2414496094799
 31
0.0
  0
LINE
  5
355
330
6F
100
AcDbEntity
  8
ANCHOR
  6
HIDDEN
100
AcDbLine
 10
609.8912277190033
 20
146.5301247440748
 30
0.0
 11
605.5912277190032
 21
144.716124744075
 31
0.0
  0
LINE
  5
356
330
6F
100
AcDbEntity
  8
ANCHOR
  6
HIDDEN
100
AcDbLine
 10
605.0912277190028
 20
144.4274496094799
 30
0.0
 11
610.391227719003
 21
146.2414496094801
 31
0.0
  0
LINE
  5
357
330
6F
100
AcDbEntity
  8
ANCHOR
  6
HIDDEN
100
AcDbLine
 10
605.5912277190032
 20
144.1387744748854
 30
0.0
 11
609.8912277190033
 21
145.9527744748853
 31
0.0
  0
LINE
  5
358
330
6F
100
AcDbEntity
  8
ANCHOR
  6
HIDDEN
100
AcDbLine
 10
609.8912277190033
 20
144.7087962615464
 30
0.0
 11
609.8912277190033
 21
145.9527744748852
 31
0.0
  0
LINE
  5
359
330
6F
100
AcDbEntity
  8
ANCHOR
  6
HIDDEN
100
AcDbLine
 10
609.8912277190033
 20
146.5301247440749
 30
0.0
 11
609.8912277190033
 21
147.6442133506661
 31
0.0
  0
LINE
  5
35A
330
6F
100
AcDbEntity
  8
ANCHOR
  6
HIDDEN
100
AcDbLine
 10
605.591227719003
 20
145.9601029574275
 30
0.0
 11
605.5912277190032
 21
144.7161247440751
 31
0.0
  0
LINE
  5
35B
330
6F
100
AcDbEntity
  8
ANCHOR
  6
HIDDEN
100
AcDbLine
 10
605.5912277190032
 20
144.1387744748853
 30
0.0
 11
605.5912277190032
 21
143.0246858683076
 31
0.0
  0
LINE
  5
35C
330
6F
100
AcDbEntity
  8
ANCHOR
  6
HIDDEN
100
AcDbLine
 10
605.0912277190032
 20
148.0554496094666
 30
0.0
 11
605.5912277190034
 21
148.3441247440615
 31
0.0
  0
LINE
  5
35D
330
6F
100
AcDbEntity
  8
ANCHOR
  6
HIDDEN
100
AcDbLine
 10
605.0912277190032
 20
148.0554496094665
 30
0.0
 11
605.5912277190034
 21
147.7667744748717
 31
0.0
  0
LINE
  5
35E
330
6F
100
AcDbEntity
  8
ANCHOR
  6
HIDDEN
100
AcDbLine
 10
607.7412277190031
 20
150.7764496094666
 30
0.0
 11
604.9512277190032
 21
149.9856589844666
 31
0.0
  0
LINE
  5
35F
330
6F
100
AcDbEntity
  8
ANCHOR
  6
HIDDEN
100
AcDbLine
 10
609.8912277190033
 20
148.3367962615327
 30
0.0
 11
609.8912277190033
 21
149.5807744748717
 31
0.0
  0
LINE
  5
360
330
6F
100
AcDbEntity
  8
ANCHOR
  6
HIDDEN
100
AcDbLine
 10
605.5912277190032
 20
149.8141715013107
 30
0.0
 11
605.5912277190032
 21
148.3441247440614
 31
0.0
  0
LINE
  5
361
330
6F
100
AcDbEntity
  8
ANCHOR
  6
HIDDEN
100
AcDbLine
 10
605.5912277190032
 20
147.7667744748718
 30
0.0
 11
605.5912277190032
 21
146.6526858682941
 31
0.0
  0
LINE
  5
362
330
6F
100
AcDbEntity
  8
ANCHOR
  6
HIDDEN
100
AcDbLine
 10
610.3912277190028
 20
128.1014496095477
 30
0.0
 11
609.8912277190028
 21
127.8127744749525
 31
0.0
  0
LINE
  5
363
330
6F
100
AcDbEntity
  8
ANCHOR
  6
HIDDEN
100
AcDbLine
 10
604.5412277190032
 20
128.1014496095481
 30
0.0
 11
605.5912277190032
 21
127.8201029574954
 31
0.0
  0
LINE
  5
364
330
6F
100
AcDbEntity
  8
ANCHOR
  6
HIDDEN
100
AcDbLine
 10
610.9412277190032
 20
129.9154496095479
 30
0.0
 11
609.8912277190033
 21
130.1967962616004
 31
0.0
  0
LINE
  5
365
330
6F
100
AcDbEntity
  8
ANCHOR
  6
HIDDEN
100
AcDbLine
 10
610.3912277190032
 20
128.1014496095479
 30
0.0
 11
609.8912277190033
 21
128.3901247441427
 31
0.0
  0
LINE
  5
366
330
6F
100
AcDbEntity
  8
ANCHOR
  6
HIDDEN
100
AcDbLine
 10
605.0912277190032
 20
126.2874496095475
 30
0.0
 11
605.5912277190032
 21
126.5761247441425
 31
0.0
  0
LINE
  5
367
330
6F
100
AcDbEntity
  8
ANCHOR
  6
HIDDEN
100
AcDbLine
 10
605.0912277190028
 20
126.2874496095478
 30
0.0
 11
605.5912277190032
 21
125.9987744749528
 31
0.0
  0
LINE
  5
368
330
6F
100
AcDbEntity
  8
ANCHOR
  6
HIDDEN
100
AcDbLine
 10
610.9412277190032
 20
129.9154496095479
 30
0.0
 11
604.5412277190032
 21
128.101449609548
 31
0.0
  0
LINE
  5
369
330
6F
100
AcDbEntity
  8
ANCHOR
  6
HIDDEN
100
AcDbLine
 10
605.5912277190032
 20
127.820102957495
 30
0.0
 11
610.9412277190032
 21
129.9154496095475
 31
0.0
  0
LINE
  5
36A
330
6F
100
AcDbEntity
  8
ANCHOR
  6
HIDDEN
100
AcDbLine
 10
609.8912277190033
 20
130.1967962616003
 30
0.0
 11
604.5412277190032
 21
128.1014496095478
 31
0.0
  0
LINE
  5
36B
330
6F
100
AcDbEntity
  8
ANCHOR
  6
HIDDEN
100
AcDbLine
 10
609.8912277190028
 20
128.3901247441427
 30
0.0
 11
605.5912277190027
 21
126.5761247441427
 31
0.0
  0
LINE
  5
36C
330
6F
100
AcDbEntity
  8
ANCHOR
  6
HIDDEN
100
AcDbLine
 10
605.0912277190028
 20
126.2874496095477
 30
0.0
 11
610.391227719003
 21
128.1014496095477
 31
0.0
  0
LINE
  5
36D
330
6F
100
AcDbEntity
  8
ANCHOR
  6
HIDDEN
100
AcDbLine
 10
605.5912277190027
 20
125.9987744749527
 30
0.0
 11
609.8912277190028
 21
127.8127744749526
 31
0.0
  0
LINE
  5
36E
330
6F
100
AcDbEntity
  8
ANCHOR
  6
HIDDEN
100
AcDbLine
 10
609.8912277190033
 20
128.3901247441425
 30
0.0
 11
609.8912277190033
 21
129.5042133507338
 31
0.0
  0
LINE
  5
36F
330
6F
100
AcDbEntity
  8
ANCHOR
  6
HIDDEN
100
AcDbLine
 10
609.8912277190033
 20
130.1967962616002
 30
0.0
 11
609.8912277190033
 21
131.4407744749395
 31
0.0
  0
LINE
  5
370
330
6F
100
AcDbEntity
  8
ANCHOR
  6
HIDDEN
100
AcDbLine
 10
605.5912277190032
 20
129.6267744749393
 30
0.0
 11
605.5912277190032
 21
128.512685868362
 31
0.0
  0
LINE
  5
371
330
6F
100
AcDbEntity
  8
ANCHOR
  6
HIDDEN
100
AcDbLine
 10
605.5912277190032
 20
127.8201029574952
 30
0.0
 11
605.5912277190032
 21
126.5761247441427
 31
0.0
  0
LINE
  5
372
330
6F
100
AcDbEntity
  8
ANCHOR
  6
HIDDEN
100
AcDbLine
 10
610.2912277190031
 20
124.4392231944671
 30
0.0
 11
609.8912277190033
 21
124.208283086791
 31
0.0
  0
LINE
  5
373
330
6F
100
AcDbEntity
  8
ANCHOR
  6
HIDDEN
100
AcDbLine
 10
604.5412277190028
 20
124.4734496095612
 30
0.0
 11
605.5912277190027
 21
124.1921029575085
 31
0.0
  0
LINE
  5
374
330
6F
100
AcDbEntity
  8
ANCHOR
  6
HIDDEN
100
AcDbLine
 10
610.9412277190028
 20
126.2874496095613
 30
0.0
 11
609.891227719003
 21
126.5687962616139
 31
0.0
  0
LINE
  5
375
330
6F
100
AcDbEntity
  8
ANCHOR
  6
HIDDEN
100
AcDbLine
 10
610.2912277190035
 20
124.4392231944671
 30
0.0
 11
609.8912277190033
 21
124.6701633021434
 31
0.0
  0
LINE
  5
376
330
6F
100
AcDbEntity
  8
ANCHOR
  6
HIDDEN
100
AcDbLine
 10
610.9412277190032
 20
126.2874496095618
 30
0.0
 11
604.5412277190032
 21
124.4734496095619
 31
0.0
  0
LINE
  5
377
330
6F
100
AcDbEntity
  8
ANCHOR
  6
HIDDEN
100
AcDbLine
 10
605.5912277190032
 20
124.1921029575089
 30
0.0
 11
610.9412277190032
 21
126.2874496095617
 31
0.0
  0
LINE
  5
378
330
6F
100
AcDbEntity
  8
ANCHOR
  6
HIDDEN
100
AcDbLine
 10
609.8912277190028
 20
126.5687962616141
 30
0.0
 11
604.5412277190028
 21
124.4734496095615
 31
0.0
  0
LINE
  5
379
330
6F
100
AcDbEntity
  8
ANCHOR
  6
HIDDEN
100
AcDbLine
 10
605.6083721509204
 20
122.8364496094666
 30
0.0
 11
610.2912277190032
 21
124.439223194467
 31
0.0
  0
LINE
  5
37A
330
6F
100
AcDbEntity
  8
ANCHOR
  6
HIDDEN
100
AcDbLine
 10
609.8912277190033
 20
124.6701633021434
 30
0.0
 11
609.8912277190033
 21
125.8762133507472
 31
0.0
  0
LINE
  5
37B
330
6F
100
AcDbEntity
  8
ANCHOR
  6
HIDDEN
100
AcDbLine
 10
609.8912277190033
 20
126.568796261614
 30
0.0
 11
609.8912277190033
 21
127.8127744749528
 31
0.0
  0
LINE
  5
37C
330
6F
100
AcDbEntity
  8
ANCHOR
  6
HIDDEN
100
AcDbLine
 10
605.5912277190032
 20
125.998774474953
 30
0.0
 11
605.5912277190032
 21
124.8846858683754
 31
0.0
  0
LINE
  5
37D
330
6F
100
AcDbEntity
  8
ANCHOR
  6
HIDDEN
100
AcDbLine
 10
605.591227719003
 20
124.1921029575085
 30
0.0
 11
605.5912277190032
 21
122.8364496094667
 31
0.0
  0
LINE
  5
37E
330
6F
100
AcDbEntity
  8
ANCHOR
  6
HIDDEN
100
AcDbLine
 10
609.8912277190033
 20
122.8364496094668
 30
0.0
 11
609.8912277190033
 21
124.2082830867911
 31
0.0
  0
LINE
  5
37F
330
6F
100
AcDbEntity
  8
ANCHOR
  6
HIDDEN
100
AcDbLine
 10
609.8912277190028
 20
124.6701633021433
 30
0.0
 11
605.6083721509202
 21
122.8364496094666
 31
0.0
  0
LINE
  5
380
330
6F
100
AcDbEntity
  8
ANCHOR
  6
HIDDEN
100
AcDbLine
 10
605.6083721509207
 20
122.8364496094667
 30
0.0
 11
609.8912277190033
 21
124.2082830867911
 31
0.0
  0
LINE
  5
381
330
6F
100
AcDbEntity
  8
ANCHOR
  6
HIDDEN
100
AcDbLine
 10
610.3912277190032
 20
149.8694496094667
 30
0.0
 11
609.8912277190033
 21
149.5807744748718
 31
0.0
  0
LINE
  5
382
330
6F
100
AcDbEntity
  8
ANCHOR
  6
HIDDEN
100
AcDbLine
 10
610.3912277190032
 20
149.8694496094668
 30
0.0
 11
610.0140585850757
 21
150.0872083104699
 31
0.0
  0
LINE
  5
383
330
6F
100
AcDbEntity
  8
ANCHOR
  6
HIDDEN
100
AcDbLine
 10
605.5912277190032
 20
147.7667744748717
 30
0.0
 11
609.8912277190028
 21
149.5807744748717
 31
0.0
  0
LINE
  5
384
330
6F
100
AcDbEntity
  8
ANCHOR
  6
HIDDEN
100
AcDbLine
 10
610.3912277190032
 20
149.8694496094668
 30
0.0
 11
605.0912277190028
 21
148.0554496094667
 31
0.0
  0
LINE
  5
385
330
6F
100
AcDbEntity
  8
ANCHOR
  6
HIDDEN
100
AcDbLine
 10
610.1812277190028
 20
150.7764496094664
 30
0.0
 11
610.0140585850752
 21
150.0872083104695
 31
0.0
  0
LINE
  5
386
330
6F
100
AcDbEntity
  8
ANCHOR
  6
HIDDEN
100
AcDbLine
 10
610.0140585850755
 20
150.0872083104695
 30
0.0
 11
605.5912277190032
 21
148.3441247440613
 31
0.0
  0
LINE
  5
387
330
6F
100
AcDbEntity
  8
ANCHOR
  6
HIDDEN
100
AcDbLine
 10
605.3012277190031
 20
150.7764496094666
 30
0.0
 11
605.4460249435955
 21
150.1794480887646
 31
0.0
  0
LINE
  5
388
330
6F
100
AcDbEntity
  8
ANCHOR
  6
HIDDEN
100
AcDbLine
 10
604.951227719003
 20
149.9856589844666
 30
0.0
 11
605.591227719003
 21
149.8141715013108
 31
0.0
  0
LINE
  5
389
330
6F
100
AcDbEntity
  8
ANCHOR
  6
HIDDEN
100
AcDbLine
 10
605.4460249435956
 20
150.1794480887646
 30
0.0
 11
604.9512277190032
 21
149.9856589844666
 31
0.0
  0
LINE
  5
38A
330
6F
100
AcDbEntity
  8
ANCHOR
  6
HIDDEN
100
AcDbLine
 10
605.5912277190035
 20
149.8141715013108
 30
0.0
 11
607.7412277190034
 21
150.7764496094668
 31
0.0
  0
LINE
  5
38B
330
6F
100
AcDbEntity
  8
ANCHOR
  6
HIDDEN
100
AcDbLine
 10
611.2412277190031
 20
151.8364496094664
 30
0.0
 11
610.1812277190032
 21
150.7764496094664
 31
0.0
  0
LINE
  5
38C
330
6F
100
AcDbEntity
  8
ANCHOR
  6
HIDDEN
100
AcDbLine
 10
604.2412277190028
 20
151.8364496094666
 30
0.0
 11
605.3012277190028
 21
150.7764496094664
 31
0.0
  0
LINE
  5
38D
330
6F
100
AcDbEntity
  8
ANCHOR
  6
Continuous
100
AcDbLine
 10
614.5912277183184
 20
153.4364496094664
 30
0.0
 11
600.8912277196882
 21
153.4364496094665
 31
0.0
  0
LINE
  5
38E
330
6F
100
AcDbEntity
  8
ANCHOR
  6
Continuous
100
AcDbLine
 10
614.5912277183182
 20
153.4364496094665
 30
0.0
 11
614.5912277183182
 21
151.8364496096266
 31
0.0
  0
LINE
  5
38F
330
6F
100
AcDbEntity
  8
ANCHOR
  6
Continuous
100
AcDbLine
 10
614.5912277183184
 20
151.8364496096263
 30
0.0
 11
600.8912277196882
 21
151.8364496096264
 31
0.0
  0
LINE
  5
390
330
6F
100
AcDbEntity
  8
ANCHOR
  6
Continuous
100
AcDbLine
 10
600.8912277196882
 20
151.8364496096266
 30
0.0
 11
600.8912277196882
 21
153.4364496094666
 31
0.0
  0
LINE
  5
391
330
6F
100
AcDbEntity
  8
ANCHOR
  6
Continuous
100
AcDbLine
 10
603.4912277190035
 20
154.2364496094668
 30
0.0
 11
602.7412277190034
 21
153.4364496094669
 31
0.0
  0
LINE
  5
392
330
6F
100
AcDbEntity
  8
ANCHOR
  6
Continuous
100
AcDbLine
 10
611.9912277190032
 20
154.2364496094662
 30
0.0
 11
612.7412277190032
 21
153.4364496094663
 31
0.0
  0
LINE
  5
393
330
6F
100
AcDbEntity
  8
ANCHOR
  6
HIDDEN
100
AcDbLine
 10
602.2412277204908
 20
417.7555691124108
 30
0.0
 11
592.7412277191622
 21
417.7555691124511
 31
0.0
  0
LINE
  5
394
330
6F
100
AcDbEntity
  8
ANCHOR
  6
HIDDEN
100
AcDbLine
 10
602.241227721046
 20
413.7555691124108
 30
0.0
 11
592.7412277191465
 21
413.7555691124511
 31
0.0
  0
LINE
  5
395
330
6F
100
AcDbEntity
  8
ANCHOR
  6
HIDDEN
100
AcDbLine
 10
605.1638774512564
 20
416.7555691124192
 30
0.0
 11
603.2412277205017
 21
416.7555691124154
 31
0.0
  0
LINE
  5
396
330
6F
100
AcDbEntity
  8
ANCHOR
  6
HIDDEN
100
AcDbLine
 10
605.1638774514524
 20
414.7555691124193
 30
0.0
 11
603.2412277210397
 21
414.7555691124154
 31
0.0
  0
LINE
  5
397
330
6F
100
AcDbEntity
  8
ANCHOR
  6
HIDDEN
100
AcDbLine
 10
605.741227720544
 20
415.7555691122591
 30
0.0
 11
605.1638774512564
 21
416.7555691124197
 31
0.0
  0
LINE
  5
398
330
6F
100
AcDbEntity
  8
ANCHOR
  6
HIDDEN
100
AcDbLine
 10
605.1638774514529
 20
414.7555691124205
 30
0.0
 11
605.7412277205448
 21
415.7555691122594
 31
0.0
  0
ARC
  5
399
330
6F
100
AcDbEntity
  8
ANCHOR
  6
HIDDEN
100
AcDbCircle
 10
603.7412277210489
 20
415.7555691124176
 30
0.0
 40
0.5
100
AcDbArc
 50
97.20679386168658
 51
262.7932061387912
  0
LINE
  5
39A
330
6F
100
AcDbEntity
  8
ANCHOR
  6
HIDDEN
100
AcDbLine
 10
603.6785022845837
 20
415.2595191959567
 30
0.0
 11
605.1638774514522
 21
414.7555691124189
 31
0.0
  0
LINE
  5
39B
330
6F
100
AcDbEntity
  8
ANCHOR
  6
HIDDEN
100
AcDbLine
 10
603.6785022845807
 20
416.2516190288776
 30
0.0
 11
605.1638774512566
 21
416.7555691124197
 31
0.0
  0
LINE
  5
39C
330
6F
100
AcDbEntity
  8
ANCHOR
  6
HIDDEN
100
AcDbLine
 10
603.2412277205001
 20
416.755569112415
 30
0.0
 11
602.2412277204908
 21
417.7555691124121
 31
0.0
  0
LINE
  5
39D
330
6F
100
AcDbEntity
  8
ANCHOR
  6
HIDDEN
100
AcDbLine
 10
602.2412277210462
 20
413.755569112414
 30
0.0
 11
603.2412277210387
 21
414.7555691124143
 31
0.0
  0
LINE
  5
39E
330
6F
100
AcDbEntity
  8
ANCHOR
  6
HIDDEN
100
AcDbLine
 10
602.2412277207777
 20
413.7555691124132
 30
0.0
 11
602.2412277207628
 21
417.7555691124132
 31
0.0
  0
LINE
  5
39F
330
6F
100
AcDbEntity
  8
ANCHOR
  6
HIDDEN
100
AcDbLine
 10
603.2412277205431
 20
414.755569112413
 30
0.0
 11
603.2412277205337
 21
416.7555691124131
 31
0.0
  0
LINE
  5
3A0
330
6F
100
AcDbEntity
  8
ANCHOR
  6
HIDDEN
100
AcDbLine
 10
603.0412277210414
 20
414.5555691124134
 30
0.0
 11
592.7412277191507
 21
414.5555691124545
 31
0.0
  0
LINE
  5
3A1
330
6F
100
AcDbEntity
  8
ANCHOR
  6
HIDDEN
100
AcDbLine
 10
603.0412277205003
 20
416.9555691124131
 30
0.0
 11
592.7412277191598
 21
416.9555691124542
 31
0.0
  0
LINE
  5
3A2
330
6F
100
AcDbEntity
  8
ANCHOR
  6
Continuous
100
AcDbLine
 10
590.7189171380127
 20
416.2537673600434
 30
0.0
 11
590.7189171380131
 21
415.2573708645613
 31
0.0
  0
LINE
  5
3A3
330
6F
100
AcDbEntity
  8
ANCHOR
  6
Continuous
100
AcDbLine
 10
590.7189171380126
 20
416.2537673600438
 30
0.0
 11
590.2412277193382
 21
416.2537673600438
 31
0.0
  0
LINE
  5
3A4
330
6F
100
AcDbEntity
  8
ANCHOR
  6
Continuous
100
AcDbLine
 10
590.718917138013
 20
415.2573708645616
 30
0.0
 11
590.2412277193388
 21
415.2573708645616
 31
0.0
  0
LINE
  5
3A5
330
6F
100
AcDbEntity
  8
ANCHOR
  6
Continuous
100
AcDbLine
 10
592.241227719355
 20
411.0555691123003
 30
0.0
 11
592.741227719355
 21
411.0555691123009
 31
0.0
  0
ARC
  5
3A6
330
6F
100
AcDbEntity
  8
ANCHOR
  6
Continuous
100
AcDbCircle
 10
596.3326931136609
 20
415.5799376789852
 30
0.0
 40
6.099999999999998
100
AcDbArc
 50
183.0312034848472
 51
227.876411461438
  0
LINE
  5
3A7
330
6F
100
AcDbEntity
  8
ANCHOR
  6
Continuous
100
AcDbLine
 10
592.2412277193211
 20
420.4555691123023
 30
0.0
 11
592.2412277193558
 21
411.0555691123009
 31
0.0
  0
ARC
  5
3A8
330
6F
100
AcDbEntity
  8
ANCHOR
  6
Continuous
100
AcDbCircle
 10
596.3326931136609
 20
415.9312005456228
 30
0.0
 40
6.099999999999998
100
AcDbArc
 50
132.1235885386251
 51
176.9687965152159
  0
LINE
  5
3A9
330
6F
100
AcDbEntity
  8
ANCHOR
  6
Continuous
100
AcDbLine
 10
592.7412277193217
 20
420.4555691123038
 30
0.0
 11
592.7412277193564
 21
411.0555691123024
 31
0.0
  0
LINE
  5
3AA
330
6F
100
AcDbEntity
  8
ANCHOR
  6
Continuous
100
AcDbLine
 10
592.2412277193505
 20
420.4555691123021
 30
0.0
 11
592.7412277193504
 21
420.4555691123023
 31
0.0
  0
LINE
  5
3AB
330
6F
100
AcDbEntity
  8
LOUVER
  6
Continuous
100
AcDbLine
 10
592.7412277214805
 20
406.755569112301
 30
0.0
 11
592.7412277214805
 21
455.7555691123008
 31
0.0
  0
LINE
  5
3AC
330
6F
100
AcDbEntity
  8
LOUVER
  6
Continuous
100
AcDbLine
 10
595.2412277216247
 20
415.5555691122846
 30
0.0
 11
593.9412277214806
 21
415.5555691122846
 31
0.0
  0
LINE
  5
3AD
330
6F
100
AcDbEntity
  8
LOUVER
  6
Continuous
100
AcDbLine
 10
594.5412277214261
 20
406.7555691123008
 30
0.0
 11
594.5412277214249
 21
411.7555691119888
 31
0.0
  0
LINE
  5
3AE
330
6F
100
AcDbEntity
  8
LOUVER
  6
Continuous
100
AcDbLine
 10
594.5412277214287
 20
406.755569112301
 30
0.0
 11
592.7412277214805
 21
406.755569112301
 31
0.0
  0
LINE
  5
3AF
330
6F
100
AcDbEntity
  8
LOUVER
  6
Continuous
100
AcDbLine
 10
593.9412277214806
 20
420.755569112302
 30
0.0
 11
598.0412277214806
 21
420.7555691123032
 31
0.0
  0
LINE
  5
3B0
330
6F
100
AcDbEntity
  8
LOUVER
  6
Continuous
100
AcDbLine
 10
598.0412277214805
 20
420.7555691123031
 30
0.0
 11
598.0412277214805
 21
421.955569112303
 31
0.0
  0
LINE
  5
3B1
330
6F
100
AcDbEntity
  8
LOUVER
  6
Continuous
100
AcDbLine
 10
593.9412277214806
 20
421.9555691123018
 30
0.0
 11
598.0412277214802
 21
421.9555691123032
 31
0.0
  0
LINE
  5
3B2
330
6F
100
AcDbEntity
  8
LOUVER
  6
Continuous
100
AcDbLine
 10
593.9412277214806
 20
415.5555691122846
 30
0.0
 11
593.9412277214806
 21
420.7555691123017
 31
0.0
  0
LINE
  5
3B3
330
6F
100
AcDbEntity
  8
LOUVER
  6
Continuous
100
AcDbLine
 10
593.9412277214806
 20
440.7555691118544
 30
0.0
 11
593.9412277214806
 21
454.5555691123011
 31
0.0
  0
LINE
  5
3B4
330
6F
100
AcDbEntity
  8
LOUVER
  6
Continuous
100
AcDbLine
 10
622.7412277214805
 20
406.755569112301
 30
0.0
 11
622.7412277214805
 21
455.7555691123008
 31
0.0
  0
LINE
  5
3B5
330
6F
100
AcDbEntity
  8
LOUVER
  6
Continuous
100
AcDbLine
 10
620.2412277213364
 20
415.5555691122846
 30
0.0
 11
621.5412277214803
 21
415.5555691122846
 31
0.0
  0
LINE
  5
3B6
330
6F
100
AcDbEntity
  8
LOUVER
  6
Continuous
100
AcDbLine
 10
620.9412277215349
 20
406.7555691123009
 30
0.0
 11
620.941227721536
 21
411.7555691119888
 31
0.0
  0
LINE
  5
3B7
330
6F
100
AcDbEntity
  8
LOUVER
  6
Continuous
100
AcDbLine
 10
620.9412277215319
 20
406.755569112301
 30
0.0
 11
622.7412277214805
 21
406.755569112301
 31
0.0
  0
LINE
  5
3B8
330
6F
100
AcDbEntity
  8
LOUVER
  6
Continuous
100
AcDbLine
 10
621.5412277214803
 20
420.7555691123014
 30
0.0
 11
617.4412277214805
 21
420.7555691123028
 31
0.0
  0
LINE
  5
3B9
330
6F
100
AcDbEntity
  8
LOUVER
  6
Continuous
100
AcDbLine
 10
617.4412277214805
 20
420.7555691123031
 30
0.0
 11
617.4412277214805
 21
421.955569112303
 31
0.0
  0
LINE
  5
3BA
330
6F
100
AcDbEntity
  8
LOUVER
  6
Continuous
100
AcDbLine
 10
621.5412277214802
 20
421.9555691123016
 30
0.0
 11
617.4412277214806
 21
421.9555691123027
 31
0.0
  0
LINE
  5
3BB
330
6F
100
AcDbEntity
  8
LOUVER
  6
Continuous
100
AcDbLine
 10
621.5412277214803
 20
415.5555691122846
 30
0.0
 11
621.5412277214803
 21
420.7555691123017
 31
0.0
  0
LINE
  5
3BC
330
6F
100
AcDbEntity
  8
LOUVER
  6
Continuous
100
AcDbLine
 10
621.5412277214803
 20
440.7555691118796
 30
0.0
 11
621.5412277214803
 21
454.5555691123011
 31
0.0
  0
LINE
  5
3BD
330
6F
100
AcDbEntity
  8
LOUVER
  6
Continuous
100
AcDbLine
 10
592.7412277214805
 20
455.7555691123008
 30
0.0
 11
622.7412277214805
 21
455.7555691123008
 31
0.0
  0
LINE
  5
3BE
330
6F
100
AcDbEntity
  8
LOUVER
  6
Continuous
100
AcDbLine
 10
593.9412277214806
 20
454.5555691123011
 30
0.0
 11
621.5412277214803
 21
454.5555691123011
 31
0.0
  0
ARC
  5
3BF
330
6F
100
AcDbEntity
  8
LOUVER
  6
Continuous
100
AcDbCircle
 10
595.2412277216247
 20
415.3555691122847
 30
0.0
 40
0.2
100
AcDbArc
 50
345.8703295024392
 51
90.0
  0
ARC
  5
3C0
330
6F
100
AcDbEntity
  8
LOUVER
  6
Continuous
100
AcDbCircle
 10
620.2412277213364
 20
415.3555691122847
 30
0.0
 40
0.2
100
AcDbArc
 50
90.0
 51
194.1296704975569
  0
LINE
  5
3C1
330
6F
100
AcDbEntity
  8
LOUVER
  6
Continuous
100
AcDbLine
 10
621.5412277214807
 20
440.7555691118785
 30
0.0
 11
621.0933098099102
 21
434.0581982761194
 31
0.0
  0
LINE
  5
3C2
330
6F
100
AcDbEntity
  8
LOUVER
  6
Continuous
100
AcDbLine
 10
621.10245097159
 20
427.4631950129418
 30
0.0
 11
621.5412277214803
 21
421.9555691123018
 31
0.0
  0
LINE
  5
3C3
330
6F
100
AcDbEntity
  8
LOUVER
  6
Continuous
100
AcDbLine
 10
593.9412277213846
 20
440.755569111894
 30
0.0
 11
594.3891456329473
 21
434.0581982761343
 31
0.0
  0
LINE
  5
3C4
330
6F
100
AcDbEntity
  8
LOUVER
  6
Continuous
100
AcDbLine
 10
594.3800044712605
 20
427.4631950129569
 30
0.0
 11
593.9412277213639
 21
421.9555691123172
 31
0.0
  0
LINE
  5
3C5
330
6F
100
AcDbEntity
  8
LOUVER
  6
Continuous
100
AcDbLine
 10
620.0472785753902
 20
415.3067456672331
 30
0.0
 11
620.941227721536
 21
411.7555691119891
 31
0.0
  0
LINE
  5
3C6
330
6F
100
AcDbEntity
  8
LOUVER
  6
Continuous
100
AcDbLine
 10
595.435176867571
 20
415.3067456672329
 30
0.0
 11
594.5412277214249
 21
411.7555691119888
 31
0.0
  0
ARC
  5
3C7
330
6F
100
AcDbEntity
  8
LOUVER
  6
Continuous
100
AcDbCircle
 10
596.2412277214832
 20
430.7555691123008
 30
0.0
 40
2.1
100
AcDbArc
 50
261.042328421765
 51
278.9576715807842
  0
ARC
  5
3C8
330
6F
100
AcDbEntity
  8
LOUVER
  6
Continuous
100
AcDbCircle
 10
596.2412277214832
 20
430.7555691123008
 30
0.0
 40
1.8
100
AcDbArc
 50
290.3599951900864
 51
312.7186445082694
  0
ARC
  5
3C9
330
6F
100
AcDbEntity
  8
LOUVER
  6
Continuous
100
AcDbCircle
 10
596.537066741966
 20
428.8787421959446
 30
0.0
 40
0.2
100
AcDbArc
 50
278.9576715807859
 51
359.9999999998204
  0
ARC
  5
3CA
330
6F
100
AcDbEntity
  8
LOUVER
  6
Continuous
100
AcDbCircle
 10
595.9453887010834
 20
428.8787421959312
 30
0.0
 40
0.2
100
AcDbArc
 50
179.9999999998205
 51
261.0423284217637
  0
ARC
  5
3CB
330
6F
100
AcDbEntity
  8
LOUVER
  6
Continuous
100
AcDbCircle
 10
595.5453926466535
 20
428.8805188333386
 30
0.0
 40
0.2
100
AcDbArc
 50
359.9999999998204
 51
69.64000481246078
  0
ARC
  5
3CC
330
6F
100
AcDbEntity
  8
LOUVER
  6
Continuous
100
AcDbCircle
 10
596.937062796396
 20
428.8805188333695
 30
0.0
 40
0.2
100
AcDbArc
 50
110.3599951900913
 51
179.9999999998203
  0
ARC
  5
3CD
330
6F
100
AcDbEntity
  8
LOUVER
  6
Continuous
100
AcDbCircle
 10
597.9033047351506
 20
428.9555691121236
 30
0.0
 40
0.6500000000000014
100
AcDbArc
 50
312.7186445082704
 51
132.7186445082704
  0
ARC
  5
3CE
330
6F
100
AcDbEntity
  8
LOUVER
  6
Continuous
100
AcDbCircle
 10
596.2412277214832
 20
430.7555691123008
 30
0.0
 40
1.8
100
AcDbArc
 50
200.3599951900866
 51
249.6400048124626
  0
ARC
  5
3CF
330
6F
100
AcDbEntity
  8
LOUVER
  6
Continuous
100
AcDbCircle
 10
596.2412277214832
 20
430.7555691123008
 30
0.0
 40
1.8
100
AcDbArc
 50
47.28135547309493
 51
69.64000481246273
  0
ARC
  5
3D0
330
6F
100
AcDbEntity
  8
LOUVER
  6
Continuous
100
AcDbCircle
 10
596.2412277214832
 20
430.7555691123008
 30
0.0
 40
1.8
100
AcDbArc
 50
110.3599951900864
 51
159.6400048124626
  0
ARC
  5
3D1
330
6F
100
AcDbEntity
  8
LOUVER
  6
Continuous
100
AcDbCircle
 10
597.9033047357361
 20
432.5555691119374
 30
0.0
 40
0.6500000000000048
100
AcDbArc
 50
227.2813554730933
 51
47.28135547309318
  0
ARC
  5
3D2
330
6F
100
AcDbEntity
  8
LOUVER
  6
Continuous
100
AcDbCircle
 10
596.2412277214832
 20
430.7555691123008
 30
0.0
 40
3.1
100
AcDbArc
 50
47.28135547309421
 51
112.0792034024934
  0
ARC
  5
3D3
330
6F
100
AcDbEntity
  8
LOUVER
  6
Continuous
100
AcDbCircle
 10
596.2412277214832
 20
430.7555691123008
 30
0.0
 40
3.1
100
AcDbArc
 50
247.7557187654122
 51
312.7186445082699
  0
LINE
  5
3D4
330
6F
100
AcDbEntity
  8
LOUVER
  6
Continuous
100
AcDbLine
 10
596.7370627963958
 20
428.8805188333698
 30
0.0
 11
596.7370667419657
 21
428.8787421959437
 31
0.0
  0
LINE
  5
3D5
330
6F
100
AcDbEntity
  8
LOUVER
  6
Continuous
100
AcDbLine
 10
595.7453926466537
 20
428.8805188333379
 30
0.0
 11
595.7453887010838
 21
428.878742195932
 31
0.0
  0
ARC
  5
3D6
330
6F
100
AcDbEntity
  8
LOUVER
  6
Continuous
100
AcDbCircle
 10
594.3644008051267
 20
430.4597300918177
 30
0.0
 40
0.2
100
AcDbArc
 50
188.9576715807859
 51
269.9999999998206
  0
ARC
  5
3D7
330
6F
100
AcDbEntity
  8
LOUVER
  6
Continuous
100
AcDbCircle
 10
594.3644008051135
 20
431.0514081327005
 30
0.0
 40
0.2
100
AcDbArc
 50
89.99999999982035
 51
171.0423284217637
  0
ARC
  5
3D8
330
6F
100
AcDbEntity
  8
LOUVER
  6
Continuous
100
AcDbCircle
 10
594.3661774425208
 20
431.4514041871303
 30
0.0
 40
0.2
100
AcDbArc
 50
269.9999999998204
 51
339.6400048124608
  0
ARC
  5
3D9
330
6F
100
AcDbEntity
  8
LOUVER
  6
Continuous
100
AcDbCircle
 10
594.3661774425517
 20
430.0597340373878
 30
0.0
 40
0.2
100
AcDbArc
 50
20.35999519009138
 51
89.99999999982035
  0
LINE
  5
3DA
330
6F
100
AcDbEntity
  8
LOUVER
  6
Continuous
100
AcDbLine
 10
594.3661774425522
 20
430.2597340373885
 30
0.0
 11
594.364400805126
 21
430.2597300918183
 31
0.0
  0
LINE
  5
3DB
330
6F
100
AcDbEntity
  8
LOUVER
  6
Continuous
100
AcDbLine
 10
594.36617744252
 20
431.2514041871306
 30
0.0
 11
594.3644008051141
 21
431.2514081327006
 31
0.0
  0
ARC
  5
3DC
330
6F
100
AcDbEntity
  8
LOUVER
  6
Continuous
100
AcDbCircle
 10
596.2412277214832
 20
430.7555691123008
 30
0.0
 40
2.1
100
AcDbArc
 50
81.04232842176505
 51
98.95767158078427
  0
ARC
  5
3DD
330
6F
100
AcDbEntity
  8
LOUVER
  6
Continuous
100
AcDbCircle
 10
595.9453887009999
 20
432.6323960286571
 30
0.0
 40
0.2
100
AcDbArc
 50
98.95767158078593
 51
179.9999999998203
  0
ARC
  5
3DE
330
6F
100
AcDbEntity
  8
LOUVER
  6
Continuous
100
AcDbCircle
 10
596.5370667418827
 20
432.6323960286703
 30
0.0
 40
0.2
100
AcDbArc
 50
359.9999999998204
 51
81.04232842176369
  0
ARC
  5
3DF
330
6F
100
AcDbEntity
  8
LOUVER
  6
Continuous
100
AcDbCircle
 10
596.9370627963127
 20
432.6306193912633
 30
0.0
 40
0.2
100
AcDbArc
 50
179.9999999998205
 51
249.6400048124609
  0
ARC
  5
3E0
330
6F
100
AcDbEntity
  8
LOUVER
  6
Continuous
100
AcDbCircle
 10
595.5453926465702
 20
432.6306193912323
 30
0.0
 40
0.2
100
AcDbArc
 50
290.3599951900913
 51
359.9999999998204
  0
LINE
  5
3E1
330
6F
100
AcDbEntity
  8
LOUVER
  6
Continuous
100
AcDbLine
 10
595.7453926465702
 20
432.6306193912315
 30
0.0
 11
595.7453887010001
 21
432.6323960286575
 31
0.0
  0
LINE
  5
3E2
330
6F
100
AcDbEntity
  8
LOUVER
  6
Continuous
100
AcDbLine
 10
596.7370627963132
 20
432.6306193912639
 30
0.0
 11
596.7370667418832
 21
432.6323960286698
 31
0.0
  0
ARC
  5
3E3
330
6F
100
AcDbEntity
  8
LOUVER
  6
Continuous
100
AcDbCircle
 10
596.241227721483
 20
430.7555691123008
 30
0.0
 40
2.1
100
AcDbArc
 50
171.0423284217649
 51
188.9576715807843
  0
ARC
  5
3E4
330
6F
100
AcDbEntity
  8
LOUVER
  6
Continuous
100
AcDbCircle
 10
619.2412277214779
 20
430.7555691123008
 30
0.0
 40
2.1
100
AcDbArc
 50
81.042328421765
 51
98.95767158078422
  0
ARC
  5
3E5
330
6F
100
AcDbEntity
  8
LOUVER
  6
Continuous
100
AcDbCircle
 10
619.2412277214779
 20
430.7555691123008
 30
0.0
 40
1.8
100
AcDbArc
 50
110.3599951900863
 51
132.7186445082694
  0
ARC
  5
3E6
330
6F
100
AcDbEntity
  8
LOUVER
  6
Continuous
100
AcDbCircle
 10
618.9453887009951
 20
432.6323960286571
 30
0.0
 40
0.2
100
AcDbArc
 50
98.95767158078587
 51
179.9999999998204
  0
ARC
  5
3E7
330
6F
100
AcDbEntity
  8
LOUVER
  6
Continuous
100
AcDbCircle
 10
619.5370667418777
 20
432.6323960286703
 30
0.0
 40
0.2
100
AcDbArc
 50
359.9999999998204
 51
81.04232842176369
  0
ARC
  5
3E8
330
6F
100
AcDbEntity
  8
LOUVER
  6
Continuous
100
AcDbCircle
 10
619.9370627963077
 20
432.6306193912633
 30
0.0
 40
0.2
100
AcDbArc
 50
179.9999999998204
 51
249.6400048124609
  0
ARC
  5
3E9
330
6F
100
AcDbEntity
  8
LOUVER
  6
Continuous
100
AcDbCircle
 10
618.5453926465652
 20
432.6306193912323
 30
0.0
 40
0.2
100
AcDbArc
 50
290.3599951900913
 51
359.9999999998203
  0
ARC
  5
3EA
330
6F
100
AcDbEntity
  8
LOUVER
  6
Continuous
100
AcDbCircle
 10
617.5791507078106
 20
432.555569112478
 30
0.0
 40
0.6500000000000014
100
AcDbArc
 50
132.7186445082704
 51
312.7186445082705
  0
ARC
  5
3EB
330
6F
100
AcDbEntity
  8
LOUVER
  6
Continuous
100
AcDbCircle
 10
619.2412277214779
 20
430.7555691123008
 30
0.0
 40
1.8
100
AcDbArc
 50
20.3599951900866
 51
69.64000481246265
  0
ARC
  5
3EC
330
6F
100
AcDbEntity
  8
LOUVER
  6
Continuous
100
AcDbCircle
 10
619.2412277214779
 20
430.7555691123008
 30
0.0
 40
1.8
100
AcDbArc
 50
227.281355473095
 51
249.6400048124627
  0
ARC
  5
3ED
330
6F
100
AcDbEntity
  8
LOUVER
  6
Continuous
100
AcDbCircle
 10
619.2412277214779
 20
430.7555691123008
 30
0.0
 40
1.8
100
AcDbArc
 50
290.3599951900864
 51
339.6400048124627
  0
ARC
  5
3EE
330
6F
100
AcDbEntity
  8
LOUVER
  6
Continuous
100
AcDbCircle
 10
617.5791507072252
 20
428.9555691126643
 30
0.0
 40
0.6500000000000048
100
AcDbArc
 50
47.28135547309326
 51
227.2813554730932
  0
ARC
  5
3EF
330
6F
100
AcDbEntity
  8
LOUVER
  6
Continuous
100
AcDbCircle
 10
619.2412277214779
 20
430.7555691123008
 30
0.0
 40
3.1
100
AcDbArc
 50
227.2813554730942
 51
292.2442812327245
  0
ARC
  5
3F0
330
6F
100
AcDbEntity
  8
LOUVER
  6
Continuous
100
AcDbCircle
 10
619.2412277214779
 20
430.7555691123008
 30
0.0
 40
3.1
100
AcDbArc
 50
67.9207965992203
 51
132.7186445082699
  0
LINE
  5
3F1
330
6F
100
AcDbEntity
  8
LOUVER
  6
Continuous
100
AcDbLine
 10
618.7453926465646
 20
432.6306193912314
 30
0.0
 11
618.7453887009946
 21
432.6323960286575
 31
0.0
  0
LINE
  5
3F2
330
6F
100
AcDbEntity
  8
LOUVER
  6
Continuous
100
AcDbLine
 10
619.7370627963072
 20
432.6306193912639
 30
0.0
 11
619.7370667418773
 21
432.6323960286698
 31
0.0
  0
ARC
  5
3F3
330
6F
100
AcDbEntity
  8
LOUVER
  6
Continuous
100
AcDbCircle
 10
621.1180546378344
 20
431.0514081327839
 30
0.0
 40
0.2
100
AcDbArc
 50
8.957671580785904
 51
89.99999999982046
  0
ARC
  5
3F4
330
6F
100
AcDbEntity
  8
LOUVER
  6
Continuous
100
AcDbCircle
 10
621.1180546378478
 20
430.4597300919013
 30
0.0
 40
0.2
100
AcDbArc
 50
269.9999999998204
 51
351.0423284217637
  0
ARC
  5
3F5
330
6F
100
AcDbEntity
  8
LOUVER
  6
Continuous
100
AcDbCircle
 10
621.1162780004406
 20
430.0597340374713
 30
0.0
 40
0.2
100
AcDbArc
 50
89.99999999982042
 51
159.6400048124608
  0
ARC
  5
3F6
330
6F
100
AcDbEntity
  8
LOUVER
  6
Continuous
100
AcDbCircle
 10
621.1162780004098
 20
431.4514041872138
 30
0.0
 40
0.2
100
AcDbArc
 50
200.3599951900914
 51
269.9999999998204
  0
LINE
  5
3F7
330
6F
100
AcDbEntity
  8
LOUVER
  6
Continuous
100
AcDbLine
 10
621.1162780004091
 20
431.2514041872138
 30
0.0
 11
621.1180546378351
 21
431.2514081327837
 31
0.0
  0
LINE
  5
3F8
330
6F
100
AcDbEntity
  8
LOUVER
  6
Continuous
100
AcDbLine
 10
621.1162780004412
 20
430.2597340374713
 30
0.0
 11
621.1180546378471
 21
430.2597300919011
 31
0.0
  0
ARC
  5
3F9
330
6F
100
AcDbEntity
  8
LOUVER
  6
Continuous
100
AcDbCircle
 10
619.2412277214779
 20
430.7555691123008
 30
0.0
 40
2.1
100
AcDbArc
 50
261.042328421765
 51
278.9576715807843
  0
ARC
  5
3FA
330
6F
100
AcDbEntity
  8
LOUVER
  6
Continuous
100
AcDbCircle
 10
619.5370667419612
 20
428.8787421959446
 30
0.0
 40
0.2
100
AcDbArc
 50
278.9576715807859
 51
359.9999999998203
  0
ARC
  5
3FB
330
6F
100
AcDbEntity
  8
LOUVER
  6
Continuous
100
AcDbCircle
 10
618.9453887010783
 20
428.8787421959312
 30
0.0
 40
0.2
100
AcDbArc
 50
179.9999999998204
 51
261.0423284217637
  0
ARC
  5
3FC
330
6F
100
AcDbEntity
  8
LOUVER
  6
Continuous
100
AcDbCircle
 10
618.5453926466484
 20
428.8805188333386
 30
0.0
 40
0.2
100
AcDbArc
 50
359.9999999998204
 51
69.64000481246078
  0
ARC
  5
3FD
330
6F
100
AcDbEntity
  8
LOUVER
  6
Continuous
100
AcDbCircle
 10
619.9370627963912
 20
428.8805188333695
 30
0.0
 40
0.2
100
AcDbArc
 50
110.3599951900913
 51
179.9999999998204
  0
LINE
  5
3FE
330
6F
100
AcDbEntity
  8
LOUVER
  6
Continuous
100
AcDbLine
 10
619.7370627963912
 20
428.8805188333701
 30
0.0
 11
619.7370667419612
 21
428.8787421959439
 31
0.0
  0
LINE
  5
3FF
330
6F
100
AcDbEntity
  8
LOUVER
  6
Continuous
100
AcDbLine
 10
618.7453926466482
 20
428.8805188333376
 30
0.0
 11
618.7453887010782
 21
428.8787421959317
 31
0.0
  0
ARC
  5
400
330
6F
100
AcDbEntity
  8
LOUVER
  6
Continuous
100
AcDbCircle
 10
619.2412277214782
 20
430.7555691123008
 30
0.0
 40
2.1
100
AcDbArc
 50
351.0423284217648
 51
8.95767158078419
  0
ARC
  5
401
330
6F
100
AcDbEntity
  8
LOUVER
  6
Continuous
100
AcDbCircle
 10
620.6040301712537
 20
427.4234872581313
 30
0.0
 40
0.5
100
AcDbArc
 50
4.554970011039097
 51
112.2442812327232
  0
ARC
  5
402
330
6F
100
AcDbEntity
  8
LOUVER
  6
Continuous
100
AcDbCircle
 10
594.8784252715991
 20
427.4234872581758
 30
0.0
 40
0.5
100
AcDbArc
 50
67.75571876541217
 51
175.445029988897
  0
ARC
  5
403
330
6F
100
AcDbEntity
  8
LOUVER
  6
Continuous
100
AcDbCircle
 10
594.8880311479207
 20
434.0915635717236
 30
0.0
 40
0.5
100
AcDbArc
 50
183.826224514538
 51
292.0792034024934
  0
ARC
  5
404
330
6F
100
AcDbEntity
  8
LOUVER
  6
Continuous
100
AcDbCircle
 10
620.5944242949406
 20
434.0915635717641
 30
0.0
 40
0.5
100
AcDbArc
 50
247.9207965992213
 51
356.1737754853984
  0
LINE
  5
405
330
6F
100
AcDbEntity
  8
LOUVER
  6
Continuous
100
AcDbLine
 10
212.7273721244616
 20
401.7555691123011
 30
0.0
 11
212.7273721244616
 21
450.7555691123008
 31
0.0
  0
LINE
  5
406
330
6F
100
AcDbEntity
  8
LOUVER
  6
Continuous
100
AcDbLine
 10
215.2273721246058
 20
410.5555691122845
 30
0.0
 11
213.9273721244617
 21
410.5555691122845
 31
0.0
  0
LINE
  5
407
330
6F
100
AcDbEntity
  8
LOUVER
  6
Continuous
100
AcDbLine
 10
214.5273721244072
 20
401.7555691123008
 30
0.0
 11
214.5273721244061
 21
406.7555691119888
 31
0.0
  0
LINE
  5
408
330
6F
100
AcDbEntity
  8
LOUVER
  6
Continuous
100
AcDbLine
 10
214.52737212441
 20
401.7555691123011
 30
0.0
 11
212.7273721244616
 21
401.7555691123011
 31
0.0
  0
LINE
  5
409
330
6F
100
AcDbEntity
  8
LOUVER
  6
Continuous
100
AcDbLine
 10
213.9273721244617
 20
415.7555691123021
 30
0.0
 11
218.0273721244618
 21
415.7555691123032
 31
0.0
  0
LINE
  5
40A
330
6F
100
AcDbEntity
  8
LOUVER
  6
Continuous
100
AcDbLine
 10
218.0273721244616
 20
415.7555691123031
 30
0.0
 11
218.0273721244616
 21
416.9555691123028
 31
0.0
  0
LINE
  5
40B
330
6F
100
AcDbEntity
  8
LOUVER
  6
Continuous
100
AcDbLine
 10
213.9273721244617
 20
416.9555691123019
 30
0.0
 11
218.0273721244614
 21
416.9555691123031
 31
0.0
  0
LINE
  5
40C
330
6F
100
AcDbEntity
  8
LOUVER
  6
Continuous
100
AcDbLine
 10
213.9273721244617
 20
410.5555691122845
 30
0.0
 11
213.9273721244617
 21
415.7555691123016
 31
0.0
  0
LINE
  5
40D
330
6F
100
AcDbEntity
  8
LOUVER
  6
Continuous
100
AcDbLine
 10
213.9273721244617
 20
435.7555691118544
 30
0.0
 11
213.9273721244617
 21
449.555569112301
 31
0.0
  0
LINE
  5
40E
330
6F
100
AcDbEntity
  8
LOUVER
  6
Continuous
100
AcDbLine
 10
242.7273721244616
 20
401.7555691123011
 30
0.0
 11
242.7273721244616
 21
450.7555691123008
 31
0.0
  0
LINE
  5
40F
330
6F
100
AcDbEntity
  8
LOUVER
  6
Continuous
100
AcDbLine
 10
240.2273721243175
 20
410.5555691122845
 30
0.0
 11
241.5273721244616
 21
410.5555691122845
 31
0.0
  0
LINE
  5
410
330
6F
100
AcDbEntity
  8
LOUVER
  6
Continuous
100
AcDbLine
 10
240.9273721245161
 20
401.7555691123011
 30
0.0
 11
240.9273721245172
 21
406.7555691119888
 31
0.0
  0
LINE
  5
411
330
6F
100
AcDbEntity
  8
LOUVER
  6
Continuous
100
AcDbLine
 10
240.9273721245131
 20
401.7555691123011
 30
0.0
 11
242.7273721244616
 21
401.7555691123011
 31
0.0
  0
LINE
  5
412
330
6F
100
AcDbEntity
  8
LOUVER
  6
Continuous
100
AcDbLine
 10
241.5273721244616
 20
415.7555691123015
 30
0.0
 11
237.4273721244614
 21
415.7555691123026
 31
0.0
  0
LINE
  5
413
330
6F
100
AcDbEntity
  8
LOUVER
  6
Continuous
100
AcDbLine
 10
237.4273721244614
 20
415.7555691123031
 30
0.0
 11
237.4273721244614
 21
416.9555691123028
 31
0.0
  0
LINE
  5
414
330
6F
100
AcDbEntity
  8
LOUVER
  6
Continuous
100
AcDbLine
 10
241.5273721244615
 20
416.9555691123013
 30
0.0
 11
237.4273721244618
 21
416.9555691123028
 31
0.0
  0
LINE
  5
415
330
6F
100
AcDbEntity
  8
LOUVER
  6
Continuous
100
AcDbLine
 10
241.5273721244616
 20
410.5555691122845
 30
0.0
 11
241.5273721244616
 21
415.7555691123016
 31
0.0
  0
LINE
  5
416
330
6F
100
AcDbEntity
  8
LOUVER
  6
Continuous
100
AcDbLine
 10
241.5273721244616
 20
435.7555691118796
 30
0.0
 11
241.5273721244616
 21
449.555569112301
 31
0.0
  0
LINE
  5
417
330
6F
100
AcDbEntity
  8
LOUVER
  6
Continuous
100
AcDbLine
 10
212.7273721244616
 20
450.7555691123008
 30
0.0
 11
242.7273721244616
 21
450.7555691123008
 31
0.0
  0
LINE
  5
418
330
6F
100
AcDbEntity
  8
LOUVER
  6
Continuous
100
AcDbLine
 10
213.9273721244617
 20
449.555569112301
 30
0.0
 11
241.5273721244616
 21
449.555569112301
 31
0.0
  0
ARC
  5
419
330
6F
100
AcDbEntity
  8
LOUVER
  6
Continuous
100
AcDbCircle
 10
215.227372124606
 20
410.3555691122847
 30
0.0
 40
0.2
100
AcDbArc
 50
345.8703295024392
 51
90.0
  0
ARC
  5
41A
330
6F
100
AcDbEntity
  8
LOUVER
  6
Continuous
100
AcDbCircle
 10
240.2273721243175
 20
410.3555691122847
 30
0.0
 40
0.2
100
AcDbArc
 50
90.0
 51
194.1296704975569
  0
LINE
  5
41B
330
6F
100
AcDbEntity
  8
LOUVER
  6
Continuous
100
AcDbLine
 10
241.5273721244616
 20
435.7555691118783
 30
0.0
 11
241.0794542128914
 21
429.0581982761194
 31
0.0
  0
LINE
  5
41C
330
6F
100
AcDbEntity
  8
LOUVER
  6
Continuous
100
AcDbLine
 10
241.0885953745711
 20
422.463195012942
 30
0.0
 11
241.5273721244615
 21
416.955569112302
 31
0.0
  0
LINE
  5
41D
330
6F
100
AcDbEntity
  8
LOUVER
  6
Continuous
100
AcDbLine
 10
213.9273721243657
 20
435.7555691118938
 30
0.0
 11
214.3752900359286
 21
429.0581982761343
 31
0.0
  0
LINE
  5
41E
330
6F
100
AcDbEntity
  8
LOUVER
  6
Continuous
100
AcDbLine
 10
214.3661488742417
 20
422.4631950129568
 30
0.0
 11
213.9273721243452
 21
416.9555691123171
 31
0.0
  0
LINE
  5
41F
330
6F
100
AcDbEntity
  8
LOUVER
  6
Continuous
100
AcDbLine
 10
240.0334229783714
 20
410.3067456672331
 30
0.0
 11
240.9273721245172
 21
406.7555691119891
 31
0.0
  0
LINE
  5
420
330
6F
100
AcDbEntity
  8
LOUVER
  6
Continuous
100
AcDbLine
 10
215.4213212705521
 20
410.3067456672329
 30
0.0
 11
214.5273721244061
 21
406.7555691119888
 31
0.0
  0
ARC
  5
421
330
6F
100
AcDbEntity
  8
LOUVER
  6
Continuous
100
AcDbCircle
 10
216.2273721244644
 20
425.7555691123007
 30
0.0
 40
2.1
100
AcDbArc
 50
261.042328421765
 51
278.9576715807842
  0
ARC
  5
422
330
6F
100
AcDbEntity
  8
LOUVER
  6
Continuous
100
AcDbCircle
 10
216.2273721244644
 20
425.7555691123007
 30
0.0
 40
1.8
100
AcDbArc
 50
290.3599951900864
 51
312.7186445082694
  0
ARC
  5
423
330
6F
100
AcDbEntity
  8
LOUVER
  6
Continuous
100
AcDbCircle
 10
216.5232111449474
 20
423.8787421959446
 30
0.0
 40
0.2
100
AcDbArc
 50
278.9576715807859
 51
359.9999999998204
  0
ARC
  5
424
330
6F
100
AcDbEntity
  8
LOUVER
  6
Continuous
100
AcDbCircle
 10
215.9315331040644
 20
423.8787421959314
 30
0.0
 40
0.2
100
AcDbArc
 50
179.9999999998205
 51
261.0423284217637
  0
ARC
  5
425
330
6F
100
AcDbEntity
  8
LOUVER
  6
Continuous
100
AcDbCircle
 10
215.5315370496346
 20
423.8805188333386
 30
0.0
 40
0.2
100
AcDbArc
 50
359.9999999998204
 51
69.64000481246078
  0
ARC
  5
426
330
6F
100
AcDbEntity
  8
LOUVER
  6
Continuous
100
AcDbCircle
 10
216.9232071993772
 20
423.8805188333695
 30
0.0
 40
0.2
100
AcDbArc
 50
110.3599951900913
 51
179.9999999998203
  0
ARC
  5
427
330
6F
100
AcDbEntity
  8
LOUVER
  6
Continuous
100
AcDbCircle
 10
217.8894491381317
 20
423.9555691121236
 30
0.0
 40
0.6500000000000014
100
AcDbArc
 50
312.7186445082704
 51
132.7186445082704
  0
ARC
  5
428
330
6F
100
AcDbEntity
  8
LOUVER
  6
Continuous
100
AcDbCircle
 10
216.2273721244644
 20
425.7555691123007
 30
0.0
 40
1.8
100
AcDbArc
 50
200.3599951900866
 51
249.6400048124626
  0
ARC
  5
429
330
6F
100
AcDbEntity
  8
LOUVER
  6
Continuous
100
AcDbCircle
 10
216.2273721244644
 20
425.7555691123007
 30
0.0
 40
1.8
100
AcDbArc
 50
47.28135547309493
 51
69.64000481246273
  0
ARC
  5
42A
330
6F
100
AcDbEntity
  8
LOUVER
  6
Continuous
100
AcDbCircle
 10
216.2273721244644
 20
425.7555691123007
 30
0.0
 40
1.8
100
AcDbArc
 50
110.3599951900864
 51
159.6400048124626
  0
ARC
  5
42B
330
6F
100
AcDbEntity
  8
LOUVER
  6
Continuous
100
AcDbCircle
 10
217.8894491387172
 20
427.5555691119373
 30
0.0
 40
0.6500000000000048
100
AcDbArc
 50
227.2813554730933
 51
47.28135547309318
  0
ARC
  5
42C
330
6F
100
AcDbEntity
  8
LOUVER
  6
Continuous
100
AcDbCircle
 10
216.2273721244644
 20
425.7555691123007
 30
0.0
 40
3.1
100
AcDbArc
 50
47.28135547309421
 51
112.0792034024934
  0
ARC
  5
42D
330
6F
100
AcDbEntity
  8
LOUVER
  6
Continuous
100
AcDbCircle
 10
216.2273721244644
 20
425.7555691123007
 30
0.0
 40
3.1
100
AcDbArc
 50
247.7557187654122
 51
312.7186445082699
  0
LINE
  5
42E
330
6F
100
AcDbEntity
  8
LOUVER
  6
Continuous
100
AcDbLine
 10
216.723207199377
 20
423.8805188333701
 30
0.0
 11
216.7232111449471
 21
423.8787421959438
 31
0.0
  0
LINE
  5
42F
330
6F
100
AcDbEntity
  8
LOUVER
  6
Continuous
100
AcDbLine
 10
215.7315370496349
 20
423.8805188333377
 30
0.0
 11
215.7315331040649
 21
423.878742195932
 31
0.0
  0
ARC
  5
430
330
6F
100
AcDbEntity
  8
LOUVER
  6
Continuous
100
AcDbCircle
 10
214.3505452081078
 20
425.4597300918177
 30
0.0
 40
0.2
100
AcDbArc
 50
188.9576715807859
 51
269.9999999998206
  0
ARC
  5
431
330
6F
100
AcDbEntity
  8
LOUVER
  6
Continuous
100
AcDbCircle
 10
214.3505452080946
 20
426.0514081327005
 30
0.0
 40
0.2
100
AcDbArc
 50
89.99999999982035
 51
171.0423284217637
  0
ARC
  5
432
330
6F
100
AcDbEntity
  8
LOUVER
  6
Continuous
100
AcDbCircle
 10
214.3523218455018
 20
426.4514041871303
 30
0.0
 40
0.2
100
AcDbArc
 50
269.9999999998204
 51
339.6400048124608
  0
ARC
  5
433
330
6F
100
AcDbEntity
  8
LOUVER
  6
Continuous
100
AcDbCircle
 10
214.3523218455327
 20
425.0597340373878
 30
0.0
 40
0.2
100
AcDbArc
 50
20.35999519009138
 51
89.99999999982035
  0
LINE
  5
434
330
6F
100
AcDbEntity
  8
LOUVER
  6
Continuous
100
AcDbLine
 10
214.3523218455333
 20
425.2597340373885
 30
0.0
 11
214.3505452081072
 21
425.2597300918183
 31
0.0
  0
LINE
  5
435
330
6F
100
AcDbEntity
  8
LOUVER
  6
Continuous
100
AcDbLine
 10
214.3523218455012
 20
426.2514041871306
 30
0.0
 11
214.3505452080953
 21
426.2514081327006
 31
0.0
  0
ARC
  5
436
330
6F
100
AcDbEntity
  8
LOUVER
  6
Continuous
100
AcDbCircle
 10
216.2273721244644
 20
425.7555691123007
 30
0.0
 40
2.1
100
AcDbArc
 50
81.04232842176505
 51
98.95767158078427
  0
ARC
  5
437
330
6F
100
AcDbEntity
  8
LOUVER
  6
Continuous
100
AcDbCircle
 10
215.9315331039811
 20
427.6323960286571
 30
0.0
 40
0.2
100
AcDbArc
 50
98.95767158078593
 51
179.9999999998203
  0
ARC
  5
438
330
6F
100
AcDbEntity
  8
LOUVER
  6
Continuous
100
AcDbCircle
 10
216.523211144864
 20
427.6323960286704
 30
0.0
 40
0.2
100
AcDbArc
 50
359.9999999998204
 51
81.04232842176369
  0
ARC
  5
439
330
6F
100
AcDbEntity
  8
LOUVER
  6
Continuous
100
AcDbCircle
 10
216.9232071992939
 20
427.6306193912632
 30
0.0
 40
0.2
100
AcDbArc
 50
179.9999999998205
 51
249.6400048124609
  0
ARC
  5
43A
330
6F
100
AcDbEntity
  8
LOUVER
  6
Continuous
100
AcDbCircle
 10
215.5315370495513
 20
427.6306193912323
 30
0.0
 40
0.2
100
AcDbArc
 50
290.3599951900913
 51
359.9999999998204
  0
LINE
  5
43B
330
6F
100
AcDbEntity
  8
LOUVER
  6
Continuous
100
AcDbLine
 10
215.7315370495513
 20
427.6306193912313
 30
0.0
 11
215.7315331039812
 21
427.6323960286575
 31
0.0
  0
LINE
  5
43C
330
6F
100
AcDbEntity
  8
LOUVER
  6
Continuous
100
AcDbLine
 10
216.7232071992943
 20
427.6306193912637
 30
0.0
 11
216.7232111448643
 21
427.6323960286696
 31
0.0
  0
ARC
  5
43D
330
6F
100
AcDbEntity
  8
LOUVER
  6
Continuous
100
AcDbCircle
 10
216.2273721244641
 20
425.7555691123007
 30
0.0
 40
2.1
100
AcDbArc
 50
171.0423284217649
 51
188.9576715807843
  0
ARC
  5
43E
330
6F
100
AcDbEntity
  8
LOUVER
  6
Continuous
100
AcDbCircle
 10
239.2273721244591
 20
425.7555691123007
 30
0.0
 40
2.1
100
AcDbArc
 50
81.042328421765
 51
98.95767158078422
  0
ARC
  5
43F
330
6F
100
AcDbEntity
  8
LOUVER
  6
Continuous
100
AcDbCircle
 10
239.2273721244591
 20
425.7555691123007
 30
0.0
 40
1.8
100
AcDbArc
 50
110.3599951900863
 51
132.7186445082694
  0
ARC
  5
440
330
6F
100
AcDbEntity
  8
LOUVER
  6
Continuous
100
AcDbCircle
 10
238.9315331039761
 20
427.6323960286571
 30
0.0
 40
0.2
100
AcDbArc
 50
98.95767158078587
 51
179.9999999998204
  0
ARC
  5
441
330
6F
100
AcDbEntity
  8
LOUVER
  6
Continuous
100
AcDbCircle
 10
239.523211144859
 20
427.6323960286704
 30
0.0
 40
0.2
100
AcDbArc
 50
359.9999999998204
 51
81.04232842176369
  0
ARC
  5
442
330
6F
100
AcDbEntity
  8
LOUVER
  6
Continuous
100
AcDbCircle
 10
239.9232071992889
 20
427.6306193912632
 30
0.0
 40
0.2
100
AcDbArc
 50
179.9999999998204
 51
249.6400048124609
  0
ARC
  5
443
330
6F
100
AcDbEntity
  8
LOUVER
  6
Continuous
100
AcDbCircle
 10
238.5315370495463
 20
427.6306193912323
 30
0.0
 40
0.2
100
AcDbArc
 50
290.3599951900913
 51
359.9999999998203
  0
ARC
  5
444
330
6F
100
AcDbEntity
  8
LOUVER
  6
Continuous
100
AcDbCircle
 10
237.5652951107917
 20
427.5555691124782
 30
0.0
 40
0.6500000000000014
100
AcDbArc
 50
132.7186445082704
 51
312.7186445082705
  0
ARC
  5
445
330
6F
100
AcDbEntity
  8
LOUVER
  6
Continuous
100
AcDbCircle
 10
239.2273721244591
 20
425.7555691123007
 30
0.0
 40
1.8
100
AcDbArc
 50
20.3599951900866
 51
69.64000481246265
  0
ARC
  5
446
330
6F
100
AcDbEntity
  8
LOUVER
  6
Continuous
100
AcDbCircle
 10
239.2273721244591
 20
425.7555691123007
 30
0.0
 40
1.8
100
AcDbArc
 50
227.281355473095
 51
249.6400048124627
  0
ARC
  5
447
330
6F
100
AcDbEntity
  8
LOUVER
  6
Continuous
100
AcDbCircle
 10
239.2273721244591
 20
425.7555691123007
 30
0.0
 40
1.8
100
AcDbArc
 50
290.3599951900864
 51
339.6400048124627
  0
ARC
  5
448
330
6F
100
AcDbEntity
  8
LOUVER
  6
Continuous
100
AcDbCircle
 10
237.5652951102063
 20
423.9555691126644
 30
0.0
 40
0.6500000000000048
100
AcDbArc
 50
47.28135547309326
 51
227.2813554730932
  0
ARC
  5
449
330
6F
100
AcDbEntity
  8
LOUVER
  6
Continuous
100
AcDbCircle
 10
239.2273721244591
 20
425.7555691123007
 30
0.0
 40
3.1
100
AcDbArc
 50
227.2813554730942
 51
292.2442812327245
  0
ARC
  5
44A
330
6F
100
AcDbEntity
  8
LOUVER
  6
Continuous
100
AcDbCircle
 10
239.2273721244591
 20
425.7555691123007
 30
0.0
 40
3.1
100
AcDbArc
 50
67.9207965992203
 51
132.7186445082699
  0
LINE
  5
44B
330
6F
100
AcDbEntity
  8
LOUVER
  6
Continuous
100
AcDbLine
 10
238.7315370495461
 20
427.6306193912313
 30
0.0
 11
238.731533103976
 21
427.6323960286577
 31
0.0
  0
LINE
  5
44C
330
6F
100
AcDbEntity
  8
LOUVER
  6
Continuous
100
AcDbLine
 10
239.7232071992886
 20
427.6306193912637
 30
0.0
 11
239.7232111448586
 21
427.6323960286696
 31
0.0
  0
ARC
  5
44D
330
6F
100
AcDbEntity
  8
LOUVER
  6
Continuous
100
AcDbCircle
 10
241.1041990408157
 20
426.051408132784
 30
0.0
 40
0.2
100
AcDbArc
 50
8.957671580785904
 51
89.99999999982046
  0
ARC
  5
44E
330
6F
100
AcDbEntity
  8
LOUVER
  6
Continuous
100
AcDbCircle
 10
241.1041990408289
 20
425.4597300919013
 30
0.0
 40
0.2
100
AcDbArc
 50
269.9999999998204
 51
351.0423284217637
  0
ARC
  5
44F
330
6F
100
AcDbEntity
  8
LOUVER
  6
Continuous
100
AcDbCircle
 10
241.1024224034217
 20
425.0597340374713
 30
0.0
 40
0.2
100
AcDbArc
 50
89.99999999982042
 51
159.6400048124608
  0
ARC
  5
450
330
6F
100
AcDbEntity
  8
LOUVER
  6
Continuous
100
AcDbCircle
 10
241.1024224033908
 20
426.4514041872137
 30
0.0
 40
0.2
100
AcDbArc
 50
200.3599951900914
 51
269.9999999998204
  0
LINE
  5
451
330
6F
100
AcDbEntity
  8
LOUVER
  6
Continuous
100
AcDbLine
 10
241.1024224033903
 20
426.2514041872138
 30
0.0
 11
241.1041990408164
 21
426.2514081327839
 31
0.0
  0
LINE
  5
452
330
6F
100
AcDbEntity
  8
LOUVER
  6
Continuous
100
AcDbLine
 10
241.1024224034224
 20
425.2597340374713
 30
0.0
 11
241.1041990408282
 21
425.2597300919013
 31
0.0
  0
ARC
  5
453
330
6F
100
AcDbEntity
  8
LOUVER
  6
Continuous
100
AcDbCircle
 10
239.2273721244591
 20
425.7555691123007
 30
0.0
 40
2.1
100
AcDbArc
 50
261.042328421765
 51
278.9576715807843
  0
ARC
  5
454
330
6F
100
AcDbEntity
  8
LOUVER
  6
Continuous
100
AcDbCircle
 10
239.5232111449424
 20
423.8787421959446
 30
0.0
 40
0.2
100
AcDbArc
 50
278.9576715807859
 51
359.9999999998203
  0
ARC
  5
455
330
6F
100
AcDbEntity
  8
LOUVER
  6
Continuous
100
AcDbCircle
 10
238.9315331040595
 20
423.8787421959314
 30
0.0
 40
0.2
100
AcDbArc
 50
179.9999999998204
 51
261.0423284217637
  0
ARC
  5
456
330
6F
100
AcDbEntity
  8
LOUVER
  6
Continuous
100
AcDbCircle
 10
238.5315370496296
 20
423.8805188333386
 30
0.0
 40
0.2
100
AcDbArc
 50
359.9999999998204
 51
69.64000481246078
  0
ARC
  5
457
330
6F
100
AcDbEntity
  8
LOUVER
  6
Continuous
100
AcDbCircle
 10
239.9232071993721
 20
423.8805188333695
 30
0.0
 40
0.2
100
AcDbArc
 50
110.3599951900913
 51
179.9999999998204
  0
LINE
  5
458
330
6F
100
AcDbEntity
  8
LOUVER
  6
Continuous
100
AcDbLine
 10
239.7232071993724
 20
423.8805188333701
 30
0.0
 11
239.7232111449425
 21
423.878742195944
 31
0.0
  0
LINE
  5
459
330
6F
100
AcDbEntity
  8
LOUVER
  6
Continuous
100
AcDbLine
 10
238.7315370496294
 20
423.8805188333377
 30
0.0
 11
238.7315331040593
 21
423.8787421959316
 31
0.0
  0
ARC
  5
45A
330
6F
100
AcDbEntity
  8
LOUVER
  6
Continuous
100
AcDbCircle
 10
239.2273721244594
 20
425.7555691123007
 30
0.0
 40
2.1
100
AcDbArc
 50
351.0423284217648
 51
8.95767158078419
  0
ARC
  5
45B
330
6F
100
AcDbEntity
  8
LOUVER
  6
Continuous
100
AcDbCircle
 10
240.5901745742348
 20
422.4234872581313
 30
0.0
 40
0.5
100
AcDbArc
 50
4.554970011039097
 51
112.2442812327232
  0
ARC
  5
45C
330
6F
100
AcDbEntity
  8
LOUVER
  6
Continuous
100
AcDbCircle
 10
214.8645696745802
 20
422.4234872581758
 30
0.0
 40
0.5
100
AcDbArc
 50
67.75571876541217
 51
175.445029988897
  0
ARC
  5
45D
330
6F
100
AcDbEntity
  8
LOUVER
  6
Continuous
100
AcDbCircle
 10
214.874175550902
 20
429.0915635717237
 30
0.0
 40
0.5
100
AcDbArc
 50
183.826224514538
 51
292.0792034024934
  0
ARC
  5
45E
330
6F
100
AcDbEntity
  8
LOUVER
  6
Continuous
100
AcDbCircle
 10
240.5805686979217
 20
429.0915635717643
 30
0.0
 40
0.5
100
AcDbArc
 50
247.9207965992213
 51
356.1737754853984
  0
LINE
  5
45F
330
6F
100
AcDbEntity
  8
LOUVER
  6
Continuous
100
AcDbLine
 10
212.7273721230138
 20
149.3364496096257
 30
0.0
 11
212.7273721230138
 21
198.3364496096255
 31
0.0
  0
LINE
  5
460
330
6F
100
AcDbEntity
  8
LOUVER
  6
Continuous
100
AcDbLine
 10
215.2273721231579
 20
158.1364496096093
 30
0.0
 11
213.9273721230138
 21
158.1364496096093
 31
0.0
  0
LINE
  5
461
330
6F
100
AcDbEntity
  8
LOUVER
  6
Continuous
100
AcDbLine
 10
214.5273721229594
 20
149.3364496096254
 30
0.0
 11
214.5273721229582
 21
154.3364496093134
 31
0.0
  0
LINE
  5
462
330
6F
100
AcDbEntity
  8
LOUVER
  6
Continuous
100
AcDbLine
 10
214.5273721229621
 20
149.3364496096257
 30
0.0
 11
212.7273721230138
 21
149.3364496096257
 31
0.0
  0
LINE
  5
463
330
6F
100
AcDbEntity
  8
LOUVER
  6
Continuous
100
AcDbLine
 10
213.9273721230138
 20
163.3364496096266
 30
0.0
 11
218.027372123014
 21
163.336449609628
 31
0.0
  0
LINE
  5
464
330
6F
100
AcDbEntity
  8
LOUVER
  6
Continuous
100
AcDbLine
 10
218.0273721230137
 20
163.3364496096278
 30
0.0
 11
218.0273721230137
 21
164.5364496096276
 31
0.0
  0
LINE
  5
465
330
6F
100
AcDbEntity
  8
LOUVER
  6
Continuous
100
AcDbLine
 10
213.9273721230139
 20
164.5364496096264
 30
0.0
 11
218.0273721230136
 21
164.5364496096278
 31
0.0
  0
LINE
  5
466
330
6F
100
AcDbEntity
  8
LOUVER
  6
Continuous
100
AcDbLine
 10
213.9273721230138
 20
158.1364496096093
 30
0.0
 11
213.9273721230138
 21
163.3364496096264
 31
0.0
  0
LINE
  5
467
330
6F
100
AcDbEntity
  8
LOUVER
  6
Continuous
100
AcDbLine
 10
213.9273721230138
 20
183.3364496091789
 30
0.0
 11
213.9273721230138
 21
197.1364496096257
 31
0.0
  0
LINE
  5
468
330
6F
100
AcDbEntity
  8
LOUVER
  6
Continuous
100
AcDbLine
 10
242.7273721230138
 20
149.3364496096257
 30
0.0
 11
242.7273721230138
 21
198.3364496096255
 31
0.0
  0
LINE
  5
469
330
6F
100
AcDbEntity
  8
LOUVER
  6
Continuous
100
AcDbLine
 10
240.2273721228696
 20
158.1364496096093
 30
0.0
 11
241.5273721230137
 21
158.1364496096093
 31
0.0
  0
LINE
  5
46A
330
6F
100
AcDbEntity
  8
LOUVER
  6
Continuous
100
AcDbLine
 10
240.9273721230682
 20
149.3364496096257
 30
0.0
 11
240.9273721230693
 21
154.3364496093135
 31
0.0
  0
LINE
  5
46B
330
6F
100
AcDbEntity
  8
LOUVER
  6
Continuous
100
AcDbLine
 10
240.9273721230652
 20
149.3364496096257
 30
0.0
 11
242.7273721230138
 21
149.3364496096257
 31
0.0
  0
LINE
  5
46C
330
6F
100
AcDbEntity
  8
LOUVER
  6
Continuous
100
AcDbLine
 10
241.5273721230137
 20
163.336449609626
 30
0.0
 11
237.4273721230136
 21
163.3364496096274
 31
0.0
  0
LINE
  5
46D
330
6F
100
AcDbEntity
  8
LOUVER
  6
Continuous
100
AcDbLine
 10
237.4273721230136
 20
163.3364496096278
 30
0.0
 11
237.4273721230136
 21
164.5364496096276
 31
0.0
  0
LINE
  5
46E
330
6F
100
AcDbEntity
  8
LOUVER
  6
Continuous
100
AcDbLine
 10
241.5273721230136
 20
164.5364496096261
 30
0.0
 11
237.427372123014
 21
164.5364496096274
 31
0.0
  0
LINE
  5
46F
330
6F
100
AcDbEntity
  8
LOUVER
  6
Continuous
100
AcDbLine
 10
241.5273721230137
 20
158.1364496096093
 30
0.0
 11
241.5273721230137
 21
163.3364496096264
 31
0.0
  0
LINE
  5
470
330
6F
100
AcDbEntity
  8
LOUVER
  6
Continuous
100
AcDbLine
 10
241.5273721230137
 20
183.3364496092042
 30
0.0
 11
241.5273721230137
 21
197.1364496096257
 31
0.0
  0
LINE
  5
471
330
6F
100
AcDbEntity
  8
LOUVER
  6
Continuous
100
AcDbLine
 10
212.7273721230138
 20
198.3364496096255
 30
0.0
 11
242.7273721230138
 21
198.3364496096255
 31
0.0
  0
LINE
  5
472
330
6F
100
AcDbEntity
  8
LOUVER
  6
Continuous
100
AcDbLine
 10
213.9273721230138
 20
197.1364496096257
 30
0.0
 11
241.5273721230137
 21
197.1364496096257
 31
0.0
  0
ARC
  5
473
330
6F
100
AcDbEntity
  8
LOUVER
  6
Continuous
100
AcDbCircle
 10
215.2273721231582
 20
157.9364496096095
 30
0.0
 40
0.2
100
AcDbArc
 50
345.8703295024392
 51
90.0
  0
ARC
  5
474
330
6F
100
AcDbEntity
  8
LOUVER
  6
Continuous
100
AcDbCircle
 10
240.2273721228696
 20
157.9364496096095
 30
0.0
 40
0.2
100
AcDbArc
 50
90.0
 51
194.1296704975569
  0
LINE
  5
475
330
6F
100
AcDbEntity
  8
LOUVER
  6
Continuous
100
AcDbLine
 10
241.5273721230139
 20
183.336449609203
 30
0.0
 11
241.0794542114435
 21
176.6390787734439
 31
0.0
  0
LINE
  5
476
330
6F
100
AcDbEntity
  8
LOUVER
  6
Continuous
100
AcDbLine
 10
241.0885953731232
 20
170.0440755102666
 30
0.0
 11
241.5273721230136
 21
164.5364496096266
 31
0.0
  0
LINE
  5
477
330
6F
100
AcDbEntity
  8
LOUVER
  6
Continuous
100
AcDbLine
 10
213.9273721229178
 20
183.3364496092185
 30
0.0
 11
214.3752900344807
 21
176.6390787734589
 31
0.0
  0
LINE
  5
478
330
6F
100
AcDbEntity
  8
LOUVER
  6
Continuous
100
AcDbLine
 10
214.3661488727938
 20
170.0440755102814
 30
0.0
 11
213.9273721228973
 21
164.5364496096419
 31
0.0
  0
LINE
  5
479
330
6F
100
AcDbEntity
  8
LOUVER
  6
Continuous
100
AcDbLine
 10
240.0334229769235
 20
157.8876261645576
 30
0.0
 11
240.9273721230693
 21
154.3364496093137
 31
0.0
  0
LINE
  5
47A
330
6F
100
AcDbEntity
  8
LOUVER
  6
Continuous
100
AcDbLine
 10
215.4213212691042
 20
157.8876261645576
 30
0.0
 11
214.5273721229582
 21
154.3364496093135
 31
0.0
  0
ARC
  5
47B
330
6F
100
AcDbEntity
  8
LOUVER
  6
Continuous
100
AcDbCircle
 10
216.2273721230165
 20
173.3364496096255
 30
0.0
 40
2.1
100
AcDbArc
 50
261.042328421765
 51
278.9576715807842
  0
ARC
  5
47C
330
6F
100
AcDbEntity
  8
LOUVER
  6
Continuous
100
AcDbCircle
 10
216.2273721230165
 20
173.3364496096255
 30
0.0
 40
1.8
100
AcDbArc
 50
290.3599951900864
 51
312.7186445082694
  0
ARC
  5
47D
330
6F
100
AcDbEntity
  8
LOUVER
  6
Continuous
100
AcDbCircle
 10
216.5232111434996
 20
171.4596226932691
 30
0.0
 40
0.2
100
AcDbArc
 50
278.9576715807859
 51
359.9999999998204
  0
ARC
  5
47E
330
6F
100
AcDbEntity
  8
LOUVER
  6
Continuous
100
AcDbCircle
 10
215.9315331026166
 20
171.459622693256
 30
0.0
 40
0.2
100
AcDbArc
 50
179.9999999998205
 51
261.0423284217637
  0
ARC
  5
47F
330
6F
100
AcDbEntity
  8
LOUVER
  6
Continuous
100
AcDbCircle
 10
215.5315370481867
 20
171.4613993306631
 30
0.0
 40
0.2
100
AcDbArc
 50
359.9999999998204
 51
69.64000481246078
  0
ARC
  5
480
330
6F
100
AcDbEntity
  8
LOUVER
  6
Continuous
100
AcDbCircle
 10
216.9232071979293
 20
171.461399330694
 30
0.0
 40
0.2
100
AcDbArc
 50
110.3599951900913
 51
179.9999999998203
  0
ARC
  5
481
330
6F
100
AcDbEntity
  8
LOUVER
  6
Continuous
100
AcDbCircle
 10
217.8894491366839
 20
171.5364496094482
 30
0.0
 40
0.6500000000000014
100
AcDbArc
 50
312.7186445082704
 51
132.7186445082704
  0
ARC
  5
482
330
6F
100
AcDbEntity
  8
LOUVER
  6
Continuous
100
AcDbCircle
 10
216.2273721230165
 20
173.3364496096255
 30
0.0
 40
1.8
100
AcDbArc
 50
200.3599951900866
 51
249.6400048124626
  0
ARC
  5
483
330
6F
100
AcDbEntity
  8
LOUVER
  6
Continuous
100
AcDbCircle
 10
216.2273721230165
 20
173.3364496096255
 30
0.0
 40
1.8
100
AcDbArc
 50
47.28135547309493
 51
69.64000481246273
  0
ARC
  5
484
330
6F
100
AcDbEntity
  8
LOUVER
  6
Continuous
100
AcDbCircle
 10
216.2273721230165
 20
173.3364496096255
 30
0.0
 40
1.8
100
AcDbArc
 50
110.3599951900864
 51
159.6400048124626
  0
ARC
  5
485
330
6F
100
AcDbEntity
  8
LOUVER
  6
Continuous
100
AcDbCircle
 10
217.8894491372694
 20
175.1364496092621
 30
0.0
 40
0.6500000000000048
100
AcDbArc
 50
227.2813554730933
 51
47.28135547309318
  0
ARC
  5
486
330
6F
100
AcDbEntity
  8
LOUVER
  6
Continuous
100
AcDbCircle
 10
216.2273721230165
 20
173.3364496096255
 30
0.0
 40
3.1
100
AcDbArc
 50
47.28135547309421
 51
112.0792034024934
  0
ARC
  5
487
330
6F
100
AcDbEntity
  8
LOUVER
  6
Continuous
100
AcDbCircle
 10
216.2273721230165
 20
173.3364496096255
 30
0.0
 40
3.1
100
AcDbArc
 50
247.7557187654122
 51
312.7186445082699
  0
LINE
  5
488
330
6F
100
AcDbEntity
  8
LOUVER
  6
Continuous
100
AcDbLine
 10
216.7232071979291
 20
171.4613993306947
 30
0.0
 11
216.7232111434992
 21
171.4596226932684
 31
0.0
  0
LINE
  5
489
330
6F
100
AcDbEntity
  8
LOUVER
  6
Continuous
100
AcDbLine
 10
215.731537048187
 20
171.4613993306624
 30
0.0
 11
215.731533102617
 21
171.4596226932565
 31
0.0
  0
ARC
  5
48A
330
6F
100
AcDbEntity
  8
LOUVER
  6
Continuous
100
AcDbCircle
 10
214.3505452066599
 20
173.0406105891424
 30
0.0
 40
0.2
100
AcDbArc
 50
188.9576715807859
 51
269.9999999998206
  0
ARC
  5
48B
330
6F
100
AcDbEntity
  8
LOUVER
  6
Continuous
100
AcDbCircle
 10
214.3505452066468
 20
173.6322886300251
 30
0.0
 40
0.2
100
AcDbArc
 50
89.99999999982035
 51
171.0423284217637
  0
ARC
  5
48C
330
6F
100
AcDbEntity
  8
LOUVER
  6
Continuous
100
AcDbCircle
 10
214.3523218440539
 20
174.0322846844551
 30
0.0
 40
0.2
100
AcDbArc
 50
269.9999999998204
 51
339.6400048124608
  0
ARC
  5
48D
330
6F
100
AcDbEntity
  8
LOUVER
  6
Continuous
100
AcDbCircle
 10
214.3523218440848
 20
172.6406145347125
 30
0.0
 40
0.2
100
AcDbArc
 50
20.35999519009138
 51
89.99999999982035
  0
LINE
  5
48E
330
6F
100
AcDbEntity
  8
LOUVER
  6
Continuous
100
AcDbLine
 10
214.3523218440855
 20
172.8406145347129
 30
0.0
 11
214.3505452066594
 21
172.8406105891429
 31
0.0
  0
LINE
  5
48F
330
6F
100
AcDbEntity
  8
LOUVER
  6
Continuous
100
AcDbLine
 10
214.3523218440533
 20
173.8322846844553
 30
0.0
 11
214.3505452066474
 21
173.8322886300253
 31
0.0
  0
ARC
  5
490
330
6F
100
AcDbEntity
  8
LOUVER
  6
Continuous
100
AcDbCircle
 10
216.2273721230165
 20
173.3364496096255
 30
0.0
 40
2.1
100
AcDbArc
 50
81.04232842176505
 51
98.95767158078427
  0
ARC
  5
491
330
6F
100
AcDbEntity
  8
LOUVER
  6
Continuous
100
AcDbCircle
 10
215.9315331025332
 20
175.2132765259818
 30
0.0
 40
0.2
100
AcDbArc
 50
98.95767158078593
 51
179.9999999998203
  0
ARC
  5
492
330
6F
100
AcDbEntity
  8
LOUVER
  6
Continuous
100
AcDbCircle
 10
216.5232111434161
 20
175.213276525995
 30
0.0
 40
0.2
100
AcDbArc
 50
359.9999999998204
 51
81.04232842176369
  0
ARC
  5
493
330
6F
100
AcDbEntity
  8
LOUVER
  6
Continuous
100
AcDbCircle
 10
216.9232071978461
 20
175.2114998885878
 30
0.0
 40
0.2
100
AcDbArc
 50
179.9999999998205
 51
249.6400048124609
  0
ARC
  5
494
330
6F
100
AcDbEntity
  8
LOUVER
  6
Continuous
100
AcDbCircle
 10
215.5315370481035
 20
175.2114998885569
 30
0.0
 40
0.2
100
AcDbArc
 50
290.3599951900913
 51
359.9999999998204
  0
LINE
  5
495
330
6F
100
AcDbEntity
  8
LOUVER
  6
Continuous
100
AcDbLine
 10
215.7315370481034
 20
175.2114998885559
 30
0.0
 11
215.7315331025333
 21
175.2132765259821
 31
0.0
  0
LINE
  5
496
330
6F
100
AcDbEntity
  8
LOUVER
  6
Continuous
100
AcDbLine
 10
216.7232071978464
 20
175.2114998885885
 30
0.0
 11
216.7232111434165
 21
175.2132765259943
 31
0.0
  0
ARC
  5
497
330
6F
100
AcDbEntity
  8
LOUVER
  6
Continuous
100
AcDbCircle
 10
216.2273721230163
 20
173.3364496096255
 30
0.0
 40
2.1
100
AcDbArc
 50
171.0423284217649
 51
188.9576715807843
  0
ARC
  5
498
330
6F
100
AcDbEntity
  8
LOUVER
  6
Continuous
100
AcDbCircle
 10
239.2273721230113
 20
173.3364496096255
 30
0.0
 40
2.1
100
AcDbArc
 50
81.042328421765
 51
98.95767158078422
  0
ARC
  5
499
330
6F
100
AcDbEntity
  8
LOUVER
  6
Continuous
100
AcDbCircle
 10
239.2273721230113
 20
173.3364496096255
 30
0.0
 40
1.8
100
AcDbArc
 50
110.3599951900863
 51
132.7186445082694
  0
ARC
  5
49A
330
6F
100
AcDbEntity
  8
LOUVER
  6
Continuous
100
AcDbCircle
 10
238.9315331025282
 20
175.2132765259818
 30
0.0
 40
0.2
100
AcDbArc
 50
98.95767158078587
 51
179.9999999998204
  0
ARC
  5
49B
330
6F
100
AcDbEntity
  8
LOUVER
  6
Continuous
100
AcDbCircle
 10
239.5232111434111
 20
175.213276525995
 30
0.0
 40
0.2
100
AcDbArc
 50
359.9999999998204
 51
81.04232842176369
  0
ARC
  5
49C
330
6F
100
AcDbEntity
  8
LOUVER
  6
Continuous
100
AcDbCircle
 10
239.9232071978411
 20
175.2114998885878
 30
0.0
 40
0.2
100
AcDbArc
 50
179.9999999998204
 51
249.6400048124609
  0
ARC
  5
49D
330
6F
100
AcDbEntity
  8
LOUVER
  6
Continuous
100
AcDbCircle
 10
238.5315370480985
 20
175.2114998885569
 30
0.0
 40
0.2
100
AcDbArc
 50
290.3599951900913
 51
359.9999999998203
  0
ARC
  5
49E
330
6F
100
AcDbEntity
  8
LOUVER
  6
Continuous
100
AcDbCircle
 10
237.5652951093439
 20
175.1364496098028
 30
0.0
 40
0.6500000000000014
100
AcDbArc
 50
132.7186445082704
 51
312.7186445082705
  0
ARC
  5
49F
330
6F
100
AcDbEntity
  8
LOUVER
  6
Continuous
100
AcDbCircle
 10
239.2273721230113
 20
173.3364496096255
 30
0.0
 40
1.8
100
AcDbArc
 50
20.3599951900866
 51
69.64000481246265
  0
ARC
  5
4A0
330
6F
100
AcDbEntity
  8
LOUVER
  6
Continuous
100
AcDbCircle
 10
239.2273721230113
 20
173.3364496096255
 30
0.0
 40
1.8
100
AcDbArc
 50
227.281355473095
 51
249.6400048124627
  0
ARC
  5
4A1
330
6F
100
AcDbEntity
  8
LOUVER
  6
Continuous
100
AcDbCircle
 10
239.2273721230113
 20
173.3364496096255
 30
0.0
 40
1.8
100
AcDbArc
 50
290.3599951900864
 51
339.6400048124627
  0
ARC
  5
4A2
330
6F
100
AcDbEntity
  8
LOUVER
  6
Continuous
100
AcDbCircle
 10
237.5652951087584
 20
171.5364496099889
 30
0.0
 40
0.6500000000000048
100
AcDbArc
 50
47.28135547309326
 51
227.2813554730932
  0
ARC
  5
4A3
330
6F
100
AcDbEntity
  8
LOUVER
  6
Continuous
100
AcDbCircle
 10
239.2273721230113
 20
173.3364496096255
 30
0.0
 40
3.1
100
AcDbArc
 50
227.2813554730942
 51
292.2442812327245
  0
ARC
  5
4A4
330
6F
100
AcDbEntity
  8
LOUVER
  6
Continuous
100
AcDbCircle
 10
239.2273721230113
 20
173.3364496096255
 30
0.0
 40
3.1
100
AcDbArc
 50
67.9207965992203
 51
132.7186445082699
  0
LINE
  5
4A5
330
6F
100
AcDbEntity
  8
LOUVER
  6
Continuous
100
AcDbLine
 10
238.7315370480982
 20
175.2114998885559
 30
0.0
 11
238.7315331025281
 21
175.2132765259823
 31
0.0
  0
LINE
  5
4A6
330
6F
100
AcDbEntity
  8
LOUVER
  6
Continuous
100
AcDbLine
 10
239.7232071978407
 20
175.2114998885884
 30
0.0
 11
239.7232111434108
 21
175.2132765259943
 31
0.0
  0
ARC
  5
4A7
330
6F
100
AcDbEntity
  8
LOUVER
  6
Continuous
100
AcDbCircle
 10
241.1041990393679
 20
173.6322886301086
 30
0.0
 40
0.2
100
AcDbArc
 50
8.957671580785904
 51
89.99999999982046
  0
ARC
  5
4A8
330
6F
100
AcDbEntity
  8
LOUVER
  6
Continuous
100
AcDbCircle
 10
241.104199039381
 20
173.0406105892259
 30
0.0
 40
0.2
100
AcDbArc
 50
269.9999999998204
 51
351.0423284217637
  0
ARC
  5
4A9
330
6F
100
AcDbEntity
  8
LOUVER
  6
Continuous
100
AcDbCircle
 10
241.1024224019739
 20
172.6406145347959
 30
0.0
 40
0.2
100
AcDbArc
 50
89.99999999982042
 51
159.6400048124608
  0
ARC
  5
4AA
330
6F
100
AcDbEntity
  8
LOUVER
  6
Continuous
100
AcDbCircle
 10
241.1024224019429
 20
174.0322846845385
 30
0.0
 40
0.2
100
AcDbArc
 50
200.3599951900914
 51
269.9999999998204
  0
LINE
  5
4AB
330
6F
100
AcDbEntity
  8
LOUVER
  6
Continuous
100
AcDbLine
 10
241.1024224019425
 20
173.8322846845383
 30
0.0
 11
241.1041990393686
 21
173.8322886301085
 31
0.0
  0
LINE
  5
4AC
330
6F
100
AcDbEntity
  8
LOUVER
  6
Continuous
100
AcDbLine
 10
241.1024224019745
 20
172.8406145347959
 30
0.0
 11
241.1041990393803
 21
172.8406105892259
 31
0.0
  0
ARC
  5
4AD
330
6F
100
AcDbEntity
  8
LOUVER
  6
Continuous
100
AcDbCircle
 10
239.2273721230113
 20
173.3364496096255
 30
0.0
 40
2.1
100
AcDbArc
 50
261.042328421765
 51
278.9576715807843
  0
ARC
  5
4AE
330
6F
100
AcDbEntity
  8
LOUVER
  6
Continuous
100
AcDbCircle
 10
239.5232111434946
 20
171.4596226932691
 30
0.0
 40
0.2
100
AcDbArc
 50
278.9576715807859
 51
359.9999999998203
  0
ARC
  5
4AF
330
6F
100
AcDbEntity
  8
LOUVER
  6
Continuous
100
AcDbCircle
 10
238.9315331026116
 20
171.459622693256
 30
0.0
 40
0.2
100
AcDbArc
 50
179.9999999998204
 51
261.0423284217637
  0
ARC
  5
4B0
330
6F
100
AcDbEntity
  8
LOUVER
  6
Continuous
100
AcDbCircle
 10
238.5315370481817
 20
171.4613993306631
 30
0.0
 40
0.2
100
AcDbArc
 50
359.9999999998204
 51
69.64000481246078
  0
ARC
  5
4B1
330
6F
100
AcDbEntity
  8
LOUVER
  6
Continuous
100
AcDbCircle
 10
239.9232071979243
 20
171.461399330694
 30
0.0
 40
0.2
100
AcDbArc
 50
110.3599951900913
 51
179.9999999998204
  0
LINE
  5
4B2
330
6F
100
AcDbEntity
  8
LOUVER
  6
Continuous
100
AcDbLine
 10
239.7232071979245
 20
171.4613993306947
 30
0.0
 11
239.7232111434946
 21
171.4596226932686
 31
0.0
  0
LINE
  5
4B3
330
6F
100
AcDbEntity
  8
LOUVER
  6
Continuous
100
AcDbLine
 10
238.7315370481815
 20
171.4613993306622
 30
0.0
 11
238.7315331026115
 21
171.4596226932563
 31
0.0
  0
ARC
  5
4B4
330
6F
100
AcDbEntity
  8
LOUVER
  6
Continuous
100
AcDbCircle
 10
239.2273721230115
 20
173.3364496096255
 30
0.0
 40
2.1
100
AcDbArc
 50
351.0423284217648
 51
8.95767158078419
  0
ARC
  5
4B5
330
6F
100
AcDbEntity
  8
LOUVER
  6
Continuous
100
AcDbCircle
 10
240.590174572787
 20
170.004367755456
 30
0.0
 40
0.5
100
AcDbArc
 50
4.554970011039097
 51
112.2442812327232
  0
ARC
  5
4B6
330
6F
100
AcDbEntity
  8
LOUVER
  6
Continuous
100
AcDbCircle
 10
214.8645696731323
 20
170.0043677555003
 30
0.0
 40
0.5
100
AcDbArc
 50
67.75571876541217
 51
175.445029988897
  0
ARC
  5
4B7
330
6F
100
AcDbEntity
  8
LOUVER
  6
Continuous
100
AcDbCircle
 10
214.874175549454
 20
176.6724440690483
 30
0.0
 40
0.5
100
AcDbArc
 50
183.826224514538
 51
292.0792034024934
  0
ARC
  5
4B8
330
6F
100
AcDbEntity
  8
LOUVER
  6
Continuous
100
AcDbCircle
 10
240.5805686964739
 20
176.6724440690888
 30
0.0
 40
0.5
100
AcDbArc
 50
247.9207965992213
 51
356.1737754853984
  0
LINE
  5
4B9
330
6F
100
AcDbEntity
  8
LOUVER
  6
Continuous
100
AcDbLine
 10
592.7412277200324
 20
149.3364496096261
 30
0.0
 11
592.7412277200324
 21
198.3364496096259
 31
0.0
  0
LINE
  5
4BA
330
6F
100
AcDbEntity
  8
LOUVER
  6
Continuous
100
AcDbLine
 10
595.2412277201764
 20
158.1364496096097
 30
0.0
 11
593.9412277200323
 21
158.1364496096097
 31
0.0
  0
LINE
  5
4BB
330
6F
100
AcDbEntity
  8
LOUVER
  6
Continuous
100
AcDbLine
 10
594.5412277199781
 20
149.3364496096258
 30
0.0
 11
594.541227719977
 21
154.3364496093138
 31
0.0
  0
LINE
  5
4BC
330
6F
100
AcDbEntity
  8
LOUVER
  6
Continuous
100
AcDbLine
 10
594.5412277199807
 20
149.3364496096261
 30
0.0
 11
592.7412277200324
 21
149.3364496096261
 31
0.0
  0
LINE
  5
4BD
330
6F
100
AcDbEntity
  8
LOUVER
  6
Continuous
100
AcDbLine
 10
593.9412277200323
 20
163.336449609627
 30
0.0
 11
598.0412277200326
 21
163.3364496096284
 31
0.0
  0
LINE
  5
4BE
330
6F
100
AcDbEntity
  8
LOUVER
  6
Continuous
100
AcDbLine
 10
598.0412277200322
 20
163.3364496096282
 30
0.0
 11
598.0412277200322
 21
164.536449609628
 31
0.0
  0
LINE
  5
4BF
330
6F
100
AcDbEntity
  8
LOUVER
  6
Continuous
100
AcDbLine
 10
593.9412277200323
 20
164.5364496096268
 30
0.0
 11
598.0412277200321
 21
164.5364496096282
 31
0.0
  0
LINE
  5
4C0
330
6F
100
AcDbEntity
  8
LOUVER
  6
Continuous
100
AcDbLine
 10
593.9412277200323
 20
158.1364496096097
 30
0.0
 11
593.9412277200323
 21
163.3364496096268
 31
0.0
  0
LINE
  5
4C1
330
6F
100
AcDbEntity
  8
LOUVER
  6
Continuous
100
AcDbLine
 10
593.9412277200323
 20
183.3364496091793
 30
0.0
 11
593.9412277200323
 21
197.1364496096261
 31
0.0
  0
LINE
  5
4C2
330
6F
100
AcDbEntity
  8
LOUVER
  6
Continuous
100
AcDbLine
 10
622.7412277200324
 20
149.3364496096261
 30
0.0
 11
622.7412277200324
 21
198.3364496096259
 31
0.0
  0
LINE
  5
4C3
330
6F
100
AcDbEntity
  8
LOUVER
  6
Continuous
100
AcDbLine
 10
620.2412277198882
 20
158.1364496096097
 30
0.0
 11
621.5412277200321
 21
158.1364496096097
 31
0.0
  0
LINE
  5
4C4
330
6F
100
AcDbEntity
  8
LOUVER
  6
Continuous
100
AcDbLine
 10
620.9412277200867
 20
149.336449609626
 30
0.0
 11
620.9412277200879
 21
154.3364496093139
 31
0.0
  0
LINE
  5
4C5
330
6F
100
AcDbEntity
  8
LOUVER
  6
Continuous
100
AcDbLine
 10
620.9412277200838
 20
149.3364496096261
 30
0.0
 11
622.7412277200324
 21
149.3364496096261
 31
0.0
  0
LINE
  5
4C6
330
6F
100
AcDbEntity
  8
LOUVER
  6
Continuous
100
AcDbLine
 10
621.5412277200321
 20
163.3364496096264
 30
0.0
 11
617.4412277200323
 21
163.3364496096278
 31
0.0
  0
LINE
  5
4C7
330
6F
100
AcDbEntity
  8
LOUVER
  6
Continuous
100
AcDbLine
 10
617.4412277200323
 20
163.3364496096282
 30
0.0
 11
617.4412277200323
 21
164.536449609628
 31
0.0
  0
LINE
  5
4C8
330
6F
100
AcDbEntity
  8
LOUVER
  6
Continuous
100
AcDbLine
 10
621.5412277200321
 20
164.5364496096265
 30
0.0
 11
617.4412277200327
 21
164.5364496096278
 31
0.0
  0
LINE
  5
4C9
330
6F
100
AcDbEntity
  8
LOUVER
  6
Continuous
100
AcDbLine
 10
621.5412277200321
 20
158.1364496096097
 30
0.0
 11
621.5412277200321
 21
163.3364496096268
 31
0.0
  0
LINE
  5
4CA
330
6F
100
AcDbEntity
  8
LOUVER
  6
Continuous
100
AcDbLine
 10
621.5412277200321
 20
183.3364496092046
 30
0.0
 11
621.5412277200321
 21
197.1364496096261
 31
0.0
  0
LINE
  5
4CB
330
6F
100
AcDbEntity
  8
LOUVER
  6
Continuous
100
AcDbLine
 10
592.7412277200324
 20
198.3364496096259
 30
0.0
 11
622.7412277200324
 21
198.3364496096259
 31
0.0
  0
LINE
  5
4CC
330
6F
100
AcDbEntity
  8
LOUVER
  6
Continuous
100
AcDbLine
 10
593.9412277200323
 20
197.1364496096261
 30
0.0
 11
621.5412277200321
 21
197.1364496096261
 31
0.0
  0
ARC
  5
4CD
330
6F
100
AcDbEntity
  8
LOUVER
  6
Continuous
100
AcDbCircle
 10
595.2412277201768
 20
157.9364496096099
 30
0.0
 40
0.2
100
AcDbArc
 50
345.8703295024392
 51
90.0
  0
ARC
  5
4CE
330
6F
100
AcDbEntity
  8
LOUVER
  6
Continuous
100
AcDbCircle
 10
620.2412277198882
 20
157.9364496096099
 30
0.0
 40
0.2
100
AcDbArc
 50
90.0
 51
194.1296704975569
  0
LINE
  5
4CF
330
6F
100
AcDbEntity
  8
LOUVER
  6
Continuous
100
AcDbLine
 10
621.5412277200323
 20
183.3364496092034
 30
0.0
 11
621.0933098084621
 21
176.6390787734443
 31
0.0
  0
LINE
  5
4D0
330
6F
100
AcDbEntity
  8
LOUVER
  6
Continuous
100
AcDbLine
 10
621.1024509701421
 20
170.044075510267
 30
0.0
 11
621.5412277200321
 21
164.536449609627
 31
0.0
  0
LINE
  5
4D1
330
6F
100
AcDbEntity
  8
LOUVER
  6
Continuous
100
AcDbLine
 10
593.9412277199363
 20
183.3364496092189
 30
0.0
 11
594.3891456314994
 21
176.6390787734593
 31
0.0
  0
LINE
  5
4D2
330
6F
100
AcDbEntity
  8
LOUVER
  6
Continuous
100
AcDbLine
 10
594.3800044698124
 20
170.0440755102818
 30
0.0
 11
593.941227719916
 21
164.5364496096421
 31
0.0
  0
LINE
  5
4D3
330
6F
100
AcDbEntity
  8
LOUVER
  6
Continuous
100
AcDbLine
 10
620.0472785739422
 20
157.887626164558
 30
0.0
 11
620.941227720088
 21
154.3364496093141
 31
0.0
  0
LINE
  5
4D4
330
6F
100
AcDbEntity
  8
LOUVER
  6
Continuous
100
AcDbLine
 10
595.4351768661227
 20
157.887626164558
 30
0.0
 11
594.541227719977
 21
154.3364496093139
 31
0.0
  0
ARC
  5
4D5
330
6F
100
AcDbEntity
  8
LOUVER
  6
Continuous
100
AcDbCircle
 10
596.2412277200351
 20
173.3364496096259
 30
0.0
 40
2.1
100
AcDbArc
 50
261.042328421765
 51
278.9576715807842
  0
ARC
  5
4D6
330
6F
100
AcDbEntity
  8
LOUVER
  6
Continuous
100
AcDbCircle
 10
596.2412277200351
 20
173.3364496096259
 30
0.0
 40
1.8
100
AcDbArc
 50
290.3599951900864
 51
312.7186445082694
  0
ARC
  5
4D7
330
6F
100
AcDbEntity
  8
LOUVER
  6
Continuous
100
AcDbCircle
 10
596.5370667405182
 20
171.4596226932696
 30
0.0
 40
0.2
100
AcDbArc
 50
278.9576715807859
 51
359.9999999998204
  0
ARC
  5
4D8
330
6F
100
AcDbEntity
  8
LOUVER
  6
Continuous
100
AcDbCircle
 10
595.9453886996352
 20
171.4596226932564
 30
0.0
 40
0.2
100
AcDbArc
 50
179.9999999998205
 51
261.0423284217637
  0
ARC
  5
4D9
330
6F
100
AcDbEntity
  8
LOUVER
  6
Continuous
100
AcDbCircle
 10
595.5453926452052
 20
171.4613993306635
 30
0.0
 40
0.2
100
AcDbArc
 50
359.9999999998204
 51
69.64000481246078
  0
ARC
  5
4DA
330
6F
100
AcDbEntity
  8
LOUVER
  6
Continuous
100
AcDbCircle
 10
596.9370627949479
 20
171.4613993306944
 30
0.0
 40
0.2
100
AcDbArc
 50
110.3599951900913
 51
179.9999999998203
  0
ARC
  5
4DB
330
6F
100
AcDbEntity
  8
LOUVER
  6
Continuous
100
AcDbCircle
 10
597.9033047337025
 20
171.5364496094486
 30
0.0
 40
0.6500000000000014
100
AcDbArc
 50
312.7186445082704
 51
132.7186445082704
  0
ARC
  5
4DC
330
6F
100
AcDbEntity
  8
LOUVER
  6
Continuous
100
AcDbCircle
 10
596.2412277200351
 20
173.3364496096259
 30
0.0
 40
1.8
100
AcDbArc
 50
200.3599951900866
 51
249.6400048124626
  0
ARC
  5
4DD
330
6F
100
AcDbEntity
  8
LOUVER
  6
Continuous
100
AcDbCircle
 10
596.2412277200351
 20
173.3364496096259
 30
0.0
 40
1.8
100
AcDbArc
 50
47.28135547309493
 51
69.64000481246273
  0
ARC
  5
4DE
330
6F
100
AcDbEntity
  8
LOUVER
  6
Continuous
100
AcDbCircle
 10
596.2412277200351
 20
173.3364496096259
 30
0.0
 40
1.8
100
AcDbArc
 50
110.3599951900864
 51
159.6400048124626
  0
ARC
  5
4DF
330
6F
100
AcDbEntity
  8
LOUVER
  6
Continuous
100
AcDbCircle
 10
597.903304734288
 20
175.1364496092625
 30
0.0
 40
0.6500000000000048
100
AcDbArc
 50
227.2813554730933
 51
47.28135547309318
  0
ARC
  5
4E0
330
6F
100
AcDbEntity
  8
LOUVER
  6
Continuous
100
AcDbCircle
 10
596.2412277200351
 20
173.3364496096259
 30
0.0
 40
3.1
100
AcDbArc
 50
47.28135547309421
 51
112.0792034024934
  0
ARC
  5
4E1
330
6F
100
AcDbEntity
  8
LOUVER
  6
Continuous
100
AcDbCircle
 10
596.2412277200351
 20
173.3364496096259
 30
0.0
 40
3.1
100
AcDbArc
 50
247.7557187654122
 51
312.7186445082699
  0
LINE
  5
4E2
330
6F
100
AcDbEntity
  8
LOUVER
  6
Continuous
100
AcDbLine
 10
596.7370627949476
 20
171.4613993306951
 30
0.0
 11
596.7370667405178
 21
171.4596226932688
 31
0.0
  0
LINE
  5
4E3
330
6F
100
AcDbEntity
  8
LOUVER
  6
Continuous
100
AcDbLine
 10
595.7453926452058
 20
171.4613993306628
 30
0.0
 11
595.7453886996358
 21
171.4596226932569
 31
0.0
  0
ARC
  5
4E4
330
6F
100
AcDbEntity
  8
LOUVER
  6
Continuous
100
AcDbCircle
 10
594.3644008036785
 20
173.0406105891428
 30
0.0
 40
0.2
100
AcDbArc
 50
188.9576715807859
 51
269.9999999998206
  0
ARC
  5
4E5
330
6F
100
AcDbEntity
  8
LOUVER
  6
Continuous
100
AcDbCircle
 10
594.3644008036653
 20
173.6322886300254
 30
0.0
 40
0.2
100
AcDbArc
 50
89.99999999982035
 51
171.0423284217637
  0
ARC
  5
4E6
330
6F
100
AcDbEntity
  8
LOUVER
  6
Continuous
100
AcDbCircle
 10
594.3661774410724
 20
174.0322846844555
 30
0.0
 40
0.2
100
AcDbArc
 50
269.9999999998204
 51
339.6400048124608
  0
ARC
  5
4E7
330
6F
100
AcDbEntity
  8
LOUVER
  6
Continuous
100
AcDbCircle
 10
594.3661774411035
 20
172.6406145347129
 30
0.0
 40
0.2
100
AcDbArc
 50
20.35999519009138
 51
89.99999999982035
  0
LINE
  5
4E8
330
6F
100
AcDbEntity
  8
LOUVER
  6
Continuous
100
AcDbLine
 10
594.3661774411041
 20
172.8406145347133
 30
0.0
 11
594.364400803678
 21
172.8406105891432
 31
0.0
  0
LINE
  5
4E9
330
6F
100
AcDbEntity
  8
LOUVER
  6
Continuous
100
AcDbLine
 10
594.366177441072
 20
173.8322846844556
 30
0.0
 11
594.3644008036661
 21
173.8322886300257
 31
0.0
  0
ARC
  5
4EA
330
6F
100
AcDbEntity
  8
LOUVER
  6
Continuous
100
AcDbCircle
 10
596.2412277200351
 20
173.3364496096259
 30
0.0
 40
2.1
100
AcDbArc
 50
81.04232842176505
 51
98.95767158078427
  0
ARC
  5
4EB
330
6F
100
AcDbEntity
  8
LOUVER
  6
Continuous
100
AcDbCircle
 10
595.9453886995517
 20
175.2132765259822
 30
0.0
 40
0.2
100
AcDbArc
 50
98.95767158078593
 51
179.9999999998203
  0
ARC
  5
4EC
330
6F
100
AcDbEntity
  8
LOUVER
  6
Continuous
100
AcDbCircle
 10
596.5370667404347
 20
175.2132765259954
 30
0.0
 40
0.2
100
AcDbArc
 50
359.9999999998204
 51
81.04232842176369
  0
ARC
  5
4ED
330
6F
100
AcDbEntity
  8
LOUVER
  6
Continuous
100
AcDbCircle
 10
596.9370627948647
 20
175.2114998885882
 30
0.0
 40
0.2
100
AcDbArc
 50
179.9999999998205
 51
249.6400048124609
  0
ARC
  5
4EE
330
6F
100
AcDbEntity
  8
LOUVER
  6
Continuous
100
AcDbCircle
 10
595.545392645122
 20
175.2114998885573
 30
0.0
 40
0.2
100
AcDbArc
 50
290.3599951900913
 51
359.9999999998204
  0
LINE
  5
4EF
330
6F
100
AcDbEntity
  8
LOUVER
  6
Continuous
100
AcDbLine
 10
595.745392645122
 20
175.2114998885564
 30
0.0
 11
595.7453886995518
 21
175.2132765259826
 31
0.0
  0
LINE
  5
4F0
330
6F
100
AcDbEntity
  8
LOUVER
  6
Continuous
100
AcDbLine
 10
596.737062794865
 20
175.2114998885888
 30
0.0
 11
596.737066740435
 21
175.2132765259946
 31
0.0
  0
ARC
  5
4F1
330
6F
100
AcDbEntity
  8
LOUVER
  6
Continuous
100
AcDbCircle
 10
596.2412277200349
 20
173.3364496096259
 30
0.0
 40
2.1
100
AcDbArc
 50
171.0423284217649
 51
188.9576715807843
  0
ARC
  5
4F2
330
6F
100
AcDbEntity
  8
LOUVER
  6
Continuous
100
AcDbCircle
 10
619.2412277200299
 20
173.3364496096259
 30
0.0
 40
2.1
100
AcDbArc
 50
81.042328421765
 51
98.95767158078422
  0
ARC
  5
4F3
330
6F
100
AcDbEntity
  8
LOUVER
  6
Continuous
100
AcDbCircle
 10
619.2412277200299
 20
173.3364496096259
 30
0.0
 40
1.8
100
AcDbArc
 50
110.3599951900863
 51
132.7186445082694
  0
ARC
  5
4F4
330
6F
100
AcDbEntity
  8
LOUVER
  6
Continuous
100
AcDbCircle
 10
618.9453886995466
 20
175.2132765259822
 30
0.0
 40
0.2
100
AcDbArc
 50
98.95767158078587
 51
179.9999999998204
  0
ARC
  5
4F5
330
6F
100
AcDbEntity
  8
LOUVER
  6
Continuous
100
AcDbCircle
 10
619.5370667404297
 20
175.2132765259954
 30
0.0
 40
0.2
100
AcDbArc
 50
359.9999999998204
 51
81.04232842176369
  0
ARC
  5
4F6
330
6F
100
AcDbEntity
  8
LOUVER
  6
Continuous
100
AcDbCircle
 10
619.9370627948598
 20
175.2114998885882
 30
0.0
 40
0.2
100
AcDbArc
 50
179.9999999998204
 51
249.6400048124609
  0
ARC
  5
4F7
330
6F
100
AcDbEntity
  8
LOUVER
  6
Continuous
100
AcDbCircle
 10
618.545392645117
 20
175.2114998885573
 30
0.0
 40
0.2
100
AcDbArc
 50
290.3599951900913
 51
359.9999999998203
  0
ARC
  5
4F8
330
6F
100
AcDbEntity
  8
LOUVER
  6
Continuous
100
AcDbCircle
 10
617.5791507063625
 20
175.1364496098032
 30
0.0
 40
0.6500000000000014
100
AcDbArc
 50
132.7186445082704
 51
312.7186445082705
  0
ARC
  5
4F9
330
6F
100
AcDbEntity
  8
LOUVER
  6
Continuous
100
AcDbCircle
 10
619.2412277200299
 20
173.3364496096259
 30
0.0
 40
1.8
100
AcDbArc
 50
20.3599951900866
 51
69.64000481246265
  0
ARC
  5
4FA
330
6F
100
AcDbEntity
  8
LOUVER
  6
Continuous
100
AcDbCircle
 10
619.2412277200299
 20
173.3364496096259
 30
0.0
 40
1.8
100
AcDbArc
 50
227.281355473095
 51
249.6400048124627
  0
ARC
  5
4FB
330
6F
100
AcDbEntity
  8
LOUVER
  6
Continuous
100
AcDbCircle
 10
619.2412277200299
 20
173.3364496096259
 30
0.0
 40
1.8
100
AcDbArc
 50
290.3599951900864
 51
339.6400048124627
  0
ARC
  5
4FC
330
6F
100
AcDbEntity
  8
LOUVER
  6
Continuous
100
AcDbCircle
 10
617.579150705777
 20
171.5364496099893
 30
0.0
 40
0.6500000000000048
100
AcDbArc
 50
47.28135547309326
 51
227.2813554730932
  0
ARC
  5
4FD
330
6F
100
AcDbEntity
  8
LOUVER
  6
Continuous
100
AcDbCircle
 10
619.2412277200299
 20
173.3364496096259
 30
0.0
 40
3.1
100
AcDbArc
 50
227.2813554730942
 51
292.2442812327245
  0
ARC
  5
4FE
330
6F
100
AcDbEntity
  8
LOUVER
  6
Continuous
100
AcDbCircle
 10
619.2412277200299
 20
173.3364496096259
 30
0.0
 40
3.1
100
AcDbArc
 50
67.9207965992203
 51
132.7186445082699
  0
LINE
  5
4FF
330
6F
100
AcDbEntity
  8
LOUVER
  6
Continuous
100
AcDbLine
 10
618.7453926451166
 20
175.2114998885563
 30
0.0
 11
618.7453886995467
 21
175.2132765259827
 31
0.0
  0
LINE
  5
500
330
6F
100
AcDbEntity
  8
LOUVER
  6
Continuous
100
AcDbLine
 10
619.7370627948592
 20
175.2114998885888
 30
0.0
 11
619.7370667404292
 21
175.2132765259946
 31
0.0
  0
ARC
  5
501
330
6F
100
AcDbEntity
  8
LOUVER
  6
Continuous
100
AcDbCircle
 10
621.1180546363862
 20
173.6322886301089
 30
0.0
 40
0.2
100
AcDbArc
 50
8.957671580785904
 51
89.99999999982046
  0
ARC
  5
502
330
6F
100
AcDbEntity
  8
LOUVER
  6
Continuous
100
AcDbCircle
 10
621.1180546363996
 20
173.0406105892263
 30
0.0
 40
0.2
100
AcDbArc
 50
269.9999999998204
 51
351.0423284217637
  0
ARC
  5
503
330
6F
100
AcDbEntity
  8
LOUVER
  6
Continuous
100
AcDbCircle
 10
621.1162779989924
 20
172.6406145347963
 30
0.0
 40
0.2
100
AcDbArc
 50
89.99999999982042
 51
159.6400048124608
  0
ARC
  5
504
330
6F
100
AcDbEntity
  8
LOUVER
  6
Continuous
100
AcDbCircle
 10
621.1162779989616
 20
174.0322846845389
 30
0.0
 40
0.2
100
AcDbArc
 50
200.3599951900914
 51
269.9999999998204
  0
LINE
  5
505
330
6F
100
AcDbEntity
  8
LOUVER
  6
Continuous
100
AcDbLine
 10
621.1162779989607
 20
173.8322846845387
 30
0.0
 11
621.118054636387
 21
173.8322886301088
 31
0.0
  0
LINE
  5
506
330
6F
100
AcDbEntity
  8
LOUVER
  6
Continuous
100
AcDbLine
 10
621.116277998993
 20
172.8406145347961
 30
0.0
 11
621.1180546363988
 21
172.8406105892262
 31
0.0
  0
ARC
  5
507
330
6F
100
AcDbEntity
  8
LOUVER
  6
Continuous
100
AcDbCircle
 10
619.2412277200299
 20
173.3364496096259
 30
0.0
 40
2.1
100
AcDbArc
 50
261.042328421765
 51
278.9576715807843
  0
ARC
  5
508
330
6F
100
AcDbEntity
  8
LOUVER
  6
Continuous
100
AcDbCircle
 10
619.5370667405131
 20
171.4596226932696
 30
0.0
 40
0.2
100
AcDbArc
 50
278.9576715807859
 51
359.9999999998203
  0
ARC
  5
509
330
6F
100
AcDbEntity
  8
LOUVER
  6
Continuous
100
AcDbCircle
 10
618.9453886996302
 20
171.4596226932564
 30
0.0
 40
0.2
100
AcDbArc
 50
179.9999999998204
 51
261.0423284217637
  0
ARC
  5
50A
330
6F
100
AcDbEntity
  8
LOUVER
  6
Continuous
100
AcDbCircle
 10
618.5453926452002
 20
171.4613993306635
 30
0.0
 40
0.2
100
AcDbArc
 50
359.9999999998204
 51
69.64000481246078
  0
ARC
  5
50B
330
6F
100
AcDbEntity
  8
LOUVER
  6
Continuous
100
AcDbCircle
 10
619.9370627949429
 20
171.4613993306944
 30
0.0
 40
0.2
100
AcDbArc
 50
110.3599951900913
 51
179.9999999998204
  0
LINE
  5
50C
330
6F
100
AcDbEntity
  8
LOUVER
  6
Continuous
100
AcDbLine
 10
619.7370627949432
 20
171.4613993306951
 30
0.0
 11
619.7370667405132
 21
171.459622693269
 31
0.0
  0
LINE
  5
50D
330
6F
100
AcDbEntity
  8
LOUVER
  6
Continuous
100
AcDbLine
 10
618.7453926452002
 20
171.4613993306626
 30
0.0
 11
618.7453886996303
 21
171.4596226932567
 31
0.0
  0
ARC
  5
50E
330
6F
100
AcDbEntity
  8
LOUVER
  6
Continuous
100
AcDbCircle
 10
619.24122772003
 20
173.3364496096259
 30
0.0
 40
2.1
100
AcDbArc
 50
351.0423284217648
 51
8.95767158078419
  0
ARC
  5
50F
330
6F
100
AcDbEntity
  8
LOUVER
  6
Continuous
100
AcDbCircle
 10
620.6040301698055
 20
170.0043677554564
 30
0.0
 40
0.5
100
AcDbArc
 50
4.554970011039097
 51
112.2442812327232
  0
ARC
  5
510
330
6F
100
AcDbEntity
  8
LOUVER
  6
Continuous
100
AcDbCircle
 10
594.8784252701509
 20
170.0043677555006
 30
0.0
 40
0.5
100
AcDbArc
 50
67.75571876541217
 51
175.445029988897
  0
ARC
  5
511
330
6F
100
AcDbEntity
  8
LOUVER
  6
Continuous
100
AcDbCircle
 10
594.8880311464728
 20
176.6724440690485
 30
0.0
 40
0.5
100
AcDbArc
 50
183.826224514538
 51
292.0792034024934
  0
ARC
  5
512
330
6F
100
AcDbEntity
  8
LOUVER
  6
Continuous
100
AcDbCircle
 10
620.5944242934925
 20
176.6724440690892
 30
0.0
 40
0.5
100
AcDbArc
 50
247.9207965992213
 51
356.1737754853984
  0
LINE
  5
513
330
6F
100
AcDbEntity
  8
COMMENT
  6
Continuous
100
AcDbLine
 10
227.7273721234328
 20
408.1555691123023
 30
0.0
 11
263.5878708238575
 21
434.3861132526423
 31
0.0
  0
LINE
  5
514
330
6F
100
AcDbEntity
  8
COMMENT
  6
Continuous
100
AcDbLine
 10
228.9873942923439
 20
409.8206048964411
 30
0.0
 11
227.7273721234328
 21
408.155569112302
 31
0.0
  0
LINE
  5
515
330
6F
100
AcDbEntity
  8
COMMENT
  6
Continuous
100
AcDbLine
 10
227.7273721234328
 20
408.155569112302
 30
0.0
 11
229.6958507113208
 21
408.8520546309146
 31
0.0
  0
LINE
  5
516
330
6F
100
AcDbEntity
  8
COMMENT
  6
Continuous
100
AcDbLine
 10
263.5878708238574
 20
434.3861132526422
 30
0.0
 11
316.8778694648715
 21
434.3861132526422
 31
0.0
  0
TEXT
  5
517
330
6F
100
AcDbEntity
  8
COMMENT
  6
Continuous
100
AcDbText
 10
266.0778708238574
 20
434.8861132526422
 30
0.0
 40
4.0
  1
アンカープラグ%%c8×40
  7
KNJYOKO
100
AcDbText
  0
TEXT
  5
518
330
6F
100
AcDbEntity
  8
COMMENT
  6
Continuous
100
AcDbText
 10
266.0778708238574
 20
429.8861132526422
 30
0.0
 40
4.0
  1
AP-840-D18-50
100
AcDbText
  0
LINE
  5
519
330
6F
100
AcDbEntity
  8
COMMENT
  6
Continuous
100
AcDbLine
 10
607.7412277221135
 20
413.2555691123013
 30
0.0
 11
639.6210178343725
 21
439.1313996839163
 31
0.0
  0
LINE
  5
51A
330
6F
100
AcDbEntity
  8
COMMENT
  6
Continuous
100
AcDbLine
 10
608.9159649440192
 20
414.9818345866937
 30
0.0
 11
607.7412277221135
 21
413.2555691123014
 31
0.0
  0
LINE
  5
51B
330
6F
100
AcDbEntity
  8
COMMENT
  6
Continuous
100
AcDbLine
 10
607.7412277221135
 20
413.2555691123013
 30
0.0
 11
609.6722095345111
 21
414.0501188393796
 31
0.0
  0
LINE
  5
51C
330
6F
100
AcDbEntity
  8
COMMENT
  6
Continuous
100
AcDbLine
 10
639.6210178343725
 20
439.131399683916
 30
0.0
 11
692.0110164992284
 21
439.131399683916
 31
0.0
  0
TEXT
  5
51D
330
6F
100
AcDbEntity
  8
COMMENT
  6
Continuous
100
AcDbText
 10
642.1110178343726
 20
439.631399683916
 30
0.0
 40
4.0
  1
ALCアンカーM6めねじ
  7
KNJYOKO
100
AcDbText
  0
TEXT
  5
51E
330
6F
100
AcDbEntity
  8
COMMENT
  6
Continuous
100
AcDbText
 10
642.1110178343726
 20
434.631399683916
 30
0.0
 40
4.0
  1
AK-AL6M-D18-50
100
AcDbText
  0
LINE
  5
51F
330
6F
100
AcDbEntity
  8
COMMENT
  6
Continuous
100
AcDbLine
 10
598.175048048338
 20
405.7555691123011
 30
0.0
 11
581.9733739293313
 21
389.8595286624496
 31
0.0
  0
LINE
  5
520
330
6F
100
AcDbEntity
  8
COMMENT
  6
Continuous
100
AcDbLine
 10
597.1676383003091
 20
403.9266006521616
 30
0.0
 11
598.1750480483382
 21
405.7555691123014
 31
0.0
  0
LINE
  5
521
330
6F
100
AcDbEntity
  8
COMMENT
  6
Continuous
100
AcDbLine
 10
598.1750480483379
 20
405.7555691123011
 30
0.0
 11
596.3272278923982
 21
404.7831696573891
 31
0.0
  0
LINE
  5
522
330
6F
100
AcDbEntity
  8
COMMENT
  6
Continuous
100
AcDbLine
 10
581.9733739293313
 20
389.8595286624496
 30
0.0
 11
566.4833742869594
 21
389.8595286624496
 31
0.0
  0
TEXT
  5
523
330
6F
100
AcDbEntity
  8
COMMENT
  6
Continuous
100
AcDbText
 10
566.4833742869594
 20
390.3595286624496
 30
0.0
 40
4.0
  1
受け材
  7
KNJYOKO
100
AcDbText
  0
LINE
  5
524
330
6F
100
AcDbEntity
  8
COMMENT
  6
Continuous
100
AcDbLine
 10
607.7412277190031
 20
154.2364496094667
 30
0.0
 11
643.5199196779465
 21
181.904760053718
 31
0.0
  0
LINE
  5
525
330
6F
100
AcDbEntity
  8
COMMENT
  6
Continuous
100
AcDbLine
 10
608.9563012648137
 20
155.9345651258205
 30
0.0
 11
607.7412277190031
 21
154.2364496094666
 31
0.0
  0
LINE
  5
526
330
6F
100
AcDbEntity
  8
COMMENT
  6
Continuous
100
AcDbLine
 10
607.7412277190031
 20
154.2364496094666
 30
0.0
 11
609.690389420245
 21
154.9852945139841
 31
0.0
  0
LINE
  5
527
330
6F
100
AcDbEntity
  8
COMMENT
  6
Continuous
100
AcDbLine
 10
643.5199196779464
 20
181.904760053718
 30
0.0
 11
703.1099181520676
 21
181.904760053718
 31
0.0
  0
TEXT
  5
528
330
6F
100
AcDbEntity
  8
COMMENT
  6
Continuous
100
AcDbText
 10
646.0099196779464
 20
182.404760053718
 30
0.0
 40
4.0
  1
ECPアンカー6×33
  7
KNJYOKO
100
AcDbText
  0
TEXT
  5
529
330
6F
100
AcDbEntity
  8
COMMENT
  6
Continuous
100
AcDbText
 10
646.0099196779464
 20
177.404760053718
 30
0.0
 40
4.0
  1
AK-ECP633-D18-50
100
AcDbText
  0
LINE
  5
52A
330
6F
100
AcDbEntity
  8
COMMENT
  6
Continuous
100
AcDbLine
 10
590.241227719338
 20
158.8346478573688
 30
0.0
 11
557.0944833934063
 21
174.9000139886574
 31
0.0
  0
LINE
  5
52B
330
6F
100
AcDbEntity
  8
COMMENT
  6
Continuous
100
AcDbLine
 10
588.1797884197616
 20
159.167015188454
 30
0.0
 11
590.2412277193377
 21
158.8346478573688
 31
0.0
  0
LINE
  5
52C
330
6F
100
AcDbEntity
  8
COMMENT
  6
Continuous
100
AcDbLine
 10
590.2412277193377
 20
158.8346478573688
 30
0.0
 11
588.7031641135641
 21
160.2468661029685
 31
0.0
  0
LINE
  5
52D
330
6F
100
AcDbEntity
  8
COMMENT
  6
Continuous
100
AcDbLine
 10
557.0944833934062
 20
174.9000139886574
 30
0.0
 11
499.3044848716014
 21
174.9000139886574
 31
0.0
  0
TEXT
  5
52E
330
6F
100
AcDbEntity
  8
COMMENT
  6
Continuous
100
AcDbText
 10
499.3044848716014
 20
175.4000139886574
 30
0.0
 40
4.0
  1
脱落防止ねじ(両端2ヶ所)
  7
KNJYOKO
100
AcDbText
  0
TEXT
  5
52F
330
6F
100
AcDbEntity
  8
COMMENT
  6
Continuous
100
AcDbText
 10
499.3044848716014
 20
170.4000139886574
 30
0.0
 40
4.0
  1
トラス頭ドリルねじ4×13
  7
KNJYOKO
100
AcDbText
  0
TEXT
  5
530
330
6F
100
AcDbEntity
  8
COMMENT
  6
Continuous
100
AcDbText
 10
499.3044848716014
 20
165.4000139886574
 30
0.0
 40
4.0
  1
TBT-413-100
100
AcDbText
  0
LINE
  5
531
330
6F
100
AcDbEntity
  8
COMMENT
  6
Continuous
100
AcDbLine
 10
598.175048048338
 20
148.336449609626
 30
0.0
 11
582.0624441692465
 21
139.3859808470895
 31
0.0
  0
LINE
  5
532
330
6F
100
AcDbEntity
  8
COMMENT
  6
Continuous
100
AcDbLine
 10
596.7180498999984
 20
146.8407369285454
 30
0.0
 11
598.175048048338
 21
148.336449609626
 31
0.0
  0
LINE
  5
533
330
6F
100
AcDbEntity
  8
COMMENT
  6
Continuous
100
AcDbLine
 10
598.175048048338
 20
148.336449609626
 30
0.0
 11
596.1353270077072
 21
147.8897527269207
 31
0.0
  0
LINE
  5
534
330
6F
100
AcDbEntity
  8
COMMENT
  6
Continuous
100
AcDbLine
 10
582.0624441692465
 20
139.3859808470895
 30
0.0
 11
566.5724445268742
 21
139.3859808470895
 31
0.0
  0
TEXT
  5
535
330
6F
100
AcDbEntity
  8
COMMENT
  6
Continuous
100
AcDbText
 10
566.5724445268742
 20
139.8859808470895
 30
0.0
 40
4.0
  1
受け材
  7
KNJYOKO
100
AcDbText
  0
LINE
  5
536
330
6F
100
AcDbEntity
  8
COMMENT
  6
Continuous
100
AcDbLine
 10
227.7273721234328
 20
154.2364496094663
 30
0.0
 11
263.506064082376
 21
181.9047600537177
 31
0.0
  0
LINE
  5
537
330
6F
100
AcDbEntity
  8
COMMENT
  6
Continuous
100
AcDbLine
 10
228.9424456692432
 20
155.9345651258202
 30
0.0
 11
227.7273721234328
 21
154.2364496094663
 31
0.0
  0
LINE
  5
538
330
6F
100
AcDbEntity
  8
COMMENT
  6
Continuous
100
AcDbLine
 10
227.7273721234328
 20
154.2364496094663
 30
0.0
 11
229.6765338246747
 21
154.9852945139838
 31
0.0
  0
LINE
  5
539
330
6F
100
AcDbEntity
  8
COMMENT
  6
Continuous
100
AcDbLine
 10
263.506064082376
 20
181.9047600537176
 30
0.0
 11
330.2960623657623
 21
181.9047600537176
 31
0.0
  0
TEXT
  5
53A
330
6F
100
AcDbEntity
  8
COMMENT
  6
Continuous
100
AcDbText
 10
265.996064082376
 20
182.4047600537175
 30
0.0
 40
4.0
  1
シンワッシャー頭ドリルねじ4×40
  7
KNJYOKO
100
AcDbText
  0
TEXT
  5
53B
330
6F
100
AcDbEntity
  8
COMMENT
  6
Continuous
100
AcDbText
 10
265.996064082376
 20
177.4047600537176
 30
0.0
 40
4.0
  1
TBS-440-D18-50
100
AcDbText
  0
LINE
  5
53C
330
6F
100
AcDbEntity
  8
COMMENT
  6
Continuous
100
AcDbLine
 10
218.1611924527676
 20
148.3364496096257
 30
0.0
 11
204.7929092491387
 21
126.1553105691824
 31
0.0
  0
LINE
  5
53D
330
6F
100
AcDbEntity
  8
COMMENT
  6
Continuous
100
AcDbLine
 10
217.642704261856
 20
146.3137855187556
 30
0.0
 11
218.1611924527676
 21
148.3364496096257
 31
0.0
  0
LINE
  5
53E
330
6F
100
AcDbEntity
  8
COMMENT
  6
Continuous
100
AcDbLine
 10
218.1611924527676
 20
148.3364496096257
 30
0.0
 11
216.6149330567057
 21
146.9332098194614
 31
0.0
  0
LINE
  5
53F
330
6F
100
AcDbEntity
  8
COMMENT
  6
Continuous
100
AcDbLine
 10
204.7929092491388
 20
126.1553105691824
 30
0.0
 11
189.3029096067666
 21
126.1553105691824
 31
0.0
  0
TEXT
  5
540
330
6F
100
AcDbEntity
  8
COMMENT
  6
Continuous
100
AcDbText
 10
189.3029096067666
 20
126.6553105691824
 30
0.0
 40
4.0
  1
受け材
  7
KNJYOKO
100
AcDbText
  0
LINE
  5
541
330
6F
100
AcDbEntity
  8
COMMENT
  6
Continuous
100
AcDbLine
 10
212.7273721234328
 20
101.9183403354645
 30
0.0
 11
187.2584974083888
 21
87.00235121935927
 31
0.0
  0
LINE
  5
542
330
6F
100
AcDbEntity
  8
COMMENT
  6
Continuous
100
AcDbLine
 10
211.3047804902857
 20
100.3898662356152
 30
0.0
 11
212.7273721234328
 21
101.9183403354645
 31
0.0
  0
LINE
  5
543
330
6F
100
AcDbEntity
  8
COMMENT
  6
Continuous
100
AcDbLine
 10
212.7273721234328
 20
101.9183403354645
 30
0.0
 11
210.6983419786372
 21
101.4253528101446
 31
0.0
  0
LINE
  5
544
330
6F
100
AcDbEntity
  8
COMMENT
  6
Continuous
100
AcDbLine
 10
187.2584974083888
 20
87.00235121935927
 30
0.0
 11
152.0574965343463
 21
87.00235121935927
 31
0.0
  0
TEXT
  5
545
330
6F
100
AcDbEntity
  8
COMMENT
  6
Continuous
100
AcDbText
 10
152.0574965343463
 20
87.50235121935928
 30
0.0
 40
3.099999904632568
  1
St t=1.6mm以上
  7
KNJYOKO
100
AcDbText
  0
LINE
  5
546
330
6F
100
AcDbEntity
  8
COMMENT
  6
Continuous
100
AcDbLine
 10
590.241227719338
 20
416.253767360044
 30
0.0
 11
557.0944833934063
 21
432.3191334913326
 31
0.0
  0
LINE
  5
547
330
6F
100
AcDbEntity
  8
COMMENT
  6
Continuous
100
AcDbLine
 10
588.1797884197617
 20
416.5861346911295
 30
0.0
 11
590.241227719338
 21
416.253767360044
 31
0.0
  0
LINE
  5
548
330
6F
100
AcDbEntity
  8
COMMENT
  6
Continuous
100
AcDbLine
 10
590.2412277193381
 20
416.2537673600443
 30
0.0
 11
588.7031641135644
 21
417.6659856056438
 31
0.0
  0
LINE
  5
549
330
6F
100
AcDbEntity
  8
COMMENT
  6
Continuous
100
AcDbLine
 10
557.0944833934063
 20
432.3191334913326
 30
0.0
 11
499.3044848716015
 21
432.3191334913326
 31
0.0
  0
TEXT
  5
54A
330
6F
100
AcDbEntity
  8
COMMENT
  6
Continuous
100
AcDbText
 10
499.3044848716015
 20
432.8191334913326
 30
0.0
 40
4.0
  1
脱落防止ねじ(両端2ヶ所)
  7
KNJYOKO
100
AcDbText
  0
TEXT
  5
54B
330
6F
100
AcDbEntity
  8
COMMENT
  6
Continuous
100
AcDbText
 10
499.3044848716015
 20
427.8191334913326
 30
0.0
 40
4.0
  1
トラス頭ドリルねじ4×13
  7
KNJYOKO
100
AcDbText
  0
TEXT
  5
54C
330
6F
100
AcDbEntity
  8
COMMENT
  6
Continuous
100
AcDbText
 10
499.3044848716015
 20
422.8191334913327
 30
0.0
 40
4.0
  1
TBT-413-100
100
AcDbText
  0
LINE
  5
54D
330
6F
100
AcDbEntity
  8
COMMENT
  6
Continuous
100
AcDbLine
 10
210.2273721229402
 20
158.8346478573686
 30
0.0
 11
177.0806277970086
 21
174.9000139886572
 31
0.0
  0
LINE
  5
54E
330
6F
100
AcDbEntity
  8
COMMENT
  6
Continuous
100
AcDbLine
 10
208.1659328233639
 20
159.1670151884539
 30
0.0
 11
210.2273721229401
 21
158.8346478573686
 31
0.0
  0
LINE
  5
54F
330
6F
100
AcDbEntity
  8
COMMENT
  6
Continuous
100
AcDbLine
 10
210.2273721229401
 20
158.8346478573686
 30
0.0
 11
208.6893085171664
 21
160.2468661029683
 31
0.0
  0
LINE
  5
550
330
6F
100
AcDbEntity
  8
COMMENT
  6
Continuous
100
AcDbLine
 10
177.0806277970085
 20
174.9000139886572
 30
0.0
 11
119.2906292752036
 21
174.9000139886572
 31
0.0
  0
TEXT
  5
551
330
6F
100
AcDbEntity
  8
COMMENT
  6
Continuous
100
AcDbText
 10
119.2906292752036
 20
175.4000139886572
 30
0.0
 40
4.0
  1
脱落防止ねじ(両端2ヶ所)
  7
KNJYOKO
100
AcDbText
  0
TEXT
  5
552
330
6F
100
AcDbEntity
  8
COMMENT
  6
Continuous
100
AcDbText
 10
119.2906292752036
 20
170.4000139886572
 30
0.0
 40
4.0
  1
トラス頭ドリルねじ4×13
  7
KNJYOKO
100
AcDbText
  0
TEXT
  5
553
330
6F
100
AcDbEntity
  8
COMMENT
  6
Continuous
100
AcDbText
 10
119.2906292752036
 20
165.4000139886572
 30
0.0
 40
4.0
  1
TBT-413-100
100
AcDbText
  0
LINE
  5
554
330
6F
100
AcDbEntity
  8
COMMENT
  6
Continuous
100
AcDbLine
 10
210.2273721221127
 20
411.253767360044
 30
0.0
 11
177.0806277961811
 21
427.3191334913327
 31
0.0
  0
LINE
  5
555
330
6F
100
AcDbEntity
  8
COMMENT
  6
Continuous
100
AcDbLine
 10
208.1659328225365
 20
411.5861346911293
 30
0.0
 11
210.2273721221127
 21
411.253767360044
 31
0.0
  0
LINE
  5
556
330
6F
100
AcDbEntity
  8
COMMENT
  6
Continuous
100
AcDbLine
 10
210.2273721221127
 20
411.253767360044
 30
0.0
 11
208.6893085163391
 21
412.6659856056439
 31
0.0
  0
LINE
  5
557
330
6F
100
AcDbEntity
  8
COMMENT
  6
Continuous
100
AcDbLine
 10
177.0806277961811
 20
427.3191334913327
 30
0.0
 11
119.2906292743762
 21
427.3191334913327
 31
0.0
  0
TEXT
  5
558
330
6F
100
AcDbEntity
  8
COMMENT
  6
Continuous
100
AcDbText
 10
119.2906292743762
 20
427.8191334913326
 30
0.0
 40
4.0
  1
脱落防止ねじ(両端2ヶ所)
  7
KNJYOKO
100
AcDbText
  0
TEXT
  5
559
330
6F
100
AcDbEntity
  8
COMMENT
  6
Continuous
100
AcDbText
 10
119.2906292743762
 20
422.8191334913327
 30
0.0
 40
4.0
  1
トラス頭ドリルねじ4×13
  7
KNJYOKO
100
AcDbText
  0
TEXT
  5
55A
330
6F
100
AcDbEntity
  8
COMMENT
  6
Continuous
100
AcDbText
 10
119.2906292743762
 20
417.8191334913327
 30
0.0
 40
4.0
  1
TBT-413-100
100
AcDbText
  0
LINE
  5
55B
330
6F
100
AcDbEntity
  8
COMMENT
  6
Continuous
100
AcDbLine
 10
617.0612003838846
 20
409.2555691123014
 30
0.0
 11
643.395813643275
 21
424.6648643629862
 31
0.0
  0
LINE
  5
55C
330
6F
100
AcDbEntity
  8
COMMENT
  6
Continuous
100
AcDbLine
 10
618.4843849207388
 20
410.7834911661607
 30
0.0
 11
617.0612003838847
 21
409.2555691123016
 31
0.0
  0
LINE
  5
55D
330
6F
100
AcDbEntity
  8
COMMENT
  6
Continuous
100
AcDbLine
 10
617.0612003838846
 20
409.2555691123016
 30
0.0
 11
619.0904216431396
 21
409.747769386172
 31
0.0
  0
LINE
  5
55E
330
6F
100
AcDbEntity
  8
COMMENT
  6
Continuous
100
AcDbLine
 10
643.3958136432752
 20
424.6648643629862
 30
0.0
 11
681.3858126896009
 21
424.6648643629862
 31
0.0
  0
TEXT
  5
55F
330
6F
100
AcDbEntity
  8
COMMENT
  6
Continuous
100
AcDbText
 10
645.8858136432752
 20
425.1648643629862
 30
0.0
 40
4.0
  1
平座金　
  7
KNJYOKO
100
AcDbText
  0
TEXT
  5
560
330
6F
100
AcDbEntity
  8
COMMENT
  6
Continuous
100
AcDbText
 10
645.8858136432752
 20
420.1648643629862
 30
0.0
 40
4.0
  1
D18mm t2mm
100
AcDbText
  0
LINE
  5
561
330
6F
100
AcDbEntity
  8
COMMENT
  6
Continuous
100
AcDbLine
 10
617.0612003824365
 20
151.8364496096266
 30
0.0
 11
643.395813641827
 21
167.2457448603114
 31
0.0
  0
LINE
  5
562
330
6F
100
AcDbEntity
  8
COMMENT
  6
Continuous
100
AcDbLine
 10
618.4843849192908
 20
153.3643716634858
 30
0.0
 11
617.0612003824365
 21
151.8364496096266
 31
0.0
  0
LINE
  5
563
330
6F
100
AcDbEntity
  8
COMMENT
  6
Continuous
100
AcDbLine
 10
617.0612003824365
 20
151.8364496096266
 30
0.0
 11
619.0904216416912
 21
152.3286498834972
 31
0.0
  0
LINE
  5
564
330
6F
100
AcDbEntity
  8
COMMENT
  6
Continuous
100
AcDbLine
 10
643.395813641827
 20
167.2457448603114
 30
0.0
 11
681.3858126881528
 21
167.2457448603114
 31
0.0
  0
TEXT
  5
565
330
6F
100
AcDbEntity
  8
COMMENT
  6
Continuous
100
AcDbText
 10
645.8858136418271
 20
167.7457448603114
 30
0.0
 40
4.0
  1
平座金　
  7
KNJYOKO
100
AcDbText
  0
TEXT
  5
566
330
6F
100
AcDbEntity
  8
COMMENT
  6
Continuous
100
AcDbText
 10
645.8858136418271
 20
162.7457448603114
 30
0.0
 40
4.0
  1
D18mm t2mm
100
AcDbText
  0
LINE
  5
567
330
6F
100
AcDbEntity
  8
COMMENT
  6
Continuous
100
AcDbLine
 10
237.047344785418
 20
151.8364496096262
 30
0.0
 11
263.3819580448085
 21
167.245744860311
 31
0.0
  0
LINE
  5
568
330
6F
100
AcDbEntity
  8
COMMENT
  6
Continuous
100
AcDbLine
 10
238.4705293222723
 20
153.3643716634854
 30
0.0
 11
237.047344785418
 21
151.8364496096262
 31
0.0
  0
LINE
  5
569
330
6F
100
AcDbEntity
  8
COMMENT
  6
Continuous
100
AcDbLine
 10
237.047344785418
 20
151.8364496096262
 30
0.0
 11
239.0765660446729
 21
152.3286498834967
 31
0.0
  0
LINE
  5
56A
330
6F
100
AcDbEntity
  8
COMMENT
  6
Continuous
100
AcDbLine
 10
263.3819580448085
 20
167.245744860311
 30
0.0
 11
301.3719570911342
 21
167.245744860311
 31
0.0
  0
TEXT
  5
56B
330
6F
100
AcDbEntity
  8
COMMENT
  6
Continuous
100
AcDbText
 10
265.8719580448085
 20
167.745744860311
 30
0.0
 40
4.0
  1
平座金　
  7
KNJYOKO
100
AcDbText
  0
TEXT
  5
56C
330
6F
100
AcDbEntity
  8
COMMENT
  6
Continuous
100
AcDbText
 10
265.8719580448085
 20
162.745744860311
 30
0.0
 40
4.0
  1
D18mm t2mm
100
AcDbText
  0
LINE
  5
56D
330
6F
100
AcDbEntity
  8
COMMENT
  6
Continuous
100
AcDbLine
 10
622.7412277219862
 20
448.2299452566914
 30
0.0
 11
648.0921782314339
 21
455.2858509768825
 31
0.0
  0
LINE
  5
56E
330
6F
100
AcDbEntity
  8
COMMENT
  6
Continuous
100
AcDbLine
 10
624.5071072584522
 20
449.3442475008341
 30
0.0
 11
622.7412277219862
 21
448.2299452566915
 31
0.0
  0
LINE
  5
56F
330
6F
100
AcDbEntity
  8
COMMENT
  6
Continuous
100
AcDbLine
 10
622.7412277219862
 20
448.2299452566915
 30
0.0
 11
624.8288715051732
 21
448.1881904590006
 31
0.0
  0
LINE
  5
570
330
6F
100
AcDbEntity
  8
COMMENT
  6
Continuous
100
AcDbLine
 10
648.0921782314339
 20
455.2858509768825
 30
0.0
 11
682.4821773731272
 21
455.2858509768825
 31
0.0
  0
TEXT
  5
571
330
6F
100
AcDbEntity
  8
COMMENT
  6
Continuous
100
AcDbText
 10
650.5821782314341
 20
455.7858509768826
 30
0.0
 40
4.0
  1
アルミルーバー
  7
KNJYOKO
100
AcDbText
  0
TEXT
  5
572
330
6F
100
AcDbEntity
  8
COMMENT
  6
Continuous
100
AcDbText
 10
650.5821782314341
 20
450.7858509768825
 30
0.0
 40
4.0
  1
CLKS-3050
100
AcDbText
  0
LINE
  5
573
330
6F
100
AcDbEntity
  8
COMMENT
  6
Continuous
100
AcDbLine
 10
622.741227720447
 20
190.8108257540303
 30
0.0
 11
648.0921782298946
 21
197.8667314742212
 31
0.0
  0
LINE
  5
574
330
6F
100
AcDbEntity
  8
COMMENT
  6
Continuous
100
AcDbLine
 10
624.5071072569132
 20
191.9251279981729
 30
0.0
 11
622.7412277204471
 21
190.8108257540303
 31
0.0
  0
LINE
  5
575
330
6F
100
AcDbEntity
  8
COMMENT
  6
Continuous
100
AcDbLine
 10
622.741227720447
 20
190.8108257540303
 30
0.0
 11
624.8288715036342
 21
190.7690709563394
 31
0.0
  0
LINE
  5
576
330
6F
100
AcDbEntity
  8
COMMENT
  6
Continuous
100
AcDbLine
 10
648.0921782298949
 20
197.8667314742212
 30
0.0
 11
682.482177371588
 21
197.8667314742212
 31
0.0
  0
TEXT
  5
577
330
6F
100
AcDbEntity
  8
COMMENT
  6
Continuous
100
AcDbText
 10
650.5821782298949
 20
198.3667314742212
 30
0.0
 40
4.0
  1
アルミルーバー
  7
KNJYOKO
100
AcDbText
  0
TEXT
  5
578
330
6F
100
AcDbEntity
  8
COMMENT
  6
Continuous
100
AcDbText
 10
650.5821782298949
 20
193.3667314742212
 30
0.0
 40
4.0
  1
CLKS-3050
100
AcDbText
  0
LINE
  5
579
330
6F
100
AcDbEntity
  8
COMMENT
  6
Continuous
100
AcDbLine
 10
242.7273721235197
 20
190.8108257540164
 30
0.0
 11
268.0783226329675
 21
197.8667314742073
 31
0.0
  0
LINE
  5
57A
330
6F
100
AcDbEntity
  8
COMMENT
  6
Continuous
100
AcDbLine
 10
244.4932516599856
 20
191.9251279981589
 30
0.0
 11
242.7273721235197
 21
190.8108257540164
 31
0.0
  0
LINE
  5
57B
330
6F
100
AcDbEntity
  8
COMMENT
  6
Continuous
100
AcDbLine
 10
242.7273721235197
 20
190.8108257540164
 30
0.0
 11
244.8150159067069
 21
190.7690709563255
 31
0.0
  0
LINE
  5
57C
330
6F
100
AcDbEntity
  8
COMMENT
  6
Continuous
100
AcDbLine
 10
268.0783226329675
 20
197.8667314742073
 30
0.0
 11
302.4683217746606
 21
197.8667314742073
 31
0.0
  0
TEXT
  5
57D
330
6F
100
AcDbEntity
  8
COMMENT
  6
Continuous
100
AcDbText
 10
270.5683226329674
 20
198.3667314742073
 30
0.0
 40
4.0
  1
アルミルーバー
  7
KNJYOKO
100
AcDbText
  0
TEXT
  5
57E
330
6F
100
AcDbEntity
  8
COMMENT
  6
Continuous
100
AcDbText
 10
270.5683226329674
 20
193.3667314742073
 30
0.0
 40
4.0
  1
CLKS-3050
100
AcDbText
  0
LINE
  5
57F
330
6F
100
AcDbEntity
  8
COMMENT
  6
Continuous
100
AcDbLine
 10
242.7273721249675
 20
443.2299452566915
 30
0.0
 11
268.0783226344153
 21
450.2858509768826
 31
0.0
  0
LINE
  5
580
330
6F
100
AcDbEntity
  8
COMMENT
  6
Continuous
100
AcDbLine
 10
244.4932516614334
 20
444.3442475008342
 30
0.0
 11
242.7273721249675
 21
443.2299452566915
 31
0.0
  0
LINE
  5
581
330
6F
100
AcDbEntity
  8
COMMENT
  6
Continuous
100
AcDbLine
 10
242.7273721249675
 20
443.2299452566915
 30
0.0
 11
244.8150159081547
 21
443.1881904590007
 31
0.0
  0
LINE
  5
582
330
6F
100
AcDbEntity
  8
COMMENT
  6
Continuous
100
AcDbLine
 10
268.0783226344153
 20
450.2858509768826
 30
0.0
 11
302.4683217761084
 21
450.2858509768826
 31
0.0
  0
TEXT
  5
583
330
6F
100
AcDbEntity
  8
COMMENT
  6
Continuous
100
AcDbText
 10
270.5683226344153
 20
450.7858509768825
 30
0.0
 40
4.0
  1
アルミルーバー
  7
KNJYOKO
100
AcDbText
  0
TEXT
  5
584
330
6F
100
AcDbEntity
  8
COMMENT
  6
Continuous
100
AcDbText
 10
270.5683226344153
 20
445.7858509768826
 30
0.0
 40
4.0
  1
CLKS-3050
100
AcDbText
  0
LINE
  5
585
330
6F
100
AcDbEntity
  8
COMMENT
  6
Continuous
100
AcDbLine
 10
218.1611924527679
 20
400.7555691123014
 30
0.0
 11
201.9595183337613
 21
384.8595286624497
 31
0.0
  0
LINE
  5
586
330
6F
100
AcDbEntity
  8
COMMENT
  6
Continuous
100
AcDbLine
 10
217.1537827047388
 20
398.9266006521617
 30
0.0
 11
218.1611924527679
 21
400.7555691123014
 31
0.0
  0
LINE
  5
587
330
6F
100
AcDbEntity
  8
COMMENT
  6
Continuous
100
AcDbLine
 10
218.1611924527679
 20
400.7555691123014
 30
0.0
 11
216.3133722968282
 21
399.7831696573893
 31
0.0
  0
LINE
  5
588
330
6F
100
AcDbEntity
  8
COMMENT
  6
Continuous
100
AcDbLine
 10
201.9595183337613
 20
384.8595286624497
 30
0.0
 11
186.4695186913892
 21
384.8595286624497
 31
0.0
  0
TEXT
  5
589
330
6F
100
AcDbEntity
  8
COMMENT
  6
Continuous
100
AcDbText
 10
186.4695186913892
 20
385.3595286624496
 30
0.0
 40
4.0
  1
受け材
  7
KNJYOKO
100
AcDbText
  0
LINE
  5
58A
330
6F
100
AcDbEntity
  8
COMMENT
  6
Continuous
100
AcDbLine
 10
237.0473447868658
 20
404.2555691123016
 30
0.0
 11
263.3819580462563
 21
419.6648643629862
 31
0.0
  0
LINE
  5
58B
330
6F
100
AcDbEntity
  8
COMMENT
  6
Continuous
100
AcDbLine
 10
238.4705293237201
 20
405.7834911661608
 30
0.0
 11
237.0473447868658
 21
404.2555691123017
 31
0.0
  0
LINE
  5
58C
330
6F
100
AcDbEntity
  8
COMMENT
  6
Continuous
100
AcDbLine
 10
237.0473447868658
 20
404.2555691123016
 30
0.0
 11
239.0765660461207
 21
404.747769386172
 31
0.0
  0
LINE
  5
58D
330
6F
100
AcDbEntity
  8
COMMENT
  6
Continuous
100
AcDbLine
 10
263.3819580462563
 20
419.6648643629862
 30
0.0
 11
301.371957092582
 21
419.6648643629862
 31
0.0
  0
TEXT
  5
58E
330
6F
100
AcDbEntity
  8
COMMENT
  6
Continuous
100
AcDbText
 10
265.8719580462563
 20
420.1648643629862
 30
0.0
 40
4.0
  1
平座金　
  7
KNJYOKO
100
AcDbText
  0
TEXT
  5
58F
330
6F
100
AcDbEntity
  8
COMMENT
  6
Continuous
100
AcDbText
 10
265.8719580462563
 20
415.1648643629862
 30
0.0
 40
4.0
  1
D18mm t2mm
100
AcDbText
  0
ENDSEC
  0
SECTION
  2
OBJECTS
  0
DICTIONARY
  5
C
330
0
100
AcDbDictionary
281
     1
  3
ACAD_CIP_PREVIOUS_PRODUCT_INFO
350
593
  3
ACAD_COLOR
350
62
  3
ACAD_DETAILVIEWSTYLE
350
69
  3
ACAD_GROUP
350
D
  3
ACAD_LAYOUT
350
61
  3
ACAD_MATERIAL
350
10
  3
ACAD_MLEADERSTYLE
350
65
  3
ACAD_MLINESTYLE
350
5E
  3
ACAD_PLOTSETTINGS
350
60
  3
ACAD_PLOTSTYLENAME
350
E
  3
ACAD_SCALELIST
350
42
  3
ACAD_SECTIONVIEWSTYLE
350
67
  3
ACAD_TABLESTYLE
350
63
  3
ACAD_VISUALSTYLE
350
29
  3
ACDB_RECOMPOSE_DATA
350
602
  3
AcDbVariableDictionary
350
5A6
  0
DICTIONARY
  5
596
330
54
100
AcDbDictionary
280
     1
281
     1
  3
ADSK_XREC_LAYER_RECONCILED
360
597
  0
DICTIONARY
  5
598
330
76
100
AcDbDictionary
280
     1
281
     1
  3
ADSK_XREC_LAYER_RECONCILED
360
599
  0
DICTIONARY
  5
59A
330
77
100
AcDbDictionary
280
     1
281
     1
  3
ADSK_XREC_LAYER_RECONCILED
360
59B
  0
DICTIONARY
  5
59C
330
78
100
AcDbDictionary
280
     1
281
     1
  3
ADSK_XREC_LAYER_RECONCILED
360
59D
  0
DICTIONARY
  5
59E
330
79
100
AcDbDictionary
280
     1
281
     1
  3
ADSK_XREC_LAYER_RECONCILED
360
59F
  0
DICTIONARY
  5
5A0
330
7A
100
AcDbDictionary
280
     1
281
     1
  3
ADSK_XREC_LAYER_RECONCILED
360
5A1
  0
DICTIONARY
  5
5A2
330
7B
100
AcDbDictionary
280
     1
281
     1
  3
ADSK_XREC_LAYER_RECONCILED
360
5A3
  0
DICTIONARY
  5
5A4
330
7C
100
AcDbDictionary
280
     1
281
     1
  3
ADSK_XREC_LAYER_RECONCILED
360
5A5
  0
XRECORD
  5
593
102
{ACAD_REACTORS
330
C
102
}
330
C
100
AcDbXrecord
280
     1
300
ACD
300
2022
300

  0
DICTIONARY
  5
62
102
{ACAD_REACTORS
330
C
102
}
330
C
100
AcDbDictionary
281
     1
  0
DICTIONARY
  5
69
102
{ACAD_REACTORS
330
C
102
}
330
C
100
AcDbDictionary
281
     1
  3
Imperial24
350
6A
  3
Metric50
350
591
  0
DICTIONARY
  5
D
102
{ACAD_REACTORS
330
C
102
}
330
C
100
AcDbDictionary
281
     1
  0
DICTIONARY
  5
61
102
{ACAD_REACTORS
330
C
102
}
330
C
100
AcDbDictionary
281
     1
  3
Model
350
72
  3
レイアウト1
350
6E
  0
DICTIONARY
  5
10
102
{ACAD_REACTORS
330
C
102
}
330
C
100
AcDbDictionary
281
     1
  3
ByBlock
350
19
  3
ByLayer
350
11
  3
Global
350
21
  0
DICTIONARY
  5
65
102
{ACAD_REACTORS
330
C
102
}
330
C
100
AcDbDictionary
281
     1
  3
Standard
350
66
  0
DICTIONARY
  5
5E
102
{ACAD_REACTORS
330
C
102
}
330
C
100
AcDbDictionary
281
     1
  3
Standard
350
5F
  0
DICTIONARY
  5
60
102
{ACAD_REACTORS
330
C
102
}
330
C
100
AcDbDictionary
281
     1
  0
ACDBDICTIONARYWDFLT
  5
E
102
{ACAD_REACTORS
330
C
102
}
330
C
100
AcDbDictionary
281
     1
  3
Normal
350
F
100
AcDbDictionaryWithDefault
340
F
  0
DICTIONARY
  5
42
102
{ACAD_REACTORS
330
C
102
}
330
C
100
AcDbDictionary
281
     1
  3
A0
350
43
  3
A1
350
44
  3
A2
350
45
  3
A3
350
46
  3
A4
350
47
  3
A5
350
48
  3
A6
350
49
  3
A7
350
4A
  3
A8
350
4B
  3
A9
350
4C
  3
B0
350
4D
  3
B1
350
4E
  3
B2
350
4F
  3
B3
350
50
  3
B4
350
51
  3
B5
350
52
  3
B6
350
53
  0
DICTIONARY
  5
67
102
{ACAD_REACTORS
330
C
102
}
330
C
100
AcDbDictionary
281
     1
  3
Imperial24
350
68
  3
Metric50
350
590
  0
DICTIONARY
  5
63
102
{ACAD_REACTORS
330
C
102
}
330
C
100
AcDbDictionary
281
     1
  3
Standard
350
64
  0
DICTIONARY
  5
29
102
{ACAD_REACTORS
330
C
102
}
330
C
100
AcDbDictionary
281
     1
  3
2dWireframe
350
2F
  3
Basic
350
2E
  3
Brighten
350
35
  3
ColorChange
350
39
  3
Conceptual
350
32
  3
Dim
350
34
  3
EdgeColorOff
350
41
  3
Facepattern
350
38
  3
Flat
350
2A
  3
FlatWithEdges
350
2B
  3
Gouraud
350
2C
  3
GouraudWithEdges
350
2D
  3
Hidden
350
31
  3
JitterOff
350
3F
  3
Linepattern
350
37
  3
OverhangOff
350
40
  3
Realistic
350
33
  3
Shaded
350
3E
  3
Shaded with edges
350
3D
  3
Shades of Gray
350
3A
  3
Sketchy
350
3B
  3
Thicken
350
36
  3
Wireframe
350
30
  3
X-Ray
350
3C
  0
XRECORD
  5
602
102
{ACAD_REACTORS
330
C
102
}
330
C
100
AcDbXrecord
280
     1
 90
        1
330
64
  0
DICTIONARY
  5
5A6
102
{ACAD_REACTORS
330
C
102
}
330
C
100
AcDbDictionary
281
     1
  3
CANNOSCALE
350
5AB
  3
CMLEADERSTYLE
350
5A8
  3
CTABLESTYLE
350
5A7
  3
CVIEWDETAILSTYLE
350
5A9
  3
CVIEWSECTIONSTYLE
350
5AA
  3
DIMASSOC
350
5AE
  3
INDEXCTL
350
5AD
  3
LAYEREVAL
350
5FF
  3
LAYERNOTIFY
350
600
  3
LIGHTINGUNITS
350
5FE
  3
MSLTSCALE
350
5FD
  3
SORTENTS
350
5AC
  0
XRECORD
  5
597
102
{ACAD_REACTORS
330
596
102
}
330
596
100
AcDbXrecord
280
     1
290
     1
  0
XRECORD
  5
599
102
{ACAD_REACTORS
330
598
102
}
330
598
100
AcDbXrecord
280
     1
290
     1
  0
XRECORD
  5
59B
102
{ACAD_REACTORS
330
59A
102
}
330
59A
100
AcDbXrecord
280
     1
290
     1
  0
XRECORD
  5
59D
102
{ACAD_REACTORS
330
59C
102
}
330
59C
100
AcDbXrecord
280
     1
290
     1
  0
XRECORD
  5
59F
102
{ACAD_REACTORS
330
59E
102
}
330
59E
100
AcDbXrecord
280
     1
290
     1
  0
XRECORD
  5
5A1
102
{ACAD_REACTORS
330
5A0
102
}
330
5A0
100
AcDbXrecord
280
     1
290
     1
  0
XRECORD
  5
5A3
102
{ACAD_REACTORS
330
5A2
102
}
330
5A2
100
AcDbXrecord
280
     1
290
     1
  0
XRECORD
  5
5A5
102
{ACAD_REACTORS
330
5A4
102
}
330
5A4
100
AcDbXrecord
280
     1
290
     1
  0
ACDBDETAILVIEWSTYLE
  5
6A
102
{ACAD_REACTORS
330
69
102
}
330
69
100
AcDbModelDocViewStyle
 70
     0
  3
Imperial24
290
     0
300
Imperial24
 90
        0
100
AcDbDetailViewStyle
 70
     0
 71
     0
 90
        3
 71
     1
340
55
 62
   256
 40
0.24
340
0
 62
   256
 40
0.24
300

 40
0.36
280
     3
 71
     2
340
5C
 90
       25
 62
   256
 71
     3
340
55
 62
   256
 40
0.24
 90
        1
 40
0.75
 90
        1
300
%<\AcVar ViewType \f "%tc1">% %<\AcVar ViewDetailId>%\PSCALE %<\AcVar ViewScale \f "%sn">%
 71
     4
340
5C
 90
       25
 62
   256
340
5C
 90
       25
 62
   256
280
     0
  0
ACDBDETAILVIEWSTYLE
  5
591
102
{ACAD_REACTORS
330
69
102
}
330
69
100
AcDbModelDocViewStyle
 70
     0
  3
Metric50
290
     0
300
Metric50
 90
        0
100
AcDbDetailViewStyle
 70
     0
 71
     0
 90
        3
 71
     1
340
55
 62
   256
 40
5.0
340
0
 62
   256
 40
5.0
300

 40
0.0
280
     1
 71
     2
340
5C
 90
       25
 62
   256
 71
     3
340
55
 62
   256
 40
5.0
 90
        0
 40
15.0
 90
        1
300
%<\AcVar ViewDetailId>% (%<\AcVar ViewScale \f "%sn">%)
 71
     4
340
5C
 90
       25
 62
   256
340
5C
 90
       25
 62
   256
280
     0
  0
LAYOUT
  5
72
102
{ACAD_REACTORS
330
61
102
}
330
61
100
AcDbPlotSettings
  1

  2
OKI B821
  4

  6

 40
0.0
 41
0.0
 42
0.0
 43
0.0
 44
0.0
 45
0.0
 46
0.0
 47
0.0
 48
0.0
 49
0.0
140
0.0
141
0.0
142
1.0
143
1.0
 70
  1712
 72
     0
 73
     0
 74
     0
  7

 75
     0
147
1.0
 76
     0
 77
     2
 78
   300
148
0.0
149
0.0
100
AcDbLayout
  1
Model
 70
     1
 71
     0
 10
0.0
 20
0.0
 11
12.0
 21
9.0
 12
0.0
 22
0.0
 32
0.0
 14
0.0
 24
0.0
 34
0.0
 15
0.0
 25
0.0
 35
0.0
146
0.0
 13
0.0
 23
0.0
 33
0.0
 16
1.0
 26
0.0
 36
0.0
 17
0.0
 27
1.0
 37
0.0
 76
     0
330
6F
331
83
  0
LAYOUT
  5
6E
102
{ACAD_REACTORS
330
61
102
}
330
61
100
AcDbPlotSettings
  1

  2
OKI B821
  4

  6

 40
0.0
 41
0.0
 42
0.0
 43
0.0
 44
0.0
 45
0.0
 46
0.0
 47
0.0
 48
0.0
 49
0.0
140
0.0
141
0.0
142
1.0
143
1.0
 70
   688
 72
     0
 73
     0
 74
     5
  7

 75
    16
147
1.0
 76
     0
 77
     2
 78
   300
148
0.0
149
0.0
100
AcDbLayout
  1
レイアウト1
 70
     1
 71
     1
 10
0.0
 20
0.0
 11
12.0
 21
9.0
 12
0.0
 22
0.0
 32
0.0
 14
1.000000000000000E+20
 24
1.000000000000000E+20
 34
1.000000000000000E+20
 15
-1.000000000000000E+20
 25
-1.000000000000000E+20
 35
-1.000000000000000E+20
146
0.0
 13
0.0
 23
0.0
 33
0.0
 16
1.0
 26
0.0
 36
0.0
 17
0.0
 27
1.0
 37
0.0
 76
     0
330
6B
  0
MATERIAL
  5
19
102
{ACAD_XDICTIONARY
360
1A
102
}
102
{ACAD_REACTORS
330
10
102
}
330
10
100
AcDbMaterial
  1
ByBlock
 72
     0
 43
0.0208333333333333
 43
0.0
 43
0.0
 43
0.0
 43
0.0
 43
0.0208333333333333
 43
0.0
 43
0.0
 43
0.0
 43
0.0
 43
1.0
 43
0.0
 43
0.0
 43
0.0
 43
0.0
 43
1.0
 77
     0
 47
0.0208333333333333
 47
0.0
 47
0.0
 47
0.0
 47
0.0
 47
0.0208333333333333
 47
0.0
 47
0.0
 47
0.0
 47
0.0
 47
1.0
 47
0.0
 47
0.0
 47
0.0
 47
0.0
 47
1.0
171
     0
 49
0.0208333333333333
 49
0.0
 49
0.0
 49
0.0
 49
0.0
 49
0.0208333333333333
 49
0.0
 49
0.0
 49
0.0
 49
0.0
 49
1.0
 49
0.0
 49
0.0
 49
0.0
 49
0.0
 49
1.0
175
     0
142
0.0208333333333333
142
0.0
142
0.0
142
0.0
142
0.0
142
0.0208333333333333
142
0.0
142
0.0
142
0.0
142
0.0
142
1.0
142
0.0
142
0.0
142
0.0
142
0.0
142
1.0
179
     0
144
0.0208333333333333
144
0.0
144
0.0
144
0.0
144
0.0
144
0.0208333333333333
144
0.0
144
0.0
144
0.0
144
0.0
144
1.0
144
0.0
144
0.0
144
0.0
144
0.0
144
1.0
147
0.0208333333333333
147
0.0
147
0.0
147
0.0
147
0.0
147
0.0208333333333333
147
0.0
147
0.0
147
0.0
147
0.0
147
1.0
147
0.0
147
0.0
147
0.0
147
0.0
147
1.0
  0
MATERIAL
  5
11
102
{ACAD_XDICTIONARY
360
12
102
}
102
{ACAD_REACTORS
330
10
102
}
330
10
100
AcDbMaterial
  1
ByLayer
 72
     0
 43
0.0208333333333333
 43
0.0
 43
0.0
 43
0.0
 43
0.0
 43
0.0208333333333333
 43
0.0
 43
0.0
 43
0.0
 43
0.0
 43
1.0
 43
0.0
 43
0.0
 43
0.0
 43
0.0
 43
1.0
 77
     0
 47
0.0208333333333333
 47
0.0
 47
0.0
 47
0.0
 47
0.0
 47
0.0208333333333333
 47
0.0
 47
0.0
 47
0.0
 47
0.0
 47
1.0
 47
0.0
 47
0.0
 47
0.0
 47
0.0
 47
1.0
171
     0
 49
0.0208333333333333
 49
0.0
 49
0.0
 49
0.0
 49
0.0
 49
0.0208333333333333
 49
0.0
 49
0.0
 49
0.0
 49
0.0
 49
1.0
 49
0.0
 49
0.0
 49
0.0
 49
0.0
 49
1.0
175
     0
142
0.0208333333333333
142
0.0
142
0.0
142
0.0
142
0.0
142
0.0208333333333333
142
0.0
142
0.0
142
0.0
142
0.0
142
1.0
142
0.0
142
0.0
142
0.0
142
0.0
142
1.0
179
     0
144
0.0208333333333333
144
0.0
144
0.0
144
0.0
144
0.0
144
0.0208333333333333
144
0.0
144
0.0
144
0.0
144
0.0
144
1.0
144
0.0
144
0.0
144
0.0
144
0.0
144
1.0
147
0.0208333333333333
147
0.0
147
0.0
147
0.0
147
0.0
147
0.0208333333333333
147
0.0
147
0.0
147
0.0
147
0.0
147
1.0
147
0.0
147
0.0
147
0.0
147
0.0
147
1.0
  0
MATERIAL
  5
21
102
{ACAD_XDICTIONARY
360
22
102
}
102
{ACAD_REACTORS
330
10
102
}
330
10
100
AcDbMaterial
  1
Global
 72
     0
 43
0.0208333333333333
 43
0.0
 43
0.0
 43
0.0
 43
0.0
 43
0.0208333333333333
 43
0.0
 43
0.0
 43
0.0
 43
0.0
 43
1.0
 43
0.0
 43
0.0
 43
0.0
 43
0.0
 43
1.0
 77
     0
 47
0.0208333333333333
 47
0.0
 47
0.0
 47
0.0
 47
0.0
 47
0.0208333333333333
 47
0.0
 47
0.0
 47
0.0
 47
0.0
 47
1.0
 47
0.0
 47
0.0
 47
0.0
 47
0.0
 47
1.0
171
     0
 49
0.0208333333333333
 49
0.0
 49
0.0
 49
0.0
 49
0.0
 49
0.0208333333333333
 49
0.0
 49
0.0
 49
0.0
 49
0.0
 49
1.0
 49
0.0
 49
0.0
 49
0.0
 49
0.0
 49
1.0
175
     0
142
0.0208333333333333
142
0.0
142
0.0
142
0.0
142
0.0
142
0.0208333333333333
142
0.0
142
0.0
142
0.0
142
0.0
142
1.0
142
0.0
142
0.0
142
0.0
142
0.0
142
1.0
179
     0
144
0.0208333333333333
144
0.0
144
0.0
144
0.0
144
0.0
144
0.0208333333333333
144
0.0
144
0.0
144
0.0
144
0.0
144
1.0
144
0.0
144
0.0
144
0.0
144
0.0
144
1.0
147
0.0208333333333333
147
0.0
147
0.0
147
0.0
147
0.0
147
0.0208333333333333
147
0.0
147
0.0
147
0.0
147
0.0
147
1.0
147
0.0
147
0.0
147
0.0
147
0.0
147
1.0
  0
MLEADERSTYLE
  5
66
102
{ACAD_REACTORS
330
65
102
}
330
65
100
AcDbMLeaderStyle
179
     2
170
     2
171
     1
172
     0
 90
        2
 40
0.0
 41
0.0
173
     1
 91
-1056964608
340
5A
 92
       -2
290
     1
 42
0.09
291
     1
 43
0.36
  3
Standard
 44
0.18
300

342
55
174
     1
178
     6
175
     1
176
     0
 93
-1056964608
 45
0.18
292
     0
297
     0
 46
0.18
 94
-1056964608
 47
1.0
 49
1.0
140
1.0
293
     1
141
0.0
294
     1
177
     0
142
1.0
295
     0
296
     0
143
0.125
271
     0
272
     9
273
     9
298
     0
1001
ACAD_MLEADERVER
1070
     2
  0
MLINESTYLE
  5
5F
102
{ACAD_REACTORS
330
5E
102
}
330
5E
100
AcDbMlineStyle
  2
STANDARD
 70
     0
  3

 62
   256
 51
90.0
 52
90.0
 71
     2
 49
0.5
 62
   256
  6
BYLAYER
 49
-0.5
 62
   256
  6
BYLAYER
  0
ACDBPLACEHOLDER
  5
F
102
{ACAD_REACTORS
330
E
102
}
330
E
  0
SCALE
  5
43
102
{ACAD_REACTORS
330
42
102
}
330
42
100
AcDbScale
 70
     0
300
1:1
140
1.0
141
1.0
290
     1
  0
SCALE
  5
44
102
{ACAD_REACTORS
330
42
102
}
330
42
100
AcDbScale
 70
     0
300
1/128" = 1'-0"
140
0.0078125
141
12.0
290
     0
  0
SCALE
  5
45
102
{ACAD_REACTORS
330
42
102
}
330
42
100
AcDbScale
 70
     0
300
1/64" = 1'-0"
140
0.015625
141
12.0
290
     0
  0
SCALE
  5
46
102
{ACAD_REACTORS
330
42
102
}
330
42
100
AcDbScale
 70
     0
300
1/32" = 1'-0"
140
0.03125
141
12.0
290
     0
  0
SCALE
  5
47
102
{ACAD_REACTORS
330
42
102
}
330
42
100
AcDbScale
 70
     0
300
1/16" = 1'-0"
140
0.0625
141
12.0
290
     0
  0
SCALE
  5
48
102
{ACAD_REACTORS
330
42
102
}
330
42
100
AcDbScale
 70
     0
300
3/32" = 1'-0"
140
0.09375
141
12.0
290
     0
  0
SCALE
  5
49
102
{ACAD_REACTORS
330
42
102
}
330
42
100
AcDbScale
 70
     0
300
1/8" = 1'-0"
140
0.125
141
12.0
290
     0
  0
SCALE
  5
4A
102
{ACAD_REACTORS
330
42
102
}
330
42
100
AcDbScale
 70
     0
300
3/16" = 1'-0"
140
0.1875
141
12.0
290
     0
  0
SCALE
  5
4B
102
{ACAD_REACTORS
330
42
102
}
330
42
100
AcDbScale
 70
     0
300
1/4" = 1'-0"
140
0.25
141
12.0
290
     0
  0
SCALE
  5
4C
102
{ACAD_REACTORS
330
42
102
}
330
42
100
AcDbScale
 70
     0
300
3/8" = 1'-0"
140
0.375
141
12.0
290
     0
  0
SCALE
  5
4D
102
{ACAD_REACTORS
330
42
102
}
330
42
100
AcDbScale
 70
     0
300
1/2" = 1'-0"
140
0.5
141
12.0
290
     0
  0
SCALE
  5
4E
102
{ACAD_REACTORS
330
42
102
}
330
42
100
AcDbScale
 70
     0
300
3/4" = 1'-0"
140
0.75
141
12.0
290
     0
  0
SCALE
  5
4F
102
{ACAD_REACTORS
330
42
102
}
330
42
100
AcDbScale
 70
     0
300
1" = 1'-0"
140
1.0
141
12.0
290
     0
  0
SCALE
  5
50
102
{ACAD_REACTORS
330
42
102
}
330
42
100
AcDbScale
 70
     0
300
1-1/2" = 1'-0"
140
1.5
141
12.0
290
     0
  0
SCALE
  5
51
102
{ACAD_REACTORS
330
42
102
}
330
42
100
AcDbScale
 70
     0
300
3" = 1'-0"
140
3.0
141
12.0
290
     0
  0
SCALE
  5
52
102
{ACAD_REACTORS
330
42
102
}
330
42
100
AcDbScale
 70
     0
300
6" = 1'-0"
140
6.0
141
12.0
290
     0
  0
SCALE
  5
53
102
{ACAD_REACTORS
330
42
102
}
330
42
100
AcDbScale
 70
     0
300
1'-0" = 1'-0"
140
12.0
141
12.0
290
     0
  0
ACDBSECTIONVIEWSTYLE
  5
68
102
{ACAD_REACTORS
330
67
102
}
330
67
100
AcDbModelDocViewStyle
 70
     0
  3
Imperial24
290
     0
300
Imperial24
 90
        0
100
AcDbSectionViewStyle
 70
     0
 71
     0
 90
       78
 71
     1
340
55
 62
   256
 40
0.24
340
0
340
0
 62
   256
 40
0.24
300
I, O, Q, S, X, Z
 40
0.48
 90
        3
 40
0.18
 90
        1
 71
     2
340
5C
 90
       25
 62
   256
340
5C
 90
       50
 62
   256
 40
0.24
 40
0.0
 40
0.24
 71
     3
340
55
 62
   256
 40
0.24
 90
        1
 40
0.75
 90
        1
300
%<\AcVar ViewType \f "%tc1">% %<\AcVar ViewSectionStartId>%-%<\AcVar ViewSectionEndId>%\PSCALE %<\AcVar ViewScale \f "%sn">%
 71
     4
 62
   256
 62
   257
300
ANSI31
 40
1.0
 90
        0
290
     0
290
     0
 90
        6
 40
0.0
 40
1.570796326794896
 40
0.2617993877991494
 40
1.308996938995747
 40
-0.2617993877991494
 40
1.832595714594045
  0
ACDBSECTIONVIEWSTYLE
  5
590
102
{ACAD_REACTORS
330
67
102
}
330
67
100
AcDbModelDocViewStyle
 70
     0
  3
Metric50
290
     0
300
Metric50
 90
        0
100
AcDbSectionViewStyle
 70
     0
 71
     0
 90
      102
 71
     1
340
55
 62
   256
 40
5.0
340
0
340
0
 62
   256
 40
5.0
300
I, O, Q, S, X, Z
 40
10.0
 90
        0
 40
2.5
 90
        0
 71
     2
340
5C
 90
       25
 62
   256
340
5C
 90
       50
 62
   256
 40
5.0
 40
2.5
 40
5.0
 71
     3
340
55
 62
   256
 40
5.0
 90
        0
 40
15.0
 90
        1
300
%<\AcVar ViewSectionStartId>%-%<\AcVar ViewSectionEndId>% (%<\AcVar ViewScale \f "%sn">%)
 71
     4
 62
   256
 62
   257
300
ANSI31
 40
1.0
 90
        0
290
     0
290
     0
 90
        6
 40
0.0
 40
1.570796326794896
 40
0.2617993877991494
 40
1.308996938995747
 40
-0.2617993877991494
 40
1.832595714594045
  0
TABLESTYLE
  5
64
102
{ACAD_XDICTIONARY
360
5B1
102
}
102
{ACAD_REACTORS
330
63
102
}
330
63
100
AcDbTableStyle
280
     0
  3
Standard
 70
     0
 71
     0
 40
0.06
 41
0.06
280
     0
281
     0
  7
STANDARD
140
0.18
170
     2
 62
     0
 63
     7
283
     0
 90
      512
 91
        0
  1

274
    -2
284
     1
 64
     0
275
    -2
285
     1
 65
     0
276
    -2
286
     1
 66
     0
277
    -2
287
     1
 67
     0
278
    -2
288
     1
 68
     0
279
    -2
289
     1
 69
     0
  7
STANDARD
140
0.25
170
     5
 62
     0
 63
     7
283
     0
 90
      512
 91
        0
  1

274
    -2
284
     1
 64
     0
275
    -2
285
     1
 65
     0
276
    -2
286
     1
 66
     0
277
    -2
287
     1
 67
     0
278
    -2
288
     1
 68
     0
279
    -2
289
     1
 69
     0
  7
STANDARD
140
0.18
170
     5
 62
     0
 63
     7
283
     0
 90
      512
 91
        0
  1

274
    -2
284
     1
 64
     0
275
    -2
285
     1
 65
     0
276
    -2
286
     1
 66
     0
277
    -2
287
     1
 67
     0
278
    -2
288
     1
 68
     0
279
    -2
289
     1
 69
     0
  0
VISUALSTYLE
  5
2F
102
{ACAD_REACTORS
330
29
102
}
330
29
100
AcDbVisualStyle
  2

 70
     4
177
     3
291
     0
 70
    58
 90
        0
176
     1
 90
        2
176
     1
 90
        0
176
     1
 90
        0
176
     1
 40
0.6
176
     1
 40
30.0
176
     1
 62
     7
176
     1
 90
        1
176
     1
 90
        4
176
     1
 62
     7
176
     1
 62
   257
176
     1
 90
        1
176
     1
 90
        1
176
     1
 40
1.0
176
     1
 90
        0
176
     1
 62
   257
176
     1
 40
1.0
176
     1
 90
        1
176
     1
 90
        6
176
     1
 90
        2
176
     1
 62
     7
176
     1
 90
        5
176
     1
 90
        0
176
     1
 90
        0
176
     1
290
     0
176
     1
 90
        1
176
     1
 40
0.0
176
     1
 90
        0
176
     1
290
     1
176
     1
290
     1
176
     1
290
     0
176
     1
290
     0
176
     1
290
     0
176
     1
290
     0
176
     1
290
     0
176
     1
290
     0
176
     1
290
     0
176
     1
 90
       50
176
     1
 40
0.0
176
     1
 40
1.0
176
     1
 90
        0
176
     1
 62
    18
420
        0
176
     1
 90
       50
176
     1
 90
        3
176
     1
 62
     5
420
      255
176
     1
290
     0
176
     1
 90
       50
176
     1
 90
       50
176
     1
 90
       50
176
     1
290
     0
176
     1
 90
       50
176
     1
 62
   256
176
     0
 40
1.0
176
     0
 90
        2
176
     1
  1
strokes_ogs.tif
176
     1
290
     0
176
     1
 40
1.0
176
     1
 40
1.0
176
     1
1001
ACAD
1000
AcDbSavedByObjectVersion
1070
     0
  0
VISUALSTYLE
  5
2E
102
{ACAD_REACTORS
330
29
102
}
330
29
100
AcDbVisualStyle
  2

 70
     7
177
     3
291
     1
 70
    58
 90
        1
176
     1
 90
        0
176
     1
 90
        1
176
     1
 90
        0
176
     1
 40
0.6
176
     1
 40
30.0
176
     1
 62
     7
176
     1
 90
        0
176
     1
 90
        4
176
     1
 62
     7
176
     1
 62
   257
176
     1
 90
        1
176
     1
 90
        1
176
     1
 40
1.0
176
     1
 90
        8
176
     1
 62
     7
176
     1
 40
1.0
176
     1
 90
        1
176
     1
 90
        6
176
     1
 90
        2
176
     1
 62
     7
176
     1
 90
        5
176
     1
 90
        0
176
     1
 90
        0
176
     1
290
     0
176
     1
 90
        1
176
     1
 40
0.0
176
     1
 90
        0
176
     1
290
     0
176
     1
290
     1
176
     1
290
     1
176
     1
290
     0
176
     1
290
     0
176
     1
290
     0
176
     1
290
     0
176
     1
290
     0
176
     1
290
     0
176
     1
 90
       50
176
     1
 40
0.0
176
     1
 40
1.0
176
     1
 90
        0
176
     1
 62
    18
420
        0
176
     1
 90
       50
176
     1
 90
        3
176
     1
 62
     5
420
      255
176
     1
290
     0
176
     1
 90
       50
176
     1
 90
       50
176
     1
 90
       50
176
     1
290
     0
176
     1
 90
       50
176
     1
 62
   256
176
     0
 40
1.0
176
     0
 90
        2
176
     1
  1
strokes_ogs.tif
176
     1
290
     0
176
     1
 40
1.0
176
     1
 40
1.0
176
     1
1001
ACAD
1000
AcDbSavedByObjectVersion
1070
     0
  0
VISUALSTYLE
  5
35
102
{ACAD_REACTORS
330
29
102
}
330
29
100
AcDbVisualStyle
  2

 70
    12
177
     3
291
     1
 70
    58
 90
        2
176
     1
 90
        2
176
     1
 90
        0
176
     1
 90
        0
176
     1
 40
0.6
176
     1
 40
30.0
176
     1
 62
     7
176
     1
 90
        1
176
     1
 90
        4
176
     1
 62
     7
176
     1
 62
   257
176
     1
 90
        1
176
     1
 90
        1
176
     1
 40
1.0
176
     1
 90
        8
176
     1
 62
     7
176
     1
 40
1.0
176
     1
 90
        1
176
     1
 90
        6
176
     1
 90
        2
176
     1
 62
     7
176
     1
 90
        5
176
     1
 90
        0
176
     1
 90
        0
176
     1
290
     0
176
     1
 90
        1
176
     1
 40
50.0
176
     1
 90
        0
176
     1
290
     0
176
     1
290
     1
176
     1
290
     1
176
     1
290
     0
176
     1
290
     0
176
     1
290
     0
176
     1
290
     0
176
     1
290
     0
176
     1
290
     0
176
     1
 90
       50
176
     1
 40
0.0
176
     1
 40
1.0
176
     1
 90
        0
176
     1
 62
    18
420
        0
176
     1
 90
       50
176
     1
 90
        3
176
     1
 62
     5
420
      255
176
     1
290
     0
176
     1
 90
       50
176
     1
 90
       50
176
     1
 90
       50
176
     1
290
     0
176
     1
 90
       50
176
     1
 62
   256
176
     0
 40
1.0
176
     0
 90
        2
176
     1
  1
strokes_ogs.tif
176
     1
290
     0
176
     1
 40
1.0
176
     1
 40
1.0
176
     1
1001
ACAD
1000
AcDbSavedByObjectVersion
1070
     0
  0
VISUALSTYLE
  5
39
102
{ACAD_REACTORS
330
29
102
}
330
29
100
AcDbVisualStyle
  2

 70
    16
177
     3
291
     1
 70
    58
 90
        2
176
     1
 90
        2
176
     1
 90
        3
176
     1
 90
        0
176
     1
 40
0.6
176
     1
 40
30.0
176
     1
 62
     8
176
     1
 90
        1
176
     1
 90
        4
176
     1
 62
     7
176
     1
 62
   257
176
     1
 90
        1
176
     1
 90
        1
176
     1
 40
1.0
176
     1
 90
        8
176
     1
 62
     8
176
     1
 40
1.0
176
     1
 90
        1
176
     1
 90
        6
176
     1
 90
        2
176
     1
 62
     7
176
     1
 90
        5
176
     1
 90
        0
176
     1
 90
        0
176
     1
290
     0
176
     1
 90
        1
176
     1
 40
0.0
176
     1
 90
        0
176
     1
290
     0
176
     1
290
     1
176
     1
290
     1
176
     1
290
     0
176
     1
290
     0
176
     1
290
     0
176
     1
290
     0
176
     1
290
     0
176
     1
290
     0
176
     1
 90
       50
176
     1
 40
0.0
176
     1
 40
1.0
176
     1
 90
        0
176
     1
 62
    18
420
        0
176
     1
 90
       50
176
     1
 90
        3
176
     1
 62
     5
420
      255
176
     1
290
     0
176
     1
 90
       50
176
     1
 90
       50
176
     1
 90
       50
176
     1
290
     0
176
     1
 90
       50
176
     1
 62
   256
176
     0
 40
1.0
176
     0
 90
        2
176
     1
  1
strokes_ogs.tif
176
     1
290
     0
176
     1
 40
1.0
176
     1
 40
1.0
176
     1
1001
ACAD
1000
AcDbSavedByObjectVersion
1070
     0
  0
VISUALSTYLE
  5
32
102
{ACAD_REACTORS
330
29
102
}
330
29
100
AcDbVisualStyle
  2

 70
     9
177
     3
291
     0
 70
    58
 90
        3
176
     1
 90
        2
176
     1
 90
        0
176
     1
 90
        0
176
     1
 40
0.6
176
     1
 40
30.0
176
     1
 62
     7
176
     1
 90
        2
176
     1
 90
        2
176
     1
 62
     7
176
     1
 62
   257
176
     1
 90
        1
176
     1
 90
        1
176
     1
 40
179.0
176
     1
 90
        8
176
     1
 62
     7
176
     1
 40
1.0
176
     1
 90
        1
176
     1
 90
        6
176
     1
 90
        2
176
     1
 62
     7
176
     1
 90
        3
176
     1
 90
        0
176
     1
 90
        0
176
     1
290
     0
176
     1
 90
        1
176
     1
 40
0.0
176
     1
 90
        0
176
     1
290
     0
176
     1
290
     1
176
     1
290
     1
176
     1
290
     0
176
     1
290
     0
176
     1
290
     0
176
     1
290
     0
176
     1
290
     0
176
     1
290
     0
176
     1
 90
       50
176
     1
 40
0.0
176
     1
 40
1.0
176
     1
 90
        0
176
     1
 62
    18
420
        0
176
     1
 90
       50
176
     1
 90
        3
176
     1
 62
     5
420
      255
176
     1
290
     0
176
     1
 90
       50
176
     1
 90
       50
176
     1
 90
       50
176
     1
290
     0
176
     1
 90
       50
176
     1
 62
   256
176
     0
 40
1.0
176
     0
 90
        2
176
     1
  1
strokes_ogs.tif
176
     1
290
     0
176
     1
 40
1.0
176
     1
 40
1.0
176
     1
1001
ACAD
1000
AcDbSavedByObjectVersion
1070
     0
  0
VISUALSTYLE
  5
34
102
{ACAD_REACTORS
330
29
102
}
330
29
100
AcDbVisualStyle
  2

 70
    11
177
     3
291
     1
 70
    58
 90
        2
176
     1
 90
        2
176
     1
 90
        0
176
     1
 90
        0
176
     1
 40
0.6
176
     1
 40
30.0
176
     1
 62
     7
176
     1
 90
        1
176
     1
 90
        4
176
     1
 62
     7
176
     1
 62
   257
176
     1
 90
        1
176
     1
 90
        1
176
     1
 40
1.0
176
     1
 90
        8
176
     1
 62
     7
176
     1
 40
1.0
176
     1
 90
        1
176
     1
 90
        6
176
     1
 90
        2
176
     1
 62
     7
176
     1
 90
        5
176
     1
 90
        0
176
     1
 90
        0
176
     1
290
     0
176
     1
 90
        1
176
     1
 40
-50.0
176
     1
 90
        0
176
     1
290
     0
176
     1
290
     1
176
     1
290
     1
176
     1
290
     0
176
     1
290
     0
176
     1
290
     0
176
     1
290
     0
176
     1
290
     0
176
     1
290
     0
176
     1
 90
       50
176
     1
 40
0.0
176
     1
 40
1.0
176
     1
 90
        0
176
     1
 62
    18
420
        0
176
     1
 90
       50
176
     1
 90
        3
176
     1
 62
     5
420
      255
176
     1
290
     0
176
     1
 90
       50
176
     1
 90
       50
176
     1
 90
       50
176
     1
290
     0
176
     1
 90
       50
176
     1
 62
   256
176
     0
 40
1.0
176
     0
 90
        2
176
     1
  1
strokes_ogs.tif
176
     1
290
     0
176
     1
 40
1.0
176
     1
 40
1.0
176
     1
1001
ACAD
1000
AcDbSavedByObjectVersion
1070
     0
  0
VISUALSTYLE
  5
41
102
{ACAD_REACTORS
330
29
102
}
330
29
100
AcDbVisualStyle
  2

 70
    22
177
     3
291
     1
 70
    58
 90
        2
176
     0
 90
        2
176
     0
 90
        0
176
     0
 90
        0
176
     0
 40
0.6
176
     0
 40
30.0
176
     0
 62
     7
176
     0
 90
        1
176
     0
 90
        4
176
     0
 62
     7
176
     0
 62
   257
176
     0
 90
        1
176
     0
 90
        1
176
     0
 40
1.0
176
     0
 90
        8
176
     2
 62
     7
176
     0
 40
1.0
176
     0
 90
        1
176
     0
 90
        6
176
     0
 90
        2
176
     0
 62
     7
176
     0
 90
        5
176
     0
 90
        0
176
     0
 90
        0
176
     0
290
     0
176
     0
 90
        1
176
     0
 40
0.0
176
     0
 90
        0
176
     0
290
     0
176
     1
290
     1
176
     1
290
     1
176
     1
290
     0
176
     1
290
     0
176
     1
290
     0
176
     1
290
     0
176
     1
290
     0
176
     1
290
     0
176
     1
 90
       50
176
     0
 40
0.0
176
     0
 40
1.0
176
     0
 90
        0
176
     0
 62
    18
420
        0
176
     0
 90
       50
176
     0
 90
        3
176
     0
 62
     5
420
      255
176
     0
290
     0
176
     1
 90
       50
176
     0
 90
       50
176
     0
 90
       50
176
     0
290
     0
176
     1
 90
       50
176
     0
 62
   256
176
     0
 40
1.0
176
     0
 90
        2
176
     0
  1
strokes_ogs.tif
176
     0
290
     0
176
     1
 40
1.0
176
     0
 40
1.0
176
     0
1001
ACAD
1000
AcDbSavedByObjectVersion
1070
     0
  0
VISUALSTYLE
  5
38
102
{ACAD_REACTORS
330
29
102
}
330
29
100
AcDbVisualStyle
  2

 70
    15
177
     3
291
     1
 70
    58
 90
        2
176
     1
 90
        2
176
     1
 90
        0
176
     1
 90
        0
176
     1
 40
0.6
176
     1
 40
30.0
176
     1
 62
     7
176
     1
 90
        1
176
     1
 90
        4
176
     1
 62
     7
176
     1
 62
   257
176
     1
 90
        1
176
     1
 90
        1
176
     1
 40
1.0
176
     1
 90
        8
176
     1
 62
     7
176
     1
 40
1.0
176
     1
 90
        1
176
     1
 90
        6
176
     1
 90
        2
176
     1
 62
     7
176
     1
 90
        5
176
     1
 90
        0
176
     1
 90
        0
176
     1
290
     0
176
     1
 90
        1
176
     1
 40
0.0
176
     1
 90
        0
176
     1
290
     0
176
     1
290
     1
176
     1
290
     1
176
     1
290
     0
176
     1
290
     0
176
     1
290
     0
176
     1
290
     0
176
     1
290
     0
176
     1
290
     0
176
     1
 90
       50
176
     1
 40
0.0
176
     1
 40
1.0
176
     1
 90
        0
176
     1
 62
    18
420
        0
176
     1
 90
       50
176
     1
 90
        3
176
     1
 62
     5
420
      255
176
     1
290
     0
176
     1
 90
       50
176
     1
 90
       50
176
     1
 90
       50
176
     1
290
     0
176
     1
 90
       50
176
     1
 62
   256
176
     0
 40
1.0
176
     0
 90
        2
176
     1
  1
strokes_ogs.tif
176
     1
290
     0
176
     1
 40
1.0
176
     1
 40
1.0
176
     1
1001
ACAD
1000
AcDbSavedByObjectVersion
1070
     0
  0
VISUALSTYLE
  5
2A
102
{ACAD_REACTORS
330
29
102
}
330
29
100
AcDbVisualStyle
  2

 70
     0
177
     3
291
     1
 70
    58
 90
        2
176
     1
 90
        1
176
     1
 90
        1
176
     1
 90
        2
176
     1
 40
0.6
176
     1
 40
30.0
176
     1
 62
     7
176
     1
 90
        0
176
     1
 90
        0
176
     1
 62
     7
176
     1
 62
   257
176
     1
 90
        1
176
     1
 90
        1
176
     1
 40
1.0
176
     1
 90
        8
176
     1
 62
     7
176
     1
 40
1.0
176
     1
 90
        1
176
     1
 90
        6
176
     1
 90
        2
176
     1
 62
     7
176
     1
 90
        5
176
     1
 90
        0
176
     1
 90
        0
176
     1
290
     0
176
     1
 90
       13
176
     1
 40
0.0
176
     1
 90
        0
176
     1
290
     0
176
     1
290
     1
176
     1
290
     1
176
     1
290
     0
176
     1
290
     0
176
     1
290
     0
176
     1
290
     0
176
     1
290
     0
176
     1
290
     0
176
     1
 90
       50
176
     1
 40
0.0
176
     1
 40
1.0
176
     1
 90
        0
176
     1
 62
    18
420
        0
176
     1
 90
       50
176
     1
 90
        3
176
     1
 62
     5
420
      255
176
     1
290
     0
176
     1
 90
       50
176
     1
 90
       50
176
     1
 90
       50
176
     1
290
     0
176
     1
 90
       50
176
     1
 62
   256
176
     0
 40
1.0
176
     0
 90
        2
176
     1
  1
strokes_ogs.tif
176
     1
290
     0
176
     1
 40
1.0
176
     1
 40
1.0
176
     1
1001
ACAD
1000
AcDbSavedByObjectVersion
1070
     0
  0
VISUALSTYLE
  5
2B
102
{ACAD_REACTORS
330
29
102
}
330
29
100
AcDbVisualStyle
  2

 70
     1
177
     3
291
     1
 70
    58
 90
        2
176
     1
 90
        1
176
     1
 90
        1
176
     1
 90
        2
176
     1
 40
0.6
176
     1
 40
30.0
176
     1
 62
     7
176
     1
 90
        1
176
     1
 90
        0
176
     1
 62
     7
176
     1
 62
   257
176
     1
 90
        1
176
     1
 90
        1
176
     1
 40
1.0
176
     1
 90
        0
176
     1
 62
   257
176
     1
 40
1.0
176
     1
 90
        1
176
     1
 90
        6
176
     1
 90
        2
176
     1
 62
     7
176
     1
 90
        5
176
     1
 90
        0
176
     1
 90
        0
176
     1
290
     0
176
     1
 90
       13
176
     1
 40
0.0
176
     1
 90
        0
176
     1
290
     0
176
     1
290
     1
176
     1
290
     1
176
     1
290
     0
176
     1
290
     0
176
     1
290
     0
176
     1
290
     0
176
     1
290
     0
176
     1
290
     0
176
     1
 90
       50
176
     1
 40
0.0
176
     1
 40
1.0
176
     1
 90
        0
176
     1
 62
    18
420
        0
176
     1
 90
       50
176
     1
 90
        3
176
     1
 62
     5
420
      255
176
     1
290
     0
176
     1
 90
       50
176
     1
 90
       50
176
     1
 90
       50
176
     1
290
     0
176
     1
 90
       50
176
     1
 62
   256
176
     0
 40
1.0
176
     0
 90
        2
176
     1
  1
strokes_ogs.tif
176
     1
290
     0
176
     1
 40
1.0
176
     1
 40
1.0
176
     1
1001
ACAD
1000
AcDbSavedByObjectVersion
1070
     0
  0
VISUALSTYLE
  5
2C
102
{ACAD_REACTORS
330
29
102
}
330
29
100
AcDbVisualStyle
  2

 70
     2
177
     3
291
     1
 70
    58
 90
        2
176
     1
 90
        2
176
     1
 90
        1
176
     1
 90
        2
176
     1
 40
0.6
176
     1
 40
30.0
176
     1
 62
     7
176
     1
 90
        0
176
     1
 90
        0
176
     1
 62
     7
176
     1
 62
   257
176
     1
 90
        1
176
     1
 90
        1
176
     1
 40
1.0
176
     1
 90
        0
176
     1
 62
     7
176
     1
 40
1.0
176
     1
 90
        1
176
     1
 90
        6
176
     1
 90
        2
176
     1
 62
     7
176
     1
 90
        5
176
     1
 90
        0
176
     1
 90
        0
176
     1
290
     0
176
     1
 90
       13
176
     1
 40
0.0
176
     1
 90
        0
176
     1
290
     0
176
     1
290
     1
176
     1
290
     1
176
     1
290
     0
176
     1
290
     0
176
     1
290
     0
176
     1
290
     0
176
     1
290
     0
176
     1
290
     0
176
     1
 90
       50
176
     1
 40
0.0
176
     1
 40
1.0
176
     1
 90
        0
176
     1
 62
    18
420
        0
176
     1
 90
       50
176
     1
 90
        3
176
     1
 62
     5
420
      255
176
     1
290
     0
176
     1
 90
       50
176
     1
 90
       50
176
     1
 90
       50
176
     1
290
     0
176
     1
 90
       50
176
     1
 62
   256
176
     0
 40
1.0
176
     0
 90
        2
176
     1
  1
strokes_ogs.tif
176
     1
290
     0
176
     1
 40
1.0
176
     1
 40
1.0
176
     1
1001
ACAD
1000
AcDbSavedByObjectVersion
1070
     0
  0
VISUALSTYLE
  5
2D
102
{ACAD_REACTORS
330
29
102
}
330
29
100
AcDbVisualStyle
  2

 70
     3
177
     3
291
     1
 70
    58
 90
        2
176
     1
 90
        2
176
     1
 90
        1
176
     1
 90
        2
176
     1
 40
0.6
176
     1
 40
30.0
176
     1
 62
     7
176
     1
 90
        1
176
     1
 90
        0
176
     1
 62
     7
176
     1
 62
   257
176
     1
 90
        1
176
     1
 90
        1
176
     1
 40
1.0
176
     1
 90
        0
176
     1
 62
   257
176
     1
 40
1.0
176
     1
 90
        1
176
     1
 90
        6
176
     1
 90
        2
176
     1
 62
     7
176
     1
 90
        5
176
     1
 90
        0
176
     1
 90
        0
176
     1
290
     0
176
     1
 90
       13
176
     1
 40
0.0
176
     1
 90
        0
176
     1
290
     0
176
     1
290
     1
176
     1
290
     1
176
     1
290
     0
176
     1
290
     0
176
     1
290
     0
176
     1
290
     0
176
     1
290
     0
176
     1
290
     0
176
     1
 90
       50
176
     1
 40
0.0
176
     1
 40
1.0
176
     1
 90
        0
176
     1
 62
    18
420
        0
176
     1
 90
       50
176
     1
 90
        3
176
     1
 62
     5
420
      255
176
     1
290
     0
176
     1
 90
       50
176
     1
 90
       50
176
     1
 90
       50
176
     1
290
     0
176
     1
 90
       50
176
     1
 62
   256
176
     0
 40
1.0
176
     0
 90
        2
176
     1
  1
strokes_ogs.tif
176
     1
290
     0
176
     1
 40
1.0
176
     1
 40
1.0
176
     1
1001
ACAD
1000
AcDbSavedByObjectVersion
1070
     0
  0
VISUALSTYLE
  5
31
102
{ACAD_REACTORS
330
29
102
}
330
29
100
AcDbVisualStyle
  2

 70
     6
177
     3
291
     0
 70
    58
 90
        1
176
     1
 90
        2
176
     1
 90
        2
176
     1
 90
        0
176
     1
 40
0.6
176
     1
 40
30.0
176
     1
 62
     7
176
     1
 90
        2
176
     1
 90
        2
176
     1
 62
     7
176
     1
 62
   257
176
     1
 90
        2
176
     1
 90
        1
176
     1
 40
40.0
176
     1
 90
        0
176
     1
 62
   257
176
     1
 40
1.0
176
     1
 90
        1
176
     1
 90
        6
176
     1
 90
        2
176
     1
 62
     7
176
     1
 90
        3
176
     1
 90
        0
176
     1
 90
        0
176
     1
290
     0
176
     1
 90
        1
176
     1
 40
0.0
176
     1
 90
        0
176
     1
290
     0
176
     1
290
     1
176
     1
290
     1
176
     1
290
     0
176
     1
290
     0
176
     1
290
     0
176
     1
290
     0
176
     1
290
     0
176
     1
290
     0
176
     1
 90
       50
176
     1
 40
0.0
176
     1
 40
1.0
176
     1
 90
        0
176
     1
 62
    18
420
        0
176
     1
 90
       50
176
     1
 90
        3
176
     1
 62
     5
420
      255
176
     1
290
     0
176
     1
 90
       50
176
     1
 90
       50
176
     1
 90
       50
176
     1
290
     0
176
     1
 90
       50
176
     1
 62
   256
176
     0
 40
1.0
176
     0
 90
        2
176
     1
  1
strokes_ogs.tif
176
     1
290
     0
176
     1
 40
1.0
176
     1
 40
1.0
176
     1
1001
ACAD
1000
AcDbSavedByObjectVersion
1070
     0
  0
VISUALSTYLE
  5
3F
102
{ACAD_REACTORS
330
29
102
}
330
29
100
AcDbVisualStyle
  2

 70
    20
177
     3
291
     1
 70
    58
 90
        2
176
     0
 90
        2
176
     0
 90
        0
176
     0
 90
        0
176
     0
 40
0.6
176
     0
 40
30.0
176
     0
 62
     7
176
     0
 90
        1
176
     0
 90
        4
176
     0
 62
     7
176
     0
 62
   257
176
     0
 90
        1
176
     0
 90
        1
176
     0
 40
1.0
176
     0
 90
       10
176
     2
 62
     7
176
     0
 40
1.0
176
     0
 90
        1
176
     0
 90
        6
176
     0
 90
        2
176
     0
 62
     7
176
     0
 90
        5
176
     0
 90
        0
176
     0
 90
        0
176
     0
290
     0
176
     0
 90
        1
176
     0
 40
0.0
176
     0
 90
        0
176
     0
290
     0
176
     1
290
     1
176
     1
290
     1
176
     1
290
     0
176
     1
290
     0
176
     1
290
     0
176
     1
290
     0
176
     1
290
     0
176
     1
290
     0
176
     1
 90
       50
176
     0
 40
0.0
176
     0
 40
1.0
176
     0
 90
        0
176
     0
 62
    18
420
        0
176
     0
 90
       50
176
     0
 90
        3
176
     0
 62
     5
420
      255
176
     0
290
     0
176
     1
 90
       50
176
     0
 90
       50
176
     0
 90
       50
176
     0
290
     0
176
     1
 90
       50
176
     0
 62
   256
176
     0
 40
1.0
176
     0
 90
        2
176
     0
  1
strokes_ogs.tif
176
     0
290
     0
176
     1
 40
1.0
176
     0
 40
1.0
176
     0
1001
ACAD
1000
AcDbSavedByObjectVersion
1070
     0
  0
VISUALSTYLE
  5
37
102
{ACAD_REACTORS
330
29
102
}
330
29
100
AcDbVisualStyle
  2

 70
    14
177
     3
291
     1
 70
    58
 90
        2
176
     1
 90
        2
176
     1
 90
        0
176
     1
 90
        0
176
     1
 40
0.6
176
     1
 40
30.0
176
     1
 62
     7
176
     1
 90
        1
176
     1
 90
        4
176
     1
 62
     7
176
     1
 62
   257
176
     1
 90
        7
176
     1
 90
        7
176
     1
 40
1.0
176
     1
 90
        8
176
     1
 62
     7
176
     1
 40
1.0
176
     1
 90
        1
176
     1
 90
        6
176
     1
 90
        2
176
     1
 62
     7
176
     1
 90
        5
176
     1
 90
        0
176
     1
 90
        0
176
     1
290
     0
176
     1
 90
        1
176
     1
 40
0.0
176
     1
 90
        0
176
     1
290
     0
176
     1
290
     1
176
     1
290
     1
176
     1
290
     0
176
     1
290
     0
176
     1
290
     0
176
     1
290
     0
176
     1
290
     0
176
     1
290
     0
176
     1
 90
       50
176
     1
 40
0.0
176
     1
 40
1.0
176
     1
 90
        0
176
     1
 62
    18
420
        0
176
     1
 90
       50
176
     1
 90
        3
176
     1
 62
     5
420
      255
176
     1
290
     0
176
     1
 90
       50
176
     1
 90
       50
176
     1
 90
       50
176
     1
290
     0
176
     1
 90
       50
176
     1
 62
   256
176
     0
 40
1.0
176
     0
 90
        2
176
     1
  1
strokes_ogs.tif
176
     1
290
     0
176
     1
 40
1.0
176
     1
 40
1.0
176
     1
1001
ACAD
1000
AcDbSavedByObjectVersion
1070
     0
  0
VISUALSTYLE
  5
40
102
{ACAD_REACTORS
330
29
102
}
330
29
100
AcDbVisualStyle
  2

 70
    21
177
     3
291
     1
 70
    58
 90
        2
176
     0
 90
        2
176
     0
 90
        0
176
     0
 90
        0
176
     0
 40
0.6
176
     0
 40
30.0
176
     0
 62
     7
176
     0
 90
        1
176
     0
 90
        4
176
     0
 62
     7
176
     0
 62
   257
176
     0
 90
        1
176
     0
 90
        1
176
     0
 40
1.0
176
     0
 90
        9
176
     2
 62
     7
176
     0
 40
1.0
176
     0
 90
        1
176
     0
 90
        6
176
     0
 90
        2
176
     0
 62
     7
176
     0
 90
        5
176
     0
 90
        0
176
     0
 90
        0
176
     0
290
     0
176
     0
 90
        1
176
     0
 40
0.0
176
     0
 90
        0
176
     0
290
     0
176
     1
290
     1
176
     1
290
     1
176
     1
290
     0
176
     1
290
     0
176
     1
290
     0
176
     1
290
     0
176
     1
290
     0
176
     1
290
     0
176
     1
 90
       50
176
     0
 40
0.0
176
     0
 40
1.0
176
     0
 90
        0
176
     0
 62
    18
420
        0
176
     0
 90
       50
176
     0
 90
        3
176
     0
 62
     5
420
      255
176
     0
290
     0
176
     1
 90
       50
176
     0
 90
       50
176
     0
 90
       50
176
     0
290
     0
176
     1
 90
       50
176
     0
 62
   256
176
     0
 40
1.0
176
     0
 90
        2
176
     0
  1
strokes_ogs.tif
176
     0
290
     0
176
     1
 40
1.0
176
     0
 40
1.0
176
     0
1001
ACAD
1000
AcDbSavedByObjectVersion
1070
     0
  0
VISUALSTYLE
  5
33
102
{ACAD_REACTORS
330
29
102
}
330
29
100
AcDbVisualStyle
  2

 70
     8
177
     3
291
     0
 70
    58
 90
        2
176
     1
 90
        3
176
     1
 90
        0
176
     1
 90
        2
176
     1
 40
0.6
176
     1
 40
30.0
176
     1
 62
     7
176
     1
 90
        0
176
     1
 90
        0
176
     1
 62
     7
176
     1
 62
   257
176
     1
 90
        1
176
     1
 90
        1
176
     1
 40
1.0
176
     1
 90
        8
176
     1
 62
   257
176
     1
 40
1.0
176
     1
 90
        1
176
     1
 90
        6
176
     1
 90
        2
176
     1
 62
     7
176
     1
 90
        3
176
     1
 90
        0
176
     1
 90
        0
176
     1
290
     0
176
     1
 90
       13
176
     1
 40
0.0
176
     1
 90
        0
176
     1
290
     0
176
     1
290
     1
176
     1
290
     1
176
     1
290
     0
176
     1
290
     0
176
     1
290
     0
176
     1
290
     0
176
     1
290
     0
176
     1
290
     0
176
     1
 90
       50
176
     1
 40
0.0
176
     1
 40
1.0
176
     1
 90
        0
176
     1
 62
    18
420
        0
176
     1
 90
       50
176
     1
 90
        3
176
     1
 62
     5
420
      255
176
     1
290
     0
176
     1
 90
       50
176
     1
 90
       50
176
     1
 90
       50
176
     1
290
     0
176
     1
 90
       50
176
     1
 62
   256
176
     0
 40
1.0
176
     0
 90
        2
176
     1
  1
strokes_ogs.tif
176
     1
290
     0
176
     1
 40
1.0
176
     1
 40
1.0
176
     1
1001
ACAD
1000
AcDbSavedByObjectVersion
1070
     0
  0
VISUALSTYLE
  5
3E
102
{ACAD_REACTORS
330
29
102
}
330
29
100
AcDbVisualStyle
  2

 70
    27
177
     3
291
     0
 70
    58
 90
        2
176
     1
 90
        2
176
     1
 90
        1
176
     1
 90
        2
176
     1
 40
0.6
176
     1
 40
30.0
176
     1
 62
     7
176
     1
 90
        0
176
     1
 90
        4
176
     1
 62
     7
176
     1
 62
   257
176
     1
 90
        1
176
     1
 90
        1
176
     1
 40
1.0
176
     1
 90
        8
176
     1
 62
   257
176
     1
 40
1.0
176
     1
 90
        1
176
     1
 90
        6
176
     1
 90
        2
176
     1
 62
     8
176
     1
 90
        3
176
     1
 90
        0
176
     1
 90
        0
176
     1
290
     0
176
     1
 90
        5
176
     1
 40
0.0
176
     1
 90
        0
176
     1
290
     0
176
     1
290
     1
176
     1
290
     1
176
     1
290
     0
176
     1
290
     0
176
     1
290
     0
176
     1
290
     0
176
     1
290
     0
176
     1
290
     0
176
     1
 90
       50
176
     1
 40
0.0
176
     1
 40
1.0
176
     1
 90
        0
176
     1
 62
    18
420
        0
176
     1
 90
       50
176
     1
 90
        3
176
     1
 62
     5
420
      255
176
     1
290
     0
176
     1
 90
       50
176
     1
 90
       50
176
     1
 90
       50
176
     1
290
     0
176
     1
 90
       50
176
     1
 62
   256
176
     0
 40
1.0
176
     0
 90
        2
176
     1
  1
strokes_ogs.tif
176
     1
290
     0
176
     1
 40
1.0
176
     1
 40
1.0
176
     1
1001
ACAD
1000
AcDbSavedByObjectVersion
1070
     0
  0
VISUALSTYLE
  5
3D
102
{ACAD_REACTORS
330
29
102
}
330
29
100
AcDbVisualStyle
  2

 70
    26
177
     3
291
     0
 70
    58
 90
        2
176
     1
 90
        2
176
     1
 90
        1
176
     1
 90
        2
176
     1
 40
0.6
176
     1
 40
30.0
176
     1
 62
     7
176
     1
 90
        1
176
     1
 90
        2
176
     1
 62
     7
176
     1
 62
   257
176
     1
 90
        2
176
     1
 90
        1
176
     1
 40
1.0
176
     1
 90
        8
176
     1
 62
   257
176
     1
 40
1.0
176
     1
 90
        1
176
     1
 90
        6
176
     1
 90
        2
176
     1
 62
     7
176
     1
 90
        3
176
     1
 90
        0
176
     1
 90
        0
176
     1
290
     0
176
     1
 90
        5
176
     1
 40
0.0
176
     1
 90
        0
176
     1
290
     0
176
     1
290
     1
176
     1
290
     1
176
     1
290
     0
176
     1
290
     0
176
     1
290
     0
176
     1
290
     0
176
     1
290
     0
176
     1
290
     0
176
     1
 90
       50
176
     1
 40
0.0
176
     1
 40
1.0
176
     1
 90
        0
176
     1
 62
    18
420
        0
176
     1
 90
       50
176
     1
 90
        3
176
     1
 62
     5
420
      255
176
     1
290
     0
176
     1
 90
       50
176
     1
 90
       50
176
     1
 90
       50
176
     1
290
     0
176
     1
 90
       50
176
     1
 62
   256
176
     0
 40
1.0
176
     0
 90
        2
176
     1
  1
strokes_ogs.tif
176
     1
290
     0
176
     1
 40
1.0
176
     1
 40
1.0
176
     1
1001
ACAD
1000
AcDbSavedByObjectVersion
1070
     0
  0
VISUALSTYLE
  5
3A
102
{ACAD_REACTORS
330
29
102
}
330
29
100
AcDbVisualStyle
  2

 70
    23
177
     3
291
     0
 70
    58
 90
        2
176
     1
 90
        2
176
     1
 90
        3
176
     1
 90
        0
176
     1
 40
0.6
176
     1
 40
30.0
176
     1
 62
     7
176
     1
 90
        2
176
     1
 90
        2
176
     1
 62
     7
176
     1
 62
     7
176
     1
 90
        1
176
     1
 90
        1
176
     1
 40
40.0
176
     1
 90
        8
176
     1
 62
     7
176
     1
 40
1.0
176
     1
 90
        1
176
     1
 90
        6
176
     1
 90
        2
176
     1
 62
     7
176
     1
 90
        3
176
     1
 90
        0
176
     1
 90
        0
176
     1
290
     0
176
     1
 90
        1
176
     1
 40
0.0
176
     1
 90
        0
176
     1
290
     0
176
     1
290
     1
176
     1
290
     1
176
     1
290
     0
176
     1
290
     0
176
     1
290
     0
176
     1
290
     0
176
     1
290
     0
176
     1
290
     0
176
     1
 90
       50
176
     1
 40
0.0
176
     1
 40
1.0
176
     1
 90
        0
176
     1
 62
    18
420
        0
176
     1
 90
       50
176
     1
 90
        3
176
     1
 62
     5
420
      255
176
     1
290
     0
176
     1
 90
       50
176
     1
 90
       50
176
     1
 90
       50
176
     1
290
     0
176
     1
 90
       50
176
     1
 62
   256
176
     0
 40
1.0
176
     0
 90
        2
176
     1
  1
strokes_ogs.tif
176
     1
290
     0
176
     1
 40
1.0
176
     1
 40
1.0
176
     1
1001
ACAD
1000
AcDbSavedByObjectVersion
1070
     0
  0
VISUALSTYLE
  5
3B
102
{ACAD_REACTORS
330
29
102
}
330
29
100
AcDbVisualStyle
  2

 70
    24
177
     3
291
     0
 70
    58
 90
        1
176
     1
 90
        2
176
     1
 90
        2
176
     1
 90
        0
176
     1
 40
0.6
176
     1
 40
30.0
176
     1
 62
     7
176
     1
 90
        2
176
     1
 90
        2
176
     1
 62
     7
176
     1
 62
     7
176
     1
 90
        1
176
     1
 90
        1
176
     1
 40
40.0
176
     1
 90
       11
176
     1
 62
     7
176
     1
 40
1.0
176
     1
 90
        1
176
     1
 90
        6
176
     1
 90
        2
176
     1
 62
     7
176
     1
 90
        6
176
     1
 90
        0
176
     1
 90
        0
176
     1
290
     0
176
     1
 90
        1
176
     1
 40
0.0
176
     1
 90
        0
176
     1
290
     0
176
     1
290
     1
176
     1
290
     1
176
     1
290
     0
176
     1
290
     0
176
     1
290
     0
176
     1
290
     0
176
     1
290
     0
176
     1
290
     0
176
     1
 90
       50
176
     1
 40
0.0
176
     1
 40
1.0
176
     1
 90
        0
176
     1
 62
    18
420
        0
176
     1
 90
       50
176
     1
 90
        3
176
     1
 62
     5
420
      255
176
     1
290
     0
176
     1
 90
       50
176
     1
 90
       50
176
     1
 90
       50
176
     1
290
     0
176
     1
 90
       50
176
     1
 62
   256
176
     0
 40
1.0
176
     0
 90
        2
176
     1
  1
strokes_ogs.tif
176
     1
290
     0
176
     1
 40
1.0
176
     1
 40
1.0
176
     1
1001
ACAD
1000
AcDbSavedByObjectVersion
1070
     0
  0
VISUALSTYLE
  5
36
102
{ACAD_REACTORS
330
29
102
}
330
29
100
AcDbVisualStyle
  2

 70
    13
177
     3
291
     1
 70
    58
 90
        2
176
     1
 90
        2
176
     1
 90
        0
176
     1
 90
        0
176
     1
 40
0.6
176
     1
 40
30.0
176
     1
 62
     7
176
     1
 90
        1
176
     1
 90
        4
176
     1
 62
     7
176
     1
 62
   257
176
     1
 90
        1
176
     1
 90
        1
176
     1
 40
1.0
176
     1
 90
       12
176
     1
 62
     7
176
     1
 40
1.0
176
     1
 90
        1
176
     1
 90
        6
176
     1
 90
        2
176
     1
 62
     7
176
     1
 90
        5
176
     1
 90
        0
176
     1
 90
        0
176
     1
290
     0
176
     1
 90
        1
176
     1
 40
0.0
176
     1
 90
        0
176
     1
290
     0
176
     1
290
     1
176
     1
290
     1
176
     1
290
     0
176
     1
290
     0
176
     1
290
     0
176
     1
290
     0
176
     1
290
     0
176
     1
290
     0
176
     1
 90
       50
176
     1
 40
0.0
176
     1
 40
1.0
176
     1
 90
        0
176
     1
 62
    18
420
        0
176
     1
 90
       50
176
     1
 90
        3
176
     1
 62
     5
420
      255
176
     1
290
     0
176
     1
 90
       50
176
     1
 90
       50
176
     1
 90
       50
176
     1
290
     0
176
     1
 90
       50
176
     1
 62
   256
176
     0
 40
1.0
176
     0
 90
        2
176
     1
  1
strokes_ogs.tif
176
     1
290
     0
176
     1
 40
1.0
176
     1
 40
1.0
176
     1
1001
ACAD
1000
AcDbSavedByObjectVersion
1070
     0
  0
VISUALSTYLE
  5
30
102
{ACAD_REACTORS
330
29
102
}
330
29
100
AcDbVisualStyle
  2

 70
     5
177
     3
291
     0
 70
    58
 90
        0
176
     1
 90
        2
176
     1
 90
        0
176
     1
 90
        0
176
     1
 40
0.6
176
     1
 40
30.0
176
     1
 62
     7
176
     1
 90
        1
176
     1
 90
        4
176
     1
 62
     7
176
     1
 62
   257
176
     1
 90
        1
176
     1
 90
        1
176
     1
 40
1.0
176
     1
 90
        0
176
     1
 62
   257
176
     1
 40
1.0
176
     1
 90
        1
176
     1
 90
        6
176
     1
 90
        2
176
     1
 62
     7
176
     1
 90
        3
176
     1
 90
        0
176
     1
 90
        0
176
     1
290
     0
176
     1
 90
        1
176
     1
 40
0.0
176
     1
 90
        0
176
     1
290
     0
176
     1
290
     1
176
     1
290
     1
176
     1
290
     0
176
     1
290
     0
176
     1
290
     0
176
     1
290
     0
176
     1
290
     0
176
     1
290
     0
176
     1
 90
       50
176
     1
 40
0.0
176
     1
 40
1.0
176
     1
 90
        0
176
     1
 62
    18
420
        0
176
     1
 90
       50
176
     1
 90
        3
176
     1
 62
     5
420
      255
176
     1
290
     0
176
     1
 90
       50
176
     1
 90
       50
176
     1
 90
       50
176
     1
290
     0
176
     1
 90
       50
176
     1
 62
   256
176
     0
 40
1.0
176
     0
 90
        2
176
     1
  1
strokes_ogs.tif
176
     1
290
     0
176
     1
 40
1.0
176
     1
 40
1.0
176
     1
1001
ACAD
1000
AcDbSavedByObjectVersion
1070
     0
  0
VISUALSTYLE
  5
3C
102
{ACAD_REACTORS
330
29
102
}
330
29
100
AcDbVisualStyle
  2

 70
    25
177
     3
291
     0
 70
    58
 90
        2
176
     1
 90
        2
176
     1
 90
        1
176
     1
 90
        1
176
     1
 40
0.5
176
     1
 40
30.0
176
     1
 62
     7
176
     1
 90
        1
176
     1
 90
        0
176
     1
 62
     7
176
     1
 62
   257
176
     1
 90
        1
176
     1
 90
        1
176
     1
 40
1.0
176
     1
 90
        8
176
     1
 62
     7
176
     1
 40
1.0
176
     1
 90
        1
176
     1
 90
        6
176
     1
 90
        2
176
     1
 62
     7
176
     1
 90
        3
176
     1
 90
        0
176
     1
 90
        0
176
     1
290
     0
176
     1
 90
       13
176
     1
 40
0.0
176
     1
 90
        0
176
     1
290
     0
176
     1
290
     1
176
     1
290
     1
176
     1
290
     0
176
     1
290
     0
176
     1
290
     0
176
     1
290
     0
176
     1
290
     0
176
     1
290
     0
176
     1
 90
       50
176
     1
 40
0.0
176
     1
 40
1.0
176
     1
 90
        0
176
     1
 62
    18
420
        0
176
     1
 90
       50
176
     1
 90
        3
176
     1
 62
     5
420
      255
176
     1
290
     0
176
     1
 90
       50
176
     1
 90
       50
176
     1
 90
       50
176
     1
290
     0
176
     1
 90
       50
176
     1
 62
   256
176
     0
 40
1.0
176
     0
 90
        2
176
     1
  1
strokes_ogs.tif
176
     1
290
     0
176
     1
 40
1.0
176
     1
 40
1.0
176
     1
1001
ACAD
1000
AcDbSavedByObjectVersion
1070
     0
  0
DICTIONARYVAR
  5
5AB
102
{ACAD_REACTORS
330
5A6
102
}
330
5A6
100
DictionaryVariables
280
     0
  1
1:1
  0
DICTIONARYVAR
  5
5A8
102
{ACAD_REACTORS
330
5A6
102
}
330
5A6
100
DictionaryVariables
280
     0
  1
STANDARD
  0
DICTIONARYVAR
  5
5A7
102
{ACAD_REACTORS
330
5A6
102
}
330
5A6
100
DictionaryVariables
280
     0
  1
STANDARD
  0
DICTIONARYVAR
  5
5A9
102
{ACAD_REACTORS
330
5A6
102
}
330
5A6
100
DictionaryVariables
280
     0
  1
Imperial24
  0
DICTIONARYVAR
  5
5AA
102
{ACAD_REACTORS
330
5A6
102
}
330
5A6
100
DictionaryVariables
280
     0
  1
Imperial24
  0
DICTIONARYVAR
  5
5AE
102
{ACAD_REACTORS
330
5A6
102
}
330
5A6
100
DictionaryVariables
280
     0
  1
1
  0
DICTIONARYVAR
  5
5AD
102
{ACAD_REACTORS
330
5A6
102
}
330
5A6
100
DictionaryVariables
280
     0
  1
0
  0
DICTIONARYVAR
  5
5FF
102
{ACAD_REACTORS
330
5A6
102
}
330
5A6
100
DictionaryVariables
280
     0
  1
1
  0
DICTIONARYVAR
  5
600
102
{ACAD_REACTORS
330
5A6
102
}
330
5A6
100
DictionaryVariables
280
     0
  1
15
  0
DICTIONARYVAR
  5
5FE
102
{ACAD_REACTORS
330
5A6
102
}
330
5A6
100
DictionaryVariables
280
     0
  1
0
  0
DICTIONARYVAR
  5
5FD
102
{ACAD_REACTORS
330
5A6
102
}
330
5A6
100
DictionaryVariables
280
     0
  1
0
  0
DICTIONARYVAR
  5
5AC
102
{ACAD_REACTORS
330
5A6
102
}
330
5A6
100
DictionaryVariables
280
     0
  1
127
  0
DICTIONARY
  5
1A
330
19
100
AcDbDictionary
280
     1
281
     1
  3
ACAD_XREC_ROUNDTRIP
360
5B6
  3
BUMPTILE
360
1C
  3
DIFFUSETILE
360
1B
  3
OPACITYTILE
360
1F
  3
REFLECTIONTILE
360
1E
  3
REFRACTIONTILE
360
20
  3
SPECULARTILE
360
1D
  0
DICTIONARY
  5
12
330
11
100
AcDbDictionary
280
     1
281
     1
  3
ACAD_XREC_ROUNDTRIP
360
5B5
  3
BUMPTILE
360
14
  3
DIFFUSETILE
360
13
  3
OPACITYTILE
360
17
  3
REFLECTIONTILE
360
16
  3
REFRACTIONTILE
360
18
  3
SPECULARTILE
360
15
  0
DICTIONARY
  5
22
330
21
100
AcDbDictionary
280
     1
281
     1
  3
ACAD_XREC_ROUNDTRIP
360
5B7
  3
BUMPTILE
360
24
  3
DIFFUSETILE
360
23
  3
OPACITYTILE
360
27
  3
REFLECTIONTILE
360
26
  3
REFRACTIONTILE
360
28
  3
SPECULARTILE
360
25
  0
DICTIONARY
  5
5B1
330
64
100
AcDbDictionary
280
     1
281
     1
  3
ACAD_ROUNDTRIP_2008_TABLESTYLE_CELLSTYLEMAP
360
601
  0
XRECORD
  5
5B6
102
{ACAD_REACTORS
330
1A
102
}
330
1A
100
AcDbXrecord
280
     1
102
MATERIAL
148
0.0
149
0.0
149
0.0
 93
        0
 94
      127
282
     0
 72
     0
 77
     0
171
     0
175
     0
179
     0
273
     0
  0
XRECORD
  5
1C
102
{ACAD_REACTORS
330
1A
102
}
330
1A
100
AcDbXrecord
280
     1
270
     1
271
     1
  0
XRECORD
  5
1B
102
{ACAD_REACTORS
330
1A
102
}
330
1A
100
AcDbXrecord
280
     1
270
     1
271
     1
  0
XRECORD
  5
1F
102
{ACAD_REACTORS
330
1A
102
}
330
1A
100
AcDbXrecord
280
     1
270
     1
271
     1
  0
XRECORD
  5
1E
102
{ACAD_REACTORS
330
1A
102
}
330
1A
100
AcDbXrecord
280
     1
270
     1
271
     1
  0
XRECORD
  5
20
102
{ACAD_REACTORS
330
1A
102
}
330
1A
100
AcDbXrecord
280
     1
270
     1
271
     1
  0
XRECORD
  5
1D
102
{ACAD_REACTORS
330
1A
102
}
330
1A
100
AcDbXrecord
280
     1
270
     1
271
     1
  0
XRECORD
  5
5B5
102
{ACAD_REACTORS
330
12
102
}
330
12
100
AcDbXrecord
280
     1
102
MATERIAL
148
0.0
149
0.0
149
0.0
 93
        0
 94
      127
282
     0
 72
     0
 77
     0
171
     0
175
     0
179
     0
273
     0
  0
XRECORD
  5
14
102
{ACAD_REACTORS
330
12
102
}
330
12
100
AcDbXrecord
280
     1
270
     1
271
     1
  0
XRECORD
  5
13
102
{ACAD_REACTORS
330
12
102
}
330
12
100
AcDbXrecord
280
     1
270
     1
271
     1
  0
XRECORD
  5
17
102
{ACAD_REACTORS
330
12
102
}
330
12
100
AcDbXrecord
280
     1
270
     1
271
     1
  0
XRECORD
  5
16
102
{ACAD_REACTORS
330
12
102
}
330
12
100
AcDbXrecord
280
     1
270
     1
271
     1
  0
XRECORD
  5
18
102
{ACAD_REACTORS
330
12
102
}
330
12
100
AcDbXrecord
280
     1
270
     1
271
     1
  0
XRECORD
  5
15
102
{ACAD_REACTORS
330
12
102
}
330
12
100
AcDbXrecord
280
     1
270
     1
271
     1
  0
XRECORD
  5
5B7
102
{ACAD_REACTORS
330
22
102
}
330
22
100
AcDbXrecord
280
     1
102
MATERIAL
148
0.0
149
0.0
149
0.0
 93
        0
 94
      127
282
     0
 72
     0
 77
     0
171
     0
175
     0
179
     0
273
     0
  0
XRECORD
  5
24
102
{ACAD_REACTORS
330
22
102
}
330
22
100
AcDbXrecord
280
     1
270
     1
271
     1
  0
XRECORD
  5
23
102
{ACAD_REACTORS
330
22
102
}
330
22
100
AcDbXrecord
280
     1
270
     1
271
     1
  0
XRECORD
  5
27
102
{ACAD_REACTORS
330
22
102
}
330
22
100
AcDbXrecord
280
     1
270
     1
271
     1
  0
XRECORD
  5
26
102
{ACAD_REACTORS
330
22
102
}
330
22
100
AcDbXrecord
280
     1
270
     1
271
     1
  0
XRECORD
  5
28
102
{ACAD_REACTORS
330
22
102
}
330
22
100
AcDbXrecord
280
     1
270
     1
271
     1
  0
XRECORD
  5
25
102
{ACAD_REACTORS
330
22
102
}
330
22
100
AcDbXrecord
280
     1
270
     1
271
     1
  0
CELLSTYLEMAP
  5
601
102
{ACAD_REACTORS
330
5B1
102
}
330
5B1
100
AcDbCellStyleMap
 90
        3
300
CELLSTYLE
  1
TABLEFORMAT_BEGIN
 90
        5
170
     1
 91
        0
 92
    32768
 62
   257
 93
        1
300
CONTENTFORMAT
  1
CONTENTFORMAT_BEGIN
 90
        0
 91
        0
 92
      512
 93
        0
300

 40
0.0
140
1.0
 94
        5
 62
     0
340
55
144
0.25
309
CONTENTFORMAT_END
171
     1
301
MARGIN
  1
CELLMARGIN_BEGIN
 40
0.06
 40
0.06
 40
0.06
 40
0.06
 40
0.18
 40
0.18
309
CELLMARGIN_END
 94
        6
 95
        1
302
GRIDFORMAT
  1
GRIDFORMAT_BEGIN
 90
        0
 91
        1
 62
     0
 92
       -2
340
0
 93
        0
 40
0.045
309
GRIDFORMAT_END
 95
        2
302
GRIDFORMAT
  1
GRIDFORMAT_BEGIN
 90
        0
 91
        1
 62
     0
 92
       -2
340
0
 93
        0
 40
0.045
309
GRIDFORMAT_END
 95
        4
302
GRIDFORMAT
  1
GRIDFORMAT_BEGIN
 90
        0
 91
        1
 62
     0
 92
       -2
340
0
 93
        0
 40
0.045
309
GRIDFORMAT_END
 95
        8
302
GRIDFORMAT
  1
GRIDFORMAT_BEGIN
 90
        0
 91
        1
 62
     0
 92
       -2
340
0
 93
        0
 40
0.045
309
GRIDFORMAT_END
 95
       16
302
GRIDFORMAT
  1
GRIDFORMAT_BEGIN
 90
        0
 91
        1
 62
     0
 92
       -2
340
0
 93
        0
 40
0.045
309
GRIDFORMAT_END
 95
       32
302
GRIDFORMAT
  1
GRIDFORMAT_BEGIN
 90
        0
 91
        1
 62
     0
 92
       -2
340
0
 93
        0
 40
0.045
309
GRIDFORMAT_END
309
TABLEFORMAT_END
  1
CELLSTYLE_BEGIN
 90
        1
 91
        1
300
_TITLE
309
CELLSTYLE_END
300
CELLSTYLE
  1
TABLEFORMAT_BEGIN
 90
        5
170
     1
 91
        0
 92
        0
 62
   257
 93
        1
300
CONTENTFORMAT
  1
CONTENTFORMAT_BEGIN
 90
        0
 91
        0
 92
      512
 93
        0
300

 40
0.0
140
1.0
 94
        5
 62
     0
340
55
144
0.18
309
CONTENTFORMAT_END
171
     1
301
MARGIN
  1
CELLMARGIN_BEGIN
 40
0.06
 40
0.06
 40
0.06
 40
0.06
 40
0.18
 40
0.18
309
CELLMARGIN_END
 94
        6
 95
        1
302
GRIDFORMAT
  1
GRIDFORMAT_BEGIN
 90
        0
 91
        1
 62
     0
 92
       -2
340
0
 93
        0
 40
0.045
309
GRIDFORMAT_END
 95
        2
302
GRIDFORMAT
  1
GRIDFORMAT_BEGIN
 90
        0
 91
        1
 62
     0
 92
       -2
340
0
 93
        0
 40
0.045
309
GRIDFORMAT_END
 95
        4
302
GRIDFORMAT
  1
GRIDFORMAT_BEGIN
 90
        0
 91
        1
 62
     0
 92
       -2
340
0
 93
        0
 40
0.045
309
GRIDFORMAT_END
 95
        8
302
GRIDFORMAT
  1
GRIDFORMAT_BEGIN
 90
        0
 91
        1
 62
     0
 92
       -2
340
0
 93
        0
 40
0.045
309
GRIDFORMAT_END
 95
       16
302
GRIDFORMAT
  1
GRIDFORMAT_BEGIN
 90
        0
 91
        1
 62
     0
 92
       -2
340
0
 93
        0
 40
0.045
309
GRIDFORMAT_END
 95
       32
302
GRIDFORMAT
  1
GRIDFORMAT_BEGIN
 90
        0
 91
        1
 62
     0
 92
       -2
340
0
 93
        0
 40
0.045
309
GRIDFORMAT_END
309
TABLEFORMAT_END
  1
CELLSTYLE_BEGIN
 90
        2
 91
        1
300
_HEADER
309
CELLSTYLE_END
300
CELLSTYLE
  1
TABLEFORMAT_BEGIN
 90
        5
170
     1
 91
        0
 92
        0
 62
   257
 93
        1
300
CONTENTFORMAT
  1
CONTENTFORMAT_BEGIN
 90
        0
 91
        0
 92
      512
 93
        0
300

 40
0.0
140
1.0
 94
        2
 62
     0
340
55
144
0.18
309
CONTENTFORMAT_END
171
     1
301
MARGIN
  1
CELLMARGIN_BEGIN
 40
0.06
 40
0.06
 40
0.06
 40
0.06
 40
0.18
 40
0.18
309
CELLMARGIN_END
 94
        6
 95
        1
302
GRIDFORMAT
  1
GRIDFORMAT_BEGIN
 90
        0
 91
        1
 62
     0
 92
       -2
340
0
 93
        0
 40
0.045
309
GRIDFORMAT_END
 95
        2
302
GRIDFORMAT
  1
GRIDFORMAT_BEGIN
 90
        0
 91
        1
 62
     0
 92
       -2
340
0
 93
        0
 40
0.045
309
GRIDFORMAT_END
 95
        4
302
GRIDFORMAT
  1
GRIDFORMAT_BEGIN
 90
        0
 91
        1
 62
     0
 92
       -2
340
0
 93
        0
 40
0.045
309
GRIDFORMAT_END
 95
        8
302
GRIDFORMAT
  1
GRIDFORMAT_BEGIN
 90
        0
 91
        1
 62
     0
 92
       -2
340
0
 93
        0
 40
0.045
309
GRIDFORMAT_END
 95
       16
302
GRIDFORMAT
  1
GRIDFORMAT_BEGIN
 90
        0
 91
        1
 62
     0
 92
       -2
340
0
 93
        0
 40
0.045
309
GRIDFORMAT_END
 95
       32
302
GRIDFORMAT
  1
GRIDFORMAT_BEGIN
 90
        0
 91
        1
 62
     0
 92
       -2
340
0
 93
        0
 40
0.045
309
GRIDFORMAT_END
309
TABLEFORMAT_END
  1
CELLSTYLE_BEGIN
 90
        3
 91
        2
300
_DATA
309
CELLSTYLE_END
  0
ENDSEC
  0
EOF
