  0
SECTION
  2
HEADER
  9
$ACADVER
  1
AC1032
  9
$ACADMAINTVER
 90
      197
  9
$DWGCODEPAGE
  3
ANSI_932
  9
$LASTSAVEDBY
  1
hiro-ichiyama
  9
$REQUIREDVERSIONS
160
                 0
  9
$INSBASE
 10
0.0
 20
0.0
 30
0.0
  9
$EXTMIN
 10
33.25789717601344
 20
27.52034515181315
 30
0.0
  9
$EXTMAX
 10
793.5966754467925
 20
574.6750674359868
 30
0.0
  9
$LIMMIN
 10
0.0
 20
0.0
  9
$LIMMAX
 10
594.0
 20
841.0
  9
$ORTHOMODE
 70
     0
  9
$REGENMODE
 70
     1
  9
$FILLMODE
 70
     1
  9
$QTEXTMODE
 70
     0
  9
$MIRRTEXT
 70
     0
  9
$LTSCALE
 40
20.0
  9
$ATTMODE
 70
     1
  9
$TEXTSIZE
 40
4.0
  9
$TRACEWID
 40
0.05
  9
$TEXTSTYLE
  7
STANDARD
  9
$CLAYER
  8
0
  9
$CELTYPE
  6
CONTINUOUS
  9
$CECOLOR
 62
   256
  9
$CELTSCALE
 40
1.0
  9
$DISPSILH
 70
     0
  9
$DIMSCALE
 40
1.0
  9
$DIMASZ
 40
1.0
  9
$DIMEXO
 40
0.8
  9
$DIMDLI
 40
0.38
  9
$DIMRND
 40
0.0
  9
$DIMDLE
 40
0.0
  9
$DIMEXE
 40
1.0
  9
$DIMTP
 40
0.0
  9
$DIMTM
 40
0.0
  9
$DIMTXT
 40
3.1
  9
$DIMCEN
 40
0.09
  9
$DIMTSZ
 40
0.0
  9
$DIMTOL
 70
     0
  9
$DIMLIM
 70
     0
  9
$DIMTIH
 70
     0
  9
$DIMTOH
 70
     0
  9
$DIMSE1
 70
     0
  9
$DIMSE2
 70
     0
  9
$DIMTAD
 70
     1
  9
$DIMZIN
 70
     0
  9
$DIMBLK
  1

  9
$DIMASO
 70
     1
  9
$DIMSHO
 70
     1
  9
$DIMPOST
  1

  9
$DIMAPOST
  1

  9
$DIMALT
 70
     0
  9
$DIMALTD
 70
     2
  9
$DIMALTF
 40
25.4
  9
$DIMLFAC
 40
1.0
  9
$DIMTOFL
 70
     0
  9
$DIMTVP
 40
0.5
  9
$DIMTIX
 70
     0
  9
$DIMSOXD
 70
     0
  9
$DIMSAH
 70
     0
  9
$DIMBLK1
  1

  9
$DIMBLK2
  1

  9
$DIMSTYLE
  2
Standard
  9
$DIMCLRD
 70
     0
  9
$DIMCLRE
 70
     0
  9
$DIMCLRT
 70
     0
  9
$DIMTFAC
 40
1.0
  9
$DIMGAP
 40
0.09
  9
$DIMJUST
 70
     0
  9
$DIMSD1
 70
     0
  9
$DIMSD2
 70
     0
  9
$DIMTOLJ
 70
     1
  9
$DIMTZIN
 70
     0
  9
$DIMALTZ
 70
     0
  9
$DIMALTTZ
 70
     0
  9
$DIMUPT
 70
     0
  9
$DIMDEC
 70
     4
  9
$DIMTDEC
 70
     4
  9
$DIMALTU
 70
     2
  9
$DIMALTTD
 70
     2
  9
$DIMTXSTY
  7
STANDARD
  9
$DIMAUNIT
 70
     0
  9
$DIMADEC
 70
     0
  9
$DIMALTRND
 40
0.0
  9
$DIMAZIN
 70
     0
  9
$DIMDSEP
 70
    46
  9
$DIMATFIT
 70
     3
  9
$DIMFRAC
 70
     0
  9
$DIMLDRBLK
  1

  9
$DIMLUNIT
 70
     2
  9
$DIMLWD
 70
    -2
  9
$DIMLWE
 70
    -2
  9
$DIMTMOVE
 70
     0
  9
$DIMFXL
 40
1.0
  9
$DIMFXLON
 70
     0
  9
$DIMJOGANG
 40
0.7853981633974483
  9
$DIMTFILL
 70
     0
  9
$DIMTFILLCLR
 70
     0
  9
$DIMARCSYM
 70
     0
  9
$DIMLTYPE
  6

  9
$DIMLTEX1
  6

  9
$DIMLTEX2
  6

  9
$DIMTXTDIRECTION
 70
     0
  9
$LUNITS
 70
     2
  9
$LUPREC
 70
     4
  9
$SKETCHINC
 40
0.1
  9
$FILLETRAD
 40
0.0
  9
$AUNITS
 70
     0
  9
$AUPREC
 70
     0
  9
$MENU
  1
.
  9
$ELEVATION
 40
0.0
  9
$PELEVATION
 40
0.0
  9
$THICKNESS
 40
0.0
  9
$LIMCHECK
 70
     0
  9
$CHAMFERA
 40
0.0
  9
$CHAMFERB
 40
0.0
  9
$CHAMFERC
 40
0.0
  9
$CHAMFERD
 40
0.0
  9
$SKPOLY
 70
     0
  9
$TDCREATE
 40
2459009.467152778
  9
$TDUCREATE
 40
2459009.092152778
  9
$TDUPDATE
 40
2459991.666678241
  9
$TDUUPDATE
 40
2459991.291678241
  9
$TDINDWG
 40
0.0044791667
  9
$TDUSRTIMER
 40
0.0044791667
  9
$USRTIMER
 70
     1
  9
$ANGBASE
 50
0.0
  9
$ANGDIR
 70
     0
  9
$PDMODE
 70
     0
  9
$PDSIZE
 40
0.0
  9
$PLINEWID
 40
0.0
  9
$SPLFRAME
 70
     0
  9
$SPLINETYPE
 70
     6
  9
$SPLINESEGS
 70
     8
  9
$HANDSEED
  5
43E
  9
$SURFTAB1
 70
     6
  9
$SURFTAB2
 70
     6
  9
$SURFTYPE
 70
     6
  9
$SURFU
 70
     6
  9
$SURFV
 70
     6
  9
$UCSBASE
  2

  9
$UCSNAME
  2

  9
$UCSORG
 10
0.0
 20
0.0
 30
0.0
  9
$UCSXDIR
 10
1.0
 20
0.0
 30
0.0
  9
$UCSYDIR
 10
0.0
 20
1.0
 30
0.0
  9
$UCSORTHOREF
  2

  9
$UCSORTHOVIEW
 70
     0
  9
$UCSORGTOP
 10
0.0
 20
0.0
 30
0.0
  9
$UCSORGBOTTOM
 10
0.0
 20
0.0
 30
0.0
  9
$UCSORGLEFT
 10
0.0
 20
0.0
 30
0.0
  9
$UCSORGRIGHT
 10
0.0
 20
0.0
 30
0.0
  9
$UCSORGFRONT
 10
0.0
 20
0.0
 30
0.0
  9
$UCSORGBACK
 10
0.0
 20
0.0
 30
0.0
  9
$PUCSBASE
  2

  9
$PUCSNAME
  2

  9
$PUCSORG
 10
0.0
 20
0.0
 30
0.0
  9
$PUCSXDIR
 10
1.0
 20
0.0
 30
0.0
  9
$PUCSYDIR
 10
0.0
 20
1.0
 30
0.0
  9
$PUCSORTHOREF
  2

  9
$PUCSORTHOVIEW
 70
     0
  9
$PUCSORGTOP
 10
0.0
 20
0.0
 30
0.0
  9
$PUCSORGBOTTOM
 10
0.0
 20
0.0
 30
0.0
  9
$PUCSORGLEFT
 10
0.0
 20
0.0
 30
0.0
  9
$PUCSORGRIGHT
 10
0.0
 20
0.0
 30
0.0
  9
$PUCSORGFRONT
 10
0.0
 20
0.0
 30
0.0
  9
$PUCSORGBACK
 10
0.0
 20
0.0
 30
0.0
  9
$USERI1
 70
     0
  9
$USERI2
 70
     0
  9
$USERI3
 70
     0
  9
$USERI4
 70
     0
  9
$USERI5
 70
     0
  9
$USERR1
 40
0.0
  9
$USERR2
 40
0.0
  9
$USERR3
 40
0.0
  9
$USERR4
 40
0.0
  9
$USERR5
 40
0.0
  9
$WORLDVIEW
 70
     1
  9
$SHADEDGE
 70
     3
  9
$SHADEDIF
 70
    70
  9
$TILEMODE
 70
     1
  9
$MAXACTVP
 70
    64
  9
$PINSBASE
 10
0.0
 20
0.0
 30
0.0
  9
$PLIMCHECK
 70
     0
  9
$PEXTMIN
 10
1.000000000000000E+20
 20
1.000000000000000E+20
 30
1.000000000000000E+20
  9
$PEXTMAX
 10
-1.000000000000000E+20
 20
-1.000000000000000E+20
 30
-1.000000000000000E+20
  9
$PLIMMIN
 10
0.0
 20
0.0
  9
$PLIMMAX
 10
12.0
 20
9.0
  9
$UNITMODE
 70
     0
  9
$VISRETAIN
 70
     1
  9
$PLINEGEN
 70
     0
  9
$PSLTSCALE
 70
     1
  9
$TREEDEPTH
 70
  3020
  9
$CMLSTYLE
  2
Standard
  9
$CMLJUST
 70
     0
  9
$CMLSCALE
 40
1.0
  9
$PROXYGRAPHICS
 70
     1
  9
$MEASUREMENT
 70
     1
  9
$CELWEIGHT
370
    -1
  9
$ENDCAPS
280
     0
  9
$JOINSTYLE
280
     0
  9
$LWDISPLAY
290
     0
  9
$INSUNITS
 70
     0
  9
$HYPERLINKBASE
  1

  9
$STYLESHEET
  1

  9
$XEDIT
290
     1
  9
$CEPSNTYPE
380
     0
  9
$PSTYLEMODE
290
     1
  9
$FINGERPRINTGUID
  2
{7CF3E6DC-4995-C447-AA68-256EA0C20CEA}
  9
$VERSIONGUID
  2
{BCC0A04E-EBE5-8A4A-A7EE-19AE60E7B810}
  9
$EXTNAMES
290
     1
  9
$PSVPSCALE
 40
0.0
  9
$OLESTARTUP
290
     0
  9
$SORTENTS
280
   127
  9
$INDEXCTL
280
     0
  9
$HIDETEXT
280
     0
  9
$XCLIPFRAME
280
     2
  9
$HALOGAP
280
     0
  9
$OBSCOLOR
 70
   257
  9
$OBSLTYPE
280
     0
  9
$INTERSECTIONDISPLAY
280
     0
  9
$INTERSECTIONCOLOR
 70
   257
  9
$DIMASSOC
280
     1
  9
$PROJECTNAME
  1

  9
$CAMERADISPLAY
290
     0
  9
$LENSLENGTH
 40
50.0
  9
$CAMERAHEIGHT
 40
0.0
  9
$STEPSPERSEC
 40
2.0
  9
$STEPSIZE
 40
6.0
  9
$3DDWFPREC
 40
2.0
  9
$PSOLWIDTH
 40
0.25
  9
$PSOLHEIGHT
 40
4.0
  9
$LOFTANG1
 40
1.570796326794896
  9
$LOFTANG2
 40
1.570796326794896
  9
$LOFTMAG1
 40
0.0
  9
$LOFTMAG2
 40
0.0
  9
$LOFTPARAM
 70
     7
  9
$LOFTNORMALS
280
     1
  9
$LATITUDE
 40
37.795
  9
$LONGITUDE
 40
-122.394
  9
$NORTHDIRECTION
 40
0.0
  9
$TIMEZONE
 70
 -8000
  9
$LIGHTGLYPHDISPLAY
280
     1
  9
$TILEMODELIGHTSYNCH
280
     1
  9
$CMATERIAL
347
11
  9
$SOLIDHIST
280
     0
  9
$SHOWHIST
280
     1
  9
$DWFFRAME
280
     2
  9
$DGNFRAME
280
     0
  9
$REALWORLDSCALE
290
     1
  9
$INTERFERECOLOR
 62
     1
  9
$INTERFEREOBJVS
345
33
  9
$INTERFEREVPVS
346
30
  9
$CSHADOW
280
     0
  9
$SHADOWPLANELOCATION
 40
0.0
  0
ENDSEC
  0
SECTION
  2
CLASSES
  0
CLASS
  1
ACDBDICTIONARYWDFLT
  2
AcDbDictionaryWithDefault
  3
ObjectDBX Classes
 90
        0
 91
        1
280
     0
281
     0
  0
CLASS
  1
MATERIAL
  2
AcDbMaterial
  3
ObjectDBX Classes
 90
     1153
 91
        3
280
     0
281
     0
  0
CLASS
  1
VISUALSTYLE
  2
AcDbVisualStyle
  3
ObjectDBX Classes
 90
     4095
 91
       24
280
     0
281
     0
  0
CLASS
  1
SCALE
  2
AcDbScale
  3
ObjectDBX Classes
 90
     1153
 91
       17
280
     0
281
     0
  0
CLASS
  1
TABLESTYLE
  2
AcDbTableStyle
  3
ObjectDBX Classes
 90
     4095
 91
        1
280
     0
281
     0
  0
CLASS
  1
MLEADERSTYLE
  2
AcDbMLeaderStyle
  3
ACDB_MLEADERSTYLE_CLASS
 90
     4095
 91
        1
280
     0
281
     0
  0
CLASS
  1
ACDBSECTIONVIEWSTYLE
  2
AcDbSectionViewStyle
  3
ObjectDBX Classes
 90
     1025
 91
        2
280
     0
281
     0
  0
CLASS
  1
ACDBDETAILVIEWSTYLE
  2
AcDbDetailViewStyle
  3
ObjectDBX Classes
 90
     1025
 91
        2
280
     0
281
     0
  0
CLASS
  1
DICTIONARYVAR
  2
AcDbDictionaryVar
  3
ObjectDBX Classes
 90
        0
 91
       13
280
     0
281
     0
  0
CLASS
  1
CELLSTYLEMAP
  2
AcDbCellStyleMap
  3
ObjectDBX Classes
 90
     1152
 91
        2
280
     0
281
     0
  0
CLASS
  1
ACAD_EVALUATION_GRAPH
  2
AcDbEvalGraph
  3
ObjectDBX Classes
 90
     1153
 91
        6
280
     0
281
     0
  0
CLASS
  1
ACAECUSTOBJ
  2
AcAeEditorObj
  3
AcAeEditorObj
 90
     1024
 91
        3
280
     0
281
     0
  0
CLASS
  1
ACDB_DYNAMICBLOCKPURGEPREVENTER_VERSION
  2
AcDbDynamicBlockPurgePreventer
  3
ObjectDBX Classes
 90
     1153
 91
        3
280
     0
281
     0
  0
ENDSEC
  0
SECTION
  2
TABLES
  0
TABLE
  2
VPORT
  5
8
330
0
100
AcDbSymbolTable
 70
     1
  0
VPORT
  5
82
330
8
100
AcDbSymbolTableRecord
100
AcDbViewportTableRecord
  2
*Active
 70
     0
 10
0.0
 20
0.0
 11
1.0
 21
1.0
 12
503.6564229091732
 22
270.445655125794
 13
0.0
 23
0.0
 14
1.0
 24
1.0
 15
0.0
 25
0.0
 16
0.0
 26
0.0
 36
1.0
 17
0.0
 27
0.0
 37
0.0
 40
879.4705025697155
 41
2.295757575757575
 42
50.0
 43
0.0
 44
0.0
 50
0.0
 51
0.0
 71
     0
 72
   100
 73
     1
 74
     0
 75
     1
 76
     0
 77
     0
 78
     0
281
     0
 65
     1
110
0.0
120
0.0
130
0.0
111
1.0
121
0.0
131
0.0
112
0.0
122
1.0
132
0.0
 79
     0
146
0.0
348
2F
 60
     3
 61
     5
292
     1
282
     1
141
0.0
142
0.0
 63
   250
421
  3355443
1001
ACAD_NAV_VCDISPLAY
1070
     3
  0
ENDTAB
  0
TABLE
  2
LTYPE
  5
5
330
0
100
AcDbSymbolTable
 70
     4
  0
LTYPE
  5
5A
330
5
100
AcDbSymbolTableRecord
100
AcDbLinetypeTableRecord
  2
ByBlock
 70
     0
  3

 72
    65
 73
     0
 40
0.0
  0
LTYPE
  5
5B
330
5
100
AcDbSymbolTableRecord
100
AcDbLinetypeTableRecord
  2
ByLayer
 70
     0
  3

 72
    65
 73
     0
 40
0.0
  0
LTYPE
  5
5C
330
5
100
AcDbSymbolTableRecord
100
AcDbLinetypeTableRecord
  2
CONTINUOUS
 70
     0
  3
Solid line (NEC CAE2D for Win R13.1 : 2016.06.20)
 72
    65
 73
     0
 40
0.0
  0
LTYPE
  5
73
330
5
100
AcDbSymbolTableRecord
100
AcDbLinetypeTableRecord
  2
HIDDEN
 70
     0
  3
__ __ __ __ __ __ __ __ __ __ __ __ __ __
 72
    65
 73
     2
 40
0.375
 49
0.25
 74
     0
 49
-0.125
 74
     0
  0
LTYPE
  5
74
330
5
100
AcDbSymbolTableRecord
100
AcDbLinetypeTableRecord
  2
CENTER
 70
     0
  3
____ _ ____ _ ____ _ ____ _ ____ _ ____
 72
    65
 73
     4
 40
2.0
 49
1.25
 74
     0
 49
-0.25
 74
     0
 49
0.25
 74
     0
 49
-0.25
 74
     0
  0
ENDTAB
  0
TABLE
  2
LAYER
  5
2
330
0
100
AcDbSymbolTable
 70
     8
  0
LAYER
  5
54
102
{ACAD_XDICTIONARY
360
382
102
}
330
2
100
AcDbSymbolTableRecord
100
AcDbLayerTableRecord
  2
0
 70
     0
 62
     7
  6
CONTINUOUS
370
    -3
390
F
347
21
348
0
  0
LAYER
  5
75
102
{ACAD_XDICTIONARY
360
384
102
}
330
2
100
AcDbSymbolTableRecord
100
AcDbLayerTableRecord
  2
LOUVER
 70
     0
 62
     4
  6
CONTINUOUS
370
    -3
390
F
347
21
348
0
  0
LAYER
  5
76
102
{ACAD_XDICTIONARY
360
386
102
}
330
2
100
AcDbSymbolTableRecord
100
AcDbLayerTableRecord
  2
UKEZAI
 70
     0
 62
     5
  6
CONTINUOUS
370
    -3
390
F
347
21
348
0
  0
LAYER
  5
77
102
{ACAD_XDICTIONARY
360
388
102
}
330
2
100
AcDbSymbolTableRecord
100
AcDbLayerTableRecord
  2
ANCHOR
 70
     0
 62
     2
  6
CONTINUOUS
370
    -3
390
F
347
21
348
0
  0
LAYER
  5
78
102
{ACAD_XDICTIONARY
360
38A
102
}
330
2
100
AcDbSymbolTableRecord
100
AcDbLayerTableRecord
  2
KUTAI
 70
     0
 62
     6
  6
CONTINUOUS
370
    -3
390
F
347
21
348
0
  0
LAYER
  5
79
102
{ACAD_XDICTIONARY
360
38C
102
}
330
2
100
AcDbSymbolTableRecord
100
AcDbLayerTableRecord
  2
WASHER
 70
     0
 62
     2
  6
CONTINUOUS
370
    -3
390
F
347
21
348
0
  0
LAYER
  5
7A
102
{ACAD_XDICTIONARY
360
38E
102
}
330
2
100
AcDbSymbolTableRecord
100
AcDbLayerTableRecord
  2
COMMENT
 70
     0
 62
     3
  6
CONTINUOUS
370
    -3
390
F
347
21
348
0
  0
LAYER
  5
7B
102
{ACAD_XDICTIONARY
360
390
102
}
330
2
100
AcDbSymbolTableRecord
100
AcDbLayerTableRecord
  2
WAKU
 70
     0
 62
     1
  6
CONTINUOUS
370
    -3
390
F
347
21
348
0
  0
ENDTAB
  0
TABLE
  2
STYLE
  5
3
330
0
100
AcDbSymbolTable
 70
     5
  0
STYLE
  5
55
330
3
100
AcDbSymbolTableRecord
100
AcDbTextStyleTableRecord
  2
STANDARD
 70
     0
 40
0.0
 41
1.0
 50
0.0
 71
     0
 42
4.0
  3
TXT
  4

  0
STYLE
  5
59
330
3
100
AcDbSymbolTableRecord
100
AcDbTextStyleTableRecord
  2
Annotative
 70
     0
 40
0.0
 41
1.0
 50
0.0
 71
     0
 42
0.2
  3
txt
  4

1001
AcadAnnotative
1000
AnnotativeData
1002
{
1070
     1
1070
     1
1002
}
  0
STYLE
  5
7D
330
3
100
AcDbSymbolTableRecord
100
AcDbTextStyleTableRecord
  2
ANKTATE
 70
     4
 40
0.0
 41
1.0
 50
0.0
 71
     0
 42
4.0
  3
TXT
  4

  0
STYLE
  5
7E
330
3
100
AcDbSymbolTableRecord
100
AcDbTextStyleTableRecord
  2
KNJYOKO
 70
     0
 40
0.0
 41
1.0
 50
0.0
 71
     0
 42
4.0
  3
TXT
  4
BIGFONT
  0
STYLE
  5
7F
330
3
100
AcDbSymbolTableRecord
100
AcDbTextStyleTableRecord
  2
KNJTATE
 70
     4
 40
0.0
 41
1.0
 50
0.0
 71
     0
 42
4.0
  3
TXT
  4
BIGFONT
  0
ENDTAB
  0
TABLE
  2
VIEW
  5
6
330
0
100
AcDbSymbolTable
 70
     0
  0
ENDTAB
  0
TABLE
  2
UCS
  5
7
330
0
100
AcDbSymbolTable
 70
     0
  0
ENDTAB
  0
TABLE
  2
APPID
  5
9
330
0
100
AcDbSymbolTable
 70
     8
  0
APPID
  5
56
330
9
100
AcDbSymbolTableRecord
100
AcDbRegAppTableRecord
  2
ACAD
 70
     0
  0
APPID
  5
5D
330
9
100
AcDbSymbolTableRecord
100
AcDbRegAppTableRecord
  2
AcadAnnotative
 70
     0
  0
APPID
  5
380
330
9
100
AcDbSymbolTableRecord
100
AcDbRegAppTableRecord
  2
ACAD_EXEMPT_FROM_CAD_STANDARDS
 70
     0
  0
APPID
  5
39C
330
9
100
AcDbSymbolTableRecord
100
AcDbRegAppTableRecord
  2
ACAD_NAV_VCDISPLAY
 70
     0
  0
APPID
  5
3D5
330
9
100
AcDbSymbolTableRecord
100
AcDbRegAppTableRecord
  2
ACAD_MLEADERVER
 70
     0
  0
APPID
  5
3F1
330
9
100
AcDbSymbolTableRecord
100
AcDbRegAppTableRecord
  2
ACAUTHENVIRON
 70
     0
  0
APPID
  5
3F6
330
9
100
AcDbSymbolTableRecord
100
AcDbRegAppTableRecord
  2
AcDbDynamicBlockTrueName
 70
     0
  0
APPID
  5
3F7
330
9
100
AcDbSymbolTableRecord
100
AcDbRegAppTableRecord
  2
AcDbDynamicBlockGUID
 70
     0
  0
ENDTAB
  0
TABLE
  2
DIMSTYLE
  5
A
330
0
100
AcDbSymbolTable
 70
     2
100
AcDbDimStyleTable
 71
     0
  0
DIMSTYLE
105
57
330
A
100
AcDbSymbolTableRecord
100
AcDbDimStyleTableRecord
  2
Standard
 70
     0
340
55
  0
DIMSTYLE
105
58
330
A
100
AcDbSymbolTableRecord
100
AcDbDimStyleTableRecord
  2
Annotative
 70
     0
340
55
1001
AcadAnnotative
1000
AnnotativeData
1002
{
1070
     1
1070
     1
1002
}
  0
ENDTAB
  0
TABLE
  2
BLOCK_RECORD
  5
1
330
0
100
AcDbSymbolTable
 70
    18
  0
BLOCK_RECORD
  5
6F
330
1
100
AcDbSymbolTableRecord
100
AcDbBlockTableRecord
  2
*Model_Space
340
72
 70
     0
280
     1
281
     0
  0
BLOCK_RECORD
  5
6B
330
1
100
AcDbSymbolTableRecord
100
AcDbBlockTableRecord
  2
*Paper_Space
340
6E
 70
     0
280
     1
281
     0
  0
BLOCK_RECORD
  5
83
330
1
100
AcDbSymbolTableRecord
100
AcDbBlockTableRecord
  2
M0
340
0
102
{BLKREFS
331
F6
102
}
 70
     0
280
     1
281
     0
  0
BLOCK_RECORD
  5
8C
102
{ACAD_XDICTIONARY
360
40E
102
}
330
1
100
AcDbSymbolTableRecord
100
AcDbBlockTableRecord
  2
M1
340
0
102
{BLKREFS
331
118
102
}
 70
     0
280
     1
281
     0
1001
AcDbDynamicBlockGUID
1000
{E489F6B2-8EBB-CB4D-B598-EBF7E6A22BE1}
  0
BLOCK_RECORD
  5
95
330
1
100
AcDbSymbolTableRecord
100
AcDbBlockTableRecord
  2
M2
340
0
102
{BLKREFS
331
119
102
}
 70
     0
280
     1
281
     0
  0
BLOCK_RECORD
  5
9D
330
1
100
AcDbSymbolTableRecord
100
AcDbBlockTableRecord
  2
M3
340
0
102
{BLKREFS
331
141
102
}
 70
     0
280
     1
281
     0
  0
BLOCK_RECORD
  5
A5
330
1
100
AcDbSymbolTableRecord
100
AcDbBlockTableRecord
  2
*X4
340
0
102
{BLKREFS
331
143
102
}
 70
     0
280
     1
281
     0
  0
BLOCK_RECORD
  5
B6
102
{ACAD_XDICTIONARY
360
428
102
}
330
1
100
AcDbSymbolTableRecord
100
AcDbBlockTableRecord
  2
M4
340
0
102
{BLKREFS
331
15A
102
}
 70
     0
280
     1
281
     0
1001
AcDbDynamicBlockGUID
1000
{9EEBBDE0-7510-8449-83ED-789E3F24CB25}
  0
BLOCK_RECORD
  5
C0
102
{ACAD_XDICTIONARY
360
3F2
102
}
330
1
100
AcDbSymbolTableRecord
100
AcDbBlockTableRecord
  2
M5
340
0
102
{BLKREFS
331
15B
102
}
 70
     0
280
     1
281
     0
1001
AcDbDynamicBlockGUID
1000
{72781A0D-F2D6-EB43-BD67-3F087DED376D}
  0
BLOCK_RECORD
  5
CA
330
1
100
AcDbSymbolTableRecord
100
AcDbBlockTableRecord
  2
M6
340
0
102
{BLKREFS
331
25A
102
}
 70
     0
280
     1
281
     0
  0
BLOCK_RECORD
  5
D3
330
1
100
AcDbSymbolTableRecord
100
AcDbBlockTableRecord
  2
M7
340
0
102
{BLKREFS
331
25B
102
}
 70
     0
280
     1
281
     0
  0
BLOCK_RECORD
  5
DC
330
1
100
AcDbSymbolTableRecord
100
AcDbBlockTableRecord
  2
M8
340
0
102
{BLKREFS
331
306
102
}
 70
     0
280
     1
281
     0
  0
BLOCK_RECORD
  5
E5
330
1
100
AcDbSymbolTableRecord
100
AcDbBlockTableRecord
  2
M9
340
0
102
{BLKREFS
331
307
102
}
 70
     0
280
     1
281
     0
  0
BLOCK_RECORD
  5
ED
330
1
100
AcDbSymbolTableRecord
100
AcDbBlockTableRecord
  2
M10
340
0
102
{BLKREFS
331
308
102
}
 70
     0
280
     1
281
     0
  0
ENDTAB
  0
ENDSEC
  0
SECTION
  2
BLOCKS
  0
BLOCK
  5
70
330
6F
100
AcDbEntity
  8
0
100
AcDbBlockBegin
  2
*Model_Space
 70
     0
 10
0.0
 20
0.0
 30
0.0
  3
*Model_Space
  1

  0
ENDBLK
  5
71
330
6F
100
AcDbEntity
  8
0
100
AcDbBlockEnd
  0
BLOCK
  5
6C
330
6B
100
AcDbEntity
 67
     1
  8
0
100
AcDbBlockBegin
  2
*Paper_Space
 70
     0
 10
0.0
 20
0.0
 30
0.0
  3
*Paper_Space
  1

  0
ENDBLK
  5
6D
330
6B
100
AcDbEntity
 67
     1
  8
0
100
AcDbBlockEnd
  0
BLOCK
  5
84
330
83
100
AcDbEntity
  8
COMMENT
  6
ByBlock
 62
     5
100
AcDbBlockBegin
  2
M0
 70
     0
 10
0.0
 20
0.0
 30
0.0
  3
M0
  1

  0
LINE
  5
85
330
83
100
AcDbEntity
  8
COMMENT
  6
ByBlock
 62
     0
100
AcDbLine
 10
0.0
 20
0.0
 30
0.0
 11
35.86049870042465
 21
26.23054414033999
 31
0.0
  0
LINE
  5
86
330
83
100
AcDbEntity
  8
COMMENT
  6
ByBlock
 62
     0
100
AcDbLine
 10
1.260022168911052
 20
1.66503578413886
 30
0.0
 11
0.0
 21
0.0
 31
0.0
  0
LINE
  5
87
330
83
100
AcDbEntity
  8
COMMENT
  6
ByBlock
 62
     0
100
AcDbLine
 10
0.0
 20
0.0
 30
0.0
 11
1.968478587887966
 21
0.6964855186124282
 31
0.0
  0
LINE
  5
88
330
83
100
AcDbEntity
  8
COMMENT
  6
ByBlock
 62
     0
100
AcDbLine
 10
35.86049870042464
 20
26.23054414033999
 30
0.0
 11
89.15049734143876
 21
26.23054414033999
 31
0.0
  0
TEXT
  5
89
330
83
100
AcDbEntity
  8
COMMENT
  6
ByBlock
 62
     0
100
AcDbText
 10
38.35049870042464
 20
26.73054414033999
 30
0.0
 40
4.0
  1
アンカープラグ%%c8×40
  7
KNJYOKO
100
AcDbText
  0
TEXT
  5
8A
330
83
100
AcDbEntity
  8
COMMENT
  6
ByBlock
 62
     0
100
AcDbText
 10
38.35049870042464
 20
21.73054414033999
 30
0.0
 40
4.0
  1
AP-840-D18-50
100
AcDbText
  0
ENDBLK
  5
8B
330
83
100
AcDbEntity
  8
COMMENT
  6
ByBlock
 62
     5
100
AcDbBlockEnd
  0
BLOCK
  5
8D
330
8C
100
AcDbEntity
  8
COMMENT
  6
ByBlock
 62
     5
100
AcDbBlockBegin
  2
M1
 70
     0
 10
0.0
 20
0.0
 30
0.0
  3
M1
  1

  0
LINE
  5
408
330
8C
100
AcDbEntity
  8
COMMENT
  6
ByBlock
 62
     0
100
AcDbLine
 10
0.0
 20
0.0
 30
0.0
 11
35.77869195894321
 21
27.66831044425135
 31
0.0
  0
LINE
  5
409
330
8C
100
AcDbEntity
  8
COMMENT
  6
ByBlock
 62
     0
100
AcDbLine
 10
1.215073545810432
 20
1.698115516353906
 30
0.0
 11
0.0
 21
0.0
 31
0.0
  0
LINE
  5
40A
330
8C
100
AcDbEntity
  8
COMMENT
  6
ByBlock
 62
     0
100
AcDbLine
 10
0.0
 20
0.0
 30
0.0
 11
1.949161701241918
 21
0.7488449045175773
 31
0.0
  0
LINE
  5
40B
330
8C
100
AcDbEntity
  8
COMMENT
  6
ByBlock
 62
     0
100
AcDbLine
 10
35.77869195894323
 20
27.66831044425135
 30
0.0
 11
102.5686902423295
 21
27.66831044425135
 31
0.0
  0
TEXT
  5
40C
330
8C
100
AcDbEntity
  8
COMMENT
  6
ByBlock
 62
     0
100
AcDbText
 10
38.26869195894323
 20
28.16831044425135
 30
0.0
 40
4.0
  1
シンワッシャー頭ドリルねじ4×40
  7
KNJYOKO
100
AcDbText
  0
TEXT
  5
40D
330
8C
100
AcDbEntity
  8
COMMENT
  6
ByBlock
 62
     0
100
AcDbText
 10
38.26869195894323
 20
23.16831044425135
 30
0.0
 40
4.0
  1
TBS-440-D18-50
100
AcDbText
  0
ENDBLK
  5
94
330
8C
100
AcDbEntity
  8
COMMENT
  6
ByBlock
 62
     5
100
AcDbBlockEnd
  0
BLOCK
  5
96
330
95
100
AcDbEntity
  8
COMMENT
  6
ByBlock
 62
     5
100
AcDbBlockBegin
  2
M2
 70
     0
 10
0.0
 20
0.0
 30
0.0
  3
M2
  1

  0
LINE
  5
97
330
95
100
AcDbEntity
  8
COMMENT
  6
ByBlock
 62
     0
100
AcDbLine
 10
0.0
 20
0.0
 30
0.0
 11
-13.36828320362884
 21
-22.18113904044327
 31
0.0
  0
LINE
  5
98
330
95
100
AcDbEntity
  8
COMMENT
  6
ByBlock
 62
     0
100
AcDbLine
 10
-0.5184881909116222
 20
-2.022664090870113
 30
0.0
 11
0.0
 21
0.0
 31
0.0
  0
LINE
  5
99
330
95
100
AcDbEntity
  8
COMMENT
  6
ByBlock
 62
     0
100
AcDbLine
 10
0.0
 20
0.0
 30
0.0
 11
-1.546259396061915
 21
-1.403239790164343
 31
0.0
  0
LINE
  5
9A
330
95
100
AcDbEntity
  8
COMMENT
  6
ByBlock
 62
     0
100
AcDbLine
 10
-13.36828320362884
 20
-22.18113904044327
 30
0.0
 11
-28.85828284600097
 21
-22.18113904044327
 31
0.0
  0
TEXT
  5
9B
330
95
100
AcDbEntity
  8
COMMENT
  6
ByBlock
 62
     0
100
AcDbText
 10
-28.85828284600097
 20
-21.68113904044327
 30
0.0
 40
4.0
  1
受け材
  7
KNJYOKO
100
AcDbText
  0
ENDBLK
  5
9C
330
95
100
AcDbEntity
  8
COMMENT
  6
ByBlock
 62
     5
100
AcDbBlockEnd
  0
BLOCK
  5
9E
330
9D
100
AcDbEntity
  8
COMMENT
  6
ByBlock
 62
     5
100
AcDbBlockBegin
  2
M3
 70
     0
 10
0.0
 20
0.0
 30
0.0
  3
M3
  1

  0
LINE
  5
9F
330
9D
100
AcDbEntity
  8
COMMENT
  6
ByBlock
 62
     0
100
AcDbLine
 10
0.0
 20
0.0
 30
0.0
 11
-25.46887471504397
 21
-14.91598911610524
 31
0.0
  0
LINE
  5
A0
330
9D
100
AcDbEntity
  8
COMMENT
  6
ByBlock
 62
     0
100
AcDbLine
 10
-1.422591633147098
 20
-1.528474099849292
 30
0.0
 11
0.0
 21
0.0
 31
0.0
  0
LINE
  5
A1
330
9D
100
AcDbEntity
  8
COMMENT
  6
ByBlock
 62
     0
100
AcDbLine
 10
0.0
 20
0.0
 30
0.0
 11
-2.02903014479557
 21
-0.4929875253199534
 31
0.0
  0
LINE
  5
A2
330
9D
100
AcDbEntity
  8
COMMENT
  6
ByBlock
 62
     0
100
AcDbLine
 10
-25.46887471504397
 20
-14.91598911610524
 30
0.0
 11
-60.66987558908646
 21
-14.91598911610524
 31
0.0
  0
TEXT
  5
A3
330
9D
100
AcDbEntity
  8
COMMENT
  6
ByBlock
 62
     0
100
AcDbText
 10
-60.66987558908646
 20
-14.41598911610524
 30
0.0
 40
3.099999904632568
  1
St t=1.6mm以上
  7
KNJYOKO
100
AcDbText
  0
ENDBLK
  5
A4
330
9D
100
AcDbEntity
  8
COMMENT
  6
ByBlock
 62
     5
100
AcDbBlockEnd
  0
BLOCK
  5
A6
330
A5
100
AcDbEntity
  8
KUTAI
  6
ByBlock
 62
    12
100
AcDbBlockBegin
  2
*X4
 70
     1
 10
0.0
 20
0.0
 30
0.0
  3
*X4
  1

  0
LINE
  5
A7
330
A5
100
AcDbEntity
  8
KUTAI
  6
ByBlock
 62
     0
100
AcDbLine
 10
212.7273721234332
 20
57.3364496096256
 30
0.0
 11
214.3273721234317
 21
58.93644960962367
 31
0.0
  0
LINE
  5
A8
330
A5
100
AcDbEntity
  8
KUTAI
  6
ByBlock
 62
     0
100
AcDbLine
 10
213.0509278357716
 20
56.24579175751659
 30
0.0
 11
214.3908846518858
 21
57.5857485750747
 31
0.0
  0
LINE
  5
A9
330
A5
100
AcDbEntity
  8
KUTAI
  6
ByBlock
 62
     0
100
AcDbLine
 10
212.7273721234332
 20
78.549653045222
 30
0.0
 11
214.3273721234304
 21
80.14965304521961
 31
0.0
  0
LINE
  5
AA
330
A5
100
AcDbEntity
  8
KUTAI
  6
ByBlock
 62
     0
100
AcDbLine
 10
241.1273721234334
 20
106.9496530452221
 30
0.0
 11
242.7273721234319
 21
108.5496530452207
 31
0.0
  0
LINE
  5
AB
330
A5
100
AcDbEntity
  8
KUTAI
  6
ByBlock
 62
     0
100
AcDbLine
 10
212.7273721234328
 20
77.13543948284784
 30
0.0
 11
214.3273721234318
 21
78.73543948284723
 31
0.0
  0
LINE
  5
AC
330
A5
100
AcDbEntity
  8
KUTAI
  6
ByBlock
 62
     0
100
AcDbLine
 10
241.1273721234338
 20
105.5354394828492
 30
0.0
 11
242.7273721234333
 21
107.1354394828488
 31
0.0
  0
LINE
  5
AD
330
A5
100
AcDbEntity
  8
KUTAI
  6
ByBlock
 62
     0
100
AcDbLine
 10
212.7273721234315
 20
99.76285648081656
 30
0.0
 11
214.3273721234309
 21
101.362856480816
 31
0.0
  0
LINE
  5
AE
330
A5
100
AcDbEntity
  8
KUTAI
  6
ByBlock
 62
     0
100
AcDbLine
 10
226.7009652522406
 20
113.7364496096257
 30
0.0
 11
228.3009652522401
 21
115.3364496096252
 31
0.0
  0
LINE
  5
AF
330
A5
100
AcDbEntity
  8
KUTAI
  6
ByBlock
 62
     0
100
AcDbLine
 10
212.7273721234324
 20
98.34864291844416
 30
0.0
 11
214.3273721234314
 21
99.94864291844272
 31
0.0
  0
LINE
  5
B0
330
A5
100
AcDbEntity
  8
KUTAI
  6
ByBlock
 62
     0
100
AcDbLine
 10
228.1151788146158
 20
113.7364496096272
 30
0.0
 11
229.7151788146125
 21
115.3364496096243
 31
0.0
  0
LINE
  5
B1
330
A5
100
AcDbEntity
  8
KUTAI
  6
ByBlock
 62
     0
100
AcDbLine
 10
231.9405755590291
 20
55.33644960962519
 30
0.0
 11
233.5405755590271
 21
56.93644960962279
 31
0.0
  0
LINE
  5
B2
330
A5
100
AcDbEntity
  8
KUTAI
  6
ByBlock
 62
     0
100
AcDbLine
 10
241.1273721234342
 20
64.52324617403023
 30
0.0
 11
241.9405755590264
 21
65.33644960962242
 31
0.0
  0
LINE
  5
B3
330
A5
100
AcDbEntity
  8
KUTAI
  6
ByBlock
 62
     0
100
AcDbLine
 10
233.3547891214029
 20
55.33644960962559
 30
0.0
 11
234.9547891214005
 21
56.93644960962322
 31
0.0
  0
LINE
  5
B4
330
A5
100
AcDbEntity
  8
KUTAI
  6
ByBlock
 62
     0
100
AcDbLine
 10
241.1273721234347
 20
63.10903261165694
 30
0.0
 11
242.727372123431
 21
64.70903261165367
 31
0.0
  0
ENDBLK
  5
B5
330
A5
100
AcDbEntity
  8
KUTAI
  6
ByBlock
 62
    12
100
AcDbBlockEnd
  0
BLOCK
  5
B7
330
B6
100
AcDbEntity
  8
COMMENT
  6
ByBlock
 62
     5
100
AcDbBlockBegin
  2
M4
 70
     0
 10
0.0
 20
0.0
 30
0.0
  3
M4
  1

  0
LINE
  5
421
330
B6
100
AcDbEntity
  8
COMMENT
  6
ByBlock
 62
     0
100
AcDbLine
 10
0.0
 20
0.0
 30
0.0
 11
-33.14674432593161
 21
16.06536613128855
 31
0.0
  0
LINE
  5
422
330
B6
100
AcDbEntity
  8
COMMENT
  6
ByBlock
 62
     0
100
AcDbLine
 10
-2.061439299576263
 20
0.3323673310852724
 30
0.0
 11
0.0
 21
0.0
 31
0.0
  0
LINE
  5
423
330
B6
100
AcDbEntity
  8
COMMENT
  6
ByBlock
 62
     0
100
AcDbLine
 10
0.0
 20
0.0
 30
0.0
 11
-1.538063605773698
 21
1.412218245599679
 31
0.0
  0
LINE
  5
424
330
B6
100
AcDbEntity
  8
COMMENT
  6
ByBlock
 62
     0
100
AcDbLine
 10
-33.14674432593165
 20
16.06536613128856
 30
0.0
 11
-90.9367428477365
 21
16.06536613128856
 31
0.0
  0
TEXT
  5
425
330
B6
100
AcDbEntity
  8
COMMENT
  6
ByBlock
 62
     0
100
AcDbText
 10
-90.9367428477365
 20
16.56536613128856
 30
0.0
 40
4.0
  1
脱落防止ねじ(両端2ヶ所)
  7
KNJYOKO
100
AcDbText
  0
TEXT
  5
426
330
B6
100
AcDbEntity
  8
COMMENT
  6
ByBlock
 62
     0
100
AcDbText
 10
-90.9367428477365
 20
11.56536613128856
 30
0.0
 40
4.0
  1
トラス頭ドリルねじ4×13
  7
KNJYOKO
100
AcDbText
  0
TEXT
  5
427
330
B6
100
AcDbEntity
  8
COMMENT
  6
ByBlock
 62
     0
100
AcDbText
 10
-90.9367428477365
 20
6.565366131288556
 30
0.0
 40
4.0
  1
TBT-413-100
100
AcDbText
  0
ENDBLK
  5
BF
330
B6
100
AcDbEntity
  8
COMMENT
  6
ByBlock
 62
     5
100
AcDbBlockEnd
  0
BLOCK
  5
C1
330
C0
100
AcDbEntity
  8
COMMENT
  6
ByBlock
 62
     5
100
AcDbBlockBegin
  2
M5
 70
     0
 10
0.0
 20
0.0
 30
0.0
  3
M5
  1

  0
LINE
  5
3EA
330
C0
100
AcDbEntity
  8
COMMENT
  6
ByBlock
 62
     0
100
AcDbLine
 10
0.0
 20
0.0
 30
0.0
 11
-33.14674432593161
 21
16.06536613128855
 31
0.0
  0
LINE
  5
3EB
330
C0
100
AcDbEntity
  8
COMMENT
  6
ByBlock
 62
     0
100
AcDbLine
 10
-2.061439299576263
 20
0.3323673310852724
 30
0.0
 11
0.0
 21
0.0
 31
0.0
  0
LINE
  5
3EC
330
C0
100
AcDbEntity
  8
COMMENT
  6
ByBlock
 62
     0
100
AcDbLine
 10
0.0
 20
0.0
 30
0.0
 11
-1.538063605773698
 21
1.412218245599679
 31
0.0
  0
LINE
  5
3ED
330
C0
100
AcDbEntity
  8
COMMENT
  6
ByBlock
 62
     0
100
AcDbLine
 10
-33.14674432593165
 20
16.06536613128856
 30
0.0
 11
-90.9367428477365
 21
16.06536613128856
 31
0.0
  0
TEXT
  5
3EE
330
C0
100
AcDbEntity
  8
COMMENT
  6
ByBlock
 62
     0
100
AcDbText
 10
-90.9367428477365
 20
16.56536613128856
 30
0.0
 40
4.0
  1
脱落防止ねじ(両端2ヶ所)
  7
KNJYOKO
100
AcDbText
  0
TEXT
  5
3EF
330
C0
100
AcDbEntity
  8
COMMENT
  6
ByBlock
 62
     0
100
AcDbText
 10
-90.9367428477365
 20
11.56536613128856
 30
0.0
 40
4.0
  1
トラス頭ドリルねじ4×13
  7
KNJYOKO
100
AcDbText
  0
TEXT
  5
3F0
330
C0
100
AcDbEntity
  8
COMMENT
  6
ByBlock
 62
     0
100
AcDbText
 10
-90.9367428477365
 20
6.565366131288556
 30
0.0
 40
4.0
  1
TBT-413-100
100
AcDbText
  0
ENDBLK
  5
C9
330
C0
100
AcDbEntity
  8
COMMENT
  6
ByBlock
 62
     5
100
AcDbBlockEnd
  0
BLOCK
  5
CB
330
CA
100
AcDbEntity
  8
COMMENT
  6
ByBlock
 62
     5
100
AcDbBlockBegin
  2
M6
 70
     0
 10
0.0
 20
0.0
 30
0.0
  3
M6
  1

  0
LINE
  5
CC
330
CA
100
AcDbEntity
  8
COMMENT
  6
ByBlock
 62
     0
100
AcDbLine
 10
0.0
 20
0.0
 30
0.0
 11
26.33461325939049
 21
15.40929525068481
 31
0.0
  0
LINE
  5
CD
330
CA
100
AcDbEntity
  8
COMMENT
  6
ByBlock
 62
     0
100
AcDbLine
 10
1.423184536854245
 20
1.52792205385916
 30
0.0
 11
0.0
 21
0.0
 31
0.0
  0
LINE
  5
CE
330
CA
100
AcDbEntity
  8
COMMENT
  6
ByBlock
 62
     0
100
AcDbLine
 10
0.0
 20
0.0
 30
0.0
 11
2.029221259254889
 21
0.4922002738705348
 31
0.0
  0
LINE
  5
CF
330
CA
100
AcDbEntity
  8
COMMENT
  6
ByBlock
 62
     0
100
AcDbLine
 10
26.33461325939049
 20
15.40929525068481
 30
0.0
 11
64.32461230571618
 21
15.40929525068481
 31
0.0
  0
TEXT
  5
D0
330
CA
100
AcDbEntity
  8
COMMENT
  6
ByBlock
 62
     0
100
AcDbText
 10
28.82461325939051
 20
15.90929525068481
 30
0.0
 40
4.0
  1
平座金　
  7
KNJYOKO
100
AcDbText
  0
TEXT
  5
D1
330
CA
100
AcDbEntity
  8
COMMENT
  6
ByBlock
 62
     0
100
AcDbText
 10
28.82461325939051
 20
10.90929525068481
 30
0.0
 40
4.0
  1
D18mm t2mm
100
AcDbText
  0
ENDBLK
  5
D2
330
CA
100
AcDbEntity
  8
COMMENT
  6
ByBlock
 62
     5
100
AcDbBlockEnd
  0
BLOCK
  5
D4
330
D3
100
AcDbEntity
  8
COMMENT
  6
ByBlock
 62
     5
100
AcDbBlockBegin
  2
M7
 70
     0
 10
0.0
 20
0.0
 30
0.0
  3
M7
  1

  0
LINE
  5
D5
330
D3
100
AcDbEntity
  8
COMMENT
  6
ByBlock
 62
     0
100
AcDbLine
 10
0.0
 20
0.0
 30
0.0
 11
25.35095050944776
 21
7.055905720190935
 31
0.0
  0
LINE
  5
D6
330
D3
100
AcDbEntity
  8
COMMENT
  6
ByBlock
 62
     0
100
AcDbLine
 10
1.765879536465918
 20
1.114302244142557
 30
0.0
 11
0.0
 21
0.0
 31
0.0
  0
LINE
  5
D7
330
D3
100
AcDbEntity
  8
COMMENT
  6
ByBlock
 62
     0
100
AcDbLine
 10
0.0
 20
0.0
 30
0.0
 11
2.087643783187163
 21
-0.0417547976909459
 31
0.0
  0
LINE
  5
D8
330
D3
100
AcDbEntity
  8
COMMENT
  6
ByBlock
 62
     0
100
AcDbLine
 10
25.35095050944776
 20
7.055905720190935
 30
0.0
 11
59.74094965114087
 21
7.055905720190935
 31
0.0
  0
TEXT
  5
D9
330
D3
100
AcDbEntity
  8
COMMENT
  6
ByBlock
 62
     0
100
AcDbText
 10
27.84095050944776
 20
7.555905720190935
 30
0.0
 40
4.0
  1
アルミルーバー
  7
KNJYOKO
100
AcDbText
  0
TEXT
  5
DA
330
D3
100
AcDbEntity
  8
COMMENT
  6
ByBlock
 62
     0
100
AcDbText
 10
27.84095050944776
 20
2.555905720190934
 30
0.0
 40
4.0
  1
CLKS-3015
100
AcDbText
  0
ENDBLK
  5
DB
330
D3
100
AcDbEntity
  8
COMMENT
  6
ByBlock
 62
     5
100
AcDbBlockEnd
  0
BLOCK
  5
DD
330
DC
100
AcDbEntity
  8
COMMENT
  6
ByBlock
 62
     5
100
AcDbBlockBegin
  2
M8
 70
     0
 10
0.0
 20
0.0
 30
0.0
  3
M8
  1

  0
LINE
  5
DE
330
DC
100
AcDbEntity
  8
COMMENT
  6
ByBlock
 62
     0
100
AcDbLine
 10
0.0
 20
0.0
 30
0.0
 11
25.35095050944776
 21
7.055905720190935
 31
0.0
  0
LINE
  5
DF
330
DC
100
AcDbEntity
  8
COMMENT
  6
ByBlock
 62
     0
100
AcDbLine
 10
1.765879536465918
 20
1.114302244142557
 30
0.0
 11
0.0
 21
0.0
 31
0.0
  0
LINE
  5
E0
330
DC
100
AcDbEntity
  8
COMMENT
  6
ByBlock
 62
     0
100
AcDbLine
 10
0.0
 20
0.0
 30
0.0
 11
2.087643783187163
 21
-0.0417547976909459
 31
0.0
  0
LINE
  5
E1
330
DC
100
AcDbEntity
  8
COMMENT
  6
ByBlock
 62
     0
100
AcDbLine
 10
25.35095050944776
 20
7.055905720190935
 30
0.0
 11
59.74094965114087
 21
7.055905720190935
 31
0.0
  0
TEXT
  5
E2
330
DC
100
AcDbEntity
  8
COMMENT
  6
ByBlock
 62
     0
100
AcDbText
 10
27.84095050944776
 20
7.555905720190935
 30
0.0
 40
4.0
  1
アルミルーバー
  7
KNJYOKO
100
AcDbText
  0
TEXT
  5
E3
330
DC
100
AcDbEntity
  8
COMMENT
  6
ByBlock
 62
     0
100
AcDbText
 10
27.84095050944776
 20
2.555905720190934
 30
0.0
 40
4.0
  1
CLKS-3015
100
AcDbText
  0
ENDBLK
  5
E4
330
DC
100
AcDbEntity
  8
COMMENT
  6
ByBlock
 62
     5
100
AcDbBlockEnd
  0
BLOCK
  5
E6
330
E5
100
AcDbEntity
  8
COMMENT
  6
ByBlock
 62
     5
100
AcDbBlockBegin
  2
M9
 70
     0
 10
0.0
 20
0.0
 30
0.0
  3
M9
  1

  0
LINE
  5
E7
330
E5
100
AcDbEntity
  8
COMMENT
  6
ByBlock
 62
     0
100
AcDbLine
 10
0.0
 20
0.0
 30
0.0
 11
-16.20167411900647
 21
-15.89604044985168
 31
0.0
  0
LINE
  5
E8
330
E5
100
AcDbEntity
  8
COMMENT
  6
ByBlock
 62
     0
100
AcDbLine
 10
-1.007409748029108
 20
-1.828968460139799
 30
0.0
 11
0.0
 21
0.0
 31
0.0
  0
LINE
  5
E9
330
E5
100
AcDbEntity
  8
COMMENT
  6
ByBlock
 62
     0
100
AcDbLine
 10
0.0
 20
0.0
 30
0.0
 11
-1.847820155939615
 21
-0.9723994549121908
 31
0.0
  0
LINE
  5
EA
330
E5
100
AcDbEntity
  8
COMMENT
  6
ByBlock
 62
     0
100
AcDbLine
 10
-16.20167411900647
 20
-15.89604044985168
 30
0.0
 11
-31.6916737613786
 21
-15.89604044985168
 31
0.0
  0
TEXT
  5
EB
330
E5
100
AcDbEntity
  8
COMMENT
  6
ByBlock
 62
     0
100
AcDbText
 10
-31.6916737613786
 20
-15.39604044985168
 30
0.0
 40
4.0
  1
受け材
  7
KNJYOKO
100
AcDbText
  0
ENDBLK
  5
EC
330
E5
100
AcDbEntity
  8
COMMENT
  6
ByBlock
 62
     5
100
AcDbBlockEnd
  0
BLOCK
  5
EE
330
ED
100
AcDbEntity
  8
COMMENT
  6
ByBlock
 62
     5
100
AcDbBlockBegin
  2
M10
 70
     0
 10
0.0
 20
0.0
 30
0.0
  3
M10
  1

  0
LINE
  5
EF
330
ED
100
AcDbEntity
  8
COMMENT
  6
ByBlock
 62
     0
100
AcDbLine
 10
0.0
 20
0.0
 30
0.0
 11
26.33461325939049
 21
15.40929525068481
 31
0.0
  0
LINE
  5
F0
330
ED
100
AcDbEntity
  8
COMMENT
  6
ByBlock
 62
     0
100
AcDbLine
 10
1.423184536854245
 20
1.52792205385916
 30
0.0
 11
0.0
 21
0.0
 31
0.0
  0
LINE
  5
F1
330
ED
100
AcDbEntity
  8
COMMENT
  6
ByBlock
 62
     0
100
AcDbLine
 10
0.0
 20
0.0
 30
0.0
 11
2.029221259254889
 21
0.4922002738705348
 31
0.0
  0
LINE
  5
F2
330
ED
100
AcDbEntity
  8
COMMENT
  6
ByBlock
 62
     0
100
AcDbLine
 10
26.33461325939049
 20
15.40929525068481
 30
0.0
 11
64.32461230571618
 21
15.40929525068481
 31
0.0
  0
TEXT
  5
F3
330
ED
100
AcDbEntity
  8
COMMENT
  6
ByBlock
 62
     0
100
AcDbText
 10
28.82461325939051
 20
15.90929525068481
 30
0.0
 40
4.0
  1
平座金　
  7
KNJYOKO
100
AcDbText
  0
TEXT
  5
F4
330
ED
100
AcDbEntity
  8
COMMENT
  6
ByBlock
 62
     0
100
AcDbText
 10
28.82461325939051
 20
10.90929525068481
 30
0.0
 40
4.0
  1
D18mm t2mm
100
AcDbText
  0
ENDBLK
  5
F5
330
ED
100
AcDbEntity
  8
COMMENT
  6
ByBlock
 62
     5
100
AcDbBlockEnd
  0
ENDSEC
  0
SECTION
  2
ENTITIES
  0
INSERT
  5
F6
330
6F
100
AcDbEntity
  8
COMMENT
  6
Continuous
100
AcDbBlockReference
  2
M0
 10
227.7273721234328
 20
378.1555691123021
 30
0.0
  0
LINE
  5
F7
330
6F
100
AcDbEntity
  8
WASHER
  6
HIDDEN
100
AcDbLine
 10
224.5273721234329
 20
372.2555691123014
 30
0.0
 11
224.5273721234329
 21
374.2555691122947
 31
0.0
  0
LINE
  5
F8
330
6F
100
AcDbEntity
  8
WASHER
  6
HIDDEN
100
AcDbLine
 10
230.9273721234328
 20
372.2555691123014
 30
0.0
 11
230.9273721234328
 21
374.2555691123081
 31
0.0
  0
LINE
  5
F9
330
6F
100
AcDbEntity
  8
KUTAI
  6
Continuous
100
AcDbLine
 10
269.0129803851768
 20
334.6987978358873
 30
0.0
 11
305.0697516615908
 21
370.7555691123014
 31
0.0
  0
LINE
  5
FA
330
6F
100
AcDbEntity
  8
KUTAI
  6
Continuous
100
AcDbLine
 10
261.9419125733111
 20
334.6987978358871
 30
0.0
 11
297.9986838497252
 21
370.7555691123013
 31
0.0
  0
LINE
  5
FB
330
6F
100
AcDbEntity
  8
KUTAI
  6
Continuous
100
AcDbLine
 10
254.8708447614457
 20
334.6987978358872
 30
0.0
 11
290.9276160378598
 21
370.7555691123013
 31
0.0
  0
LINE
  5
FC
330
6F
100
AcDbEntity
  8
KUTAI
  6
Continuous
100
AcDbLine
 10
133.4647851474592
 20
334.6987978358872
 30
0.0
 11
169.5215564238733
 21
370.7555691123013
 31
0.0
  0
LINE
  5
FD
330
6F
100
AcDbEntity
  8
KUTAI
  6
Continuous
100
AcDbLine
 10
126.3937173355936
 20
334.6987978358871
 30
0.0
 11
162.4504886120079
 21
370.7555691123013
 31
0.0
  0
LINE
  5
FE
330
6F
100
AcDbEntity
  8
KUTAI
  6
Continuous
100
AcDbLine
 10
119.3226495237282
 20
334.6987978358871
 30
0.0
 11
155.3794208001424
 21
370.7555691123013
 31
0.0
  0
LINE
  5
FF
330
6F
100
AcDbEntity
  8
KUTAI
  6
Continuous
100
AcDbLine
 10
117.4720475945935
 20
118.336449609626
 30
0.0
 11
319.6456117066339
 21
118.336449609626
 31
0.0
  0
LINE
  5
100
330
6F
100
AcDbEntity
  8
ANCHOR
  6
HIDDEN
100
AcDbLine
 10
222.2273721249208
 20
130.3364496097352
 30
0.0
 11
212.727372123592
 21
130.3364496097755
 31
0.0
  0
LINE
  5
101
330
6F
100
AcDbEntity
  8
ANCHOR
  6
HIDDEN
100
AcDbLine
 10
222.2273721254759
 20
126.3364496097352
 30
0.0
 11
212.7273721235764
 21
126.3364496097755
 31
0.0
  0
LINE
  5
102
330
6F
100
AcDbEntity
  8
ANCHOR
  6
HIDDEN
100
AcDbLine
 10
225.150021855686
 20
129.3364496097437
 30
0.0
 11
223.2273721249314
 21
129.3364496097398
 31
0.0
  0
LINE
  5
103
330
6F
100
AcDbEntity
  8
ANCHOR
  6
HIDDEN
100
AcDbLine
 10
225.1500218558819
 20
127.3364496097437
 30
0.0
 11
223.2273721254694
 21
127.3364496097398
 31
0.0
  0
LINE
  5
104
330
6F
100
AcDbEntity
  8
ANCHOR
  6
HIDDEN
100
AcDbLine
 10
225.7273721249739
 20
128.3364496095836
 30
0.0
 11
225.1500218556864
 21
129.3364496097443
 31
0.0
  0
LINE
  5
105
330
6F
100
AcDbEntity
  8
ANCHOR
  6
HIDDEN
100
AcDbLine
 10
225.1500218558826
 20
127.336449609745
 30
0.0
 11
225.7273721249743
 21
128.3364496095839
 31
0.0
  0
ARC
  5
106
330
6F
100
AcDbEntity
  8
ANCHOR
  6
HIDDEN
100
AcDbCircle
 10
223.7273721254787
 20
128.3364496097421
 30
0.0
 40
0.5
100
AcDbArc
 50
97.20679386168658
 51
262.7932061387912
  0
LINE
  5
107
330
6F
100
AcDbEntity
  8
ANCHOR
  6
HIDDEN
100
AcDbLine
 10
223.6646466890138
 20
127.840399693281
 30
0.0
 11
225.1500218558821
 21
127.3364496097432
 31
0.0
  0
LINE
  5
108
330
6F
100
AcDbEntity
  8
ANCHOR
  6
HIDDEN
100
AcDbLine
 10
223.6646466890101
 20
128.8324995262019
 30
0.0
 11
225.1500218556859
 21
129.3364496097439
 31
0.0
  0
LINE
  5
109
330
6F
100
AcDbEntity
  8
ANCHOR
  6
HIDDEN
100
AcDbLine
 10
223.2273721249297
 20
129.3364496097394
 30
0.0
 11
222.2273721249203
 21
130.3364496097367
 31
0.0
  0
LINE
  5
10A
330
6F
100
AcDbEntity
  8
ANCHOR
  6
HIDDEN
100
AcDbLine
 10
222.227372125476
 20
126.3364496097385
 30
0.0
 11
223.2273721254686
 21
127.3364496097387
 31
0.0
  0
LINE
  5
10B
330
6F
100
AcDbEntity
  8
ANCHOR
  6
HIDDEN
100
AcDbLine
 10
222.2273721252073
 20
126.3364496097375
 30
0.0
 11
222.2273721251925
 21
130.3364496097375
 31
0.0
  0
LINE
  5
10C
330
6F
100
AcDbEntity
  8
ANCHOR
  6
HIDDEN
100
AcDbLine
 10
223.2273721249726
 20
127.3364496097376
 30
0.0
 11
223.2273721249634
 21
129.3364496097376
 31
0.0
  0
LINE
  5
10D
330
6F
100
AcDbEntity
  8
ANCHOR
  6
HIDDEN
100
AcDbLine
 10
223.0273721254709
 20
127.136449609738
 30
0.0
 11
212.7273721235803
 21
127.1364496097791
 31
0.0
  0
LINE
  5
10E
330
6F
100
AcDbEntity
  8
ANCHOR
  6
HIDDEN
100
AcDbLine
 10
223.0273721249297
 20
129.5364496097376
 30
0.0
 11
212.7273721235894
 21
129.5364496097787
 31
0.0
  0
LINE
  5
10F
330
6F
100
AcDbEntity
  8
ANCHOR
  6
Continuous
100
AcDbLine
 10
210.7050615424424
 20
128.8346478573679
 30
0.0
 11
210.7050615424429
 21
127.8382513618857
 31
0.0
  0
LINE
  5
110
330
6F
100
AcDbEntity
  8
ANCHOR
  6
Continuous
100
AcDbLine
 10
210.7050615424421
 20
128.8346478573681
 30
0.0
 11
210.2273721237678
 21
128.8346478573681
 31
0.0
  0
LINE
  5
111
330
6F
100
AcDbEntity
  8
ANCHOR
  6
Continuous
100
AcDbLine
 10
210.7050615424426
 20
127.8382513618859
 30
0.0
 11
210.2273721237682
 21
127.8382513618859
 31
0.0
  0
LINE
  5
112
330
6F
100
AcDbEntity
  8
ANCHOR
  6
Continuous
100
AcDbLine
 10
212.2273721237846
 20
123.6364496096249
 30
0.0
 11
212.7273721237846
 21
123.6364496096253
 31
0.0
  0
ARC
  5
113
330
6F
100
AcDbEntity
  8
ANCHOR
  6
Continuous
100
AcDbCircle
 10
216.3188375180907
 20
128.1608181763096
 30
0.0
 40
6.099999999999998
100
AcDbArc
 50
183.0312034848472
 51
227.876411461438
  0
LINE
  5
114
330
6F
100
AcDbEntity
  8
ANCHOR
  6
Continuous
100
AcDbLine
 10
212.2273721237506
 20
133.0364496096268
 30
0.0
 11
212.2273721237854
 21
123.6364496096252
 31
0.0
  0
ARC
  5
115
330
6F
100
AcDbEntity
  8
ANCHOR
  6
Continuous
100
AcDbCircle
 10
216.3188375180907
 20
128.5120810429472
 30
0.0
 40
6.099999999999998
100
AcDbArc
 50
132.1235885386251
 51
176.9687965152159
  0
LINE
  5
116
330
6F
100
AcDbEntity
  8
ANCHOR
  6
Continuous
100
AcDbLine
 10
212.7273721237515
 20
133.0364496096282
 30
0.0
 11
212.7273721237862
 21
123.6364496096267
 31
0.0
  0
LINE
  5
117
330
6F
100
AcDbEntity
  8
ANCHOR
  6
Continuous
100
AcDbLine
 10
212.2273721237803
 20
133.0364496096265
 30
0.0
 11
212.7273721237803
 21
133.0364496096269
 31
0.0
  0
INSERT
  5
118
330
6F
100
AcDbEntity
  8
COMMENT
  6
Continuous
100
AcDbBlockReference
  2
M1
 10
227.7273721234328
 20
124.2364496094663
 30
0.0
  0
INSERT
  5
119
330
6F
100
AcDbEntity
  8
COMMENT
  6
Continuous
100
AcDbBlockReference
  2
M2
 10
218.1611924527676
 20
118.3364496096257
 30
0.0
  0
LINE
  5
11A
330
6F
100
AcDbEntity
  8
ANCHOR
  6
Continuous
100
AcDbLine
 10
233.2273721234651
 20
121.8364496096299
 30
0.0
 11
222.2273721234651
 21
121.8364496096218
 31
0.0
  0
LINE
  5
11B
330
6F
100
AcDbEntity
  8
ANCHOR
  6
Continuous
100
AcDbLine
 10
233.2273721234645
 20
121.8364496096304
 30
0.0
 11
233.2273721234648
 21
122.6364496096301
 31
0.0
  0
LINE
  5
11C
330
6F
100
AcDbEntity
  8
ANCHOR
  6
Continuous
100
AcDbLine
 10
222.2273721234645
 20
121.8364496096219
 30
0.0
 11
222.2273721234648
 21
122.6364496096221
 31
0.0
  0
LINE
  5
11D
330
6F
100
AcDbEntity
  8
ANCHOR
  6
Continuous
100
AcDbLine
 10
233.2273721234645
 20
122.6364496096301
 30
0.0
 11
222.2273721234645
 21
122.636449609622
 31
0.0
  0
ARC
  5
11E
330
6F
100
AcDbEntity
  8
ANCHOR
  6
Continuous
100
AcDbCircle
 10
227.7273721234668
 20
118.7805672566849
 30
0.0
 40
5.555882352941173
100
AcDbArc
 50
43.94901598298635
 51
136.0509840170985
  0
LINE
  5
11F
330
6F
100
AcDbEntity
  8
ANCHOR
  6
HIDDEN
100
AcDbLine
 10
225.7273721233263
 20
85.33644960967823
 30
0.0
 11
225.7273721232859
 21
121.8364496098018
 31
0.0
  0
LINE
  5
120
330
6F
100
AcDbEntity
  8
ANCHOR
  6
HIDDEN
100
AcDbLine
 10
229.7273721233263
 20
85.33644960912322
 30
0.0
 11
229.7273721232859
 21
121.8364496098174
 31
0.0
  0
LINE
  5
121
330
6F
100
AcDbEntity
  8
ANCHOR
  6
HIDDEN
100
AcDbLine
 10
226.7273721233181
 20
82.41379987891312
 30
0.0
 11
226.727372123322
 21
84.33644960966764
 31
0.0
  0
LINE
  5
122
330
6F
100
AcDbEntity
  8
ANCHOR
  6
HIDDEN
100
AcDbLine
 10
228.7273721233181
 20
82.41379987871717
 30
0.0
 11
228.727372123322
 21
84.33644960912973
 31
0.0
  0
LINE
  5
123
330
6F
100
AcDbEntity
  8
ANCHOR
  6
HIDDEN
100
AcDbLine
 10
227.7273721234784
 20
81.83644960962501
 30
0.0
 11
226.7273721233177
 21
82.41379987891244
 31
0.0
  0
LINE
  5
124
330
6F
100
AcDbEntity
  8
ANCHOR
  6
HIDDEN
100
AcDbLine
 10
228.727372123317
 20
82.41379987871676
 30
0.0
 11
227.7273721234781
 21
81.83644960962499
 31
0.0
  0
ARC
  5
125
330
6F
100
AcDbEntity
  8
ANCHOR
  6
HIDDEN
100
AcDbCircle
 10
227.7273721233194
 20
83.8364496091199
 30
0.0
 40
0.5
100
AcDbArc
 50
7.206793861208892
 51
172.7932061383134
  0
LINE
  5
126
330
6F
100
AcDbEntity
  8
ANCHOR
  6
HIDDEN
100
AcDbLine
 10
228.2234220397804
 20
83.8991750455848
 30
0.0
 11
228.7273721233182
 21
82.41379987871637
 31
0.0
  0
LINE
  5
127
330
6F
100
AcDbEntity
  8
ANCHOR
  6
HIDDEN
100
AcDbLine
 10
227.2313222068598
 20
83.89917504558829
 30
0.0
 11
226.7273721233179
 21
82.41379987891281
 31
0.0
  0
LINE
  5
128
330
6F
100
AcDbEntity
  8
ANCHOR
  6
HIDDEN
100
AcDbLine
 10
226.7273721233227
 20
84.33644960966963
 30
0.0
 11
225.7273721233254
 21
85.33644960967901
 31
0.0
  0
LINE
  5
129
330
6F
100
AcDbEntity
  8
ANCHOR
  6
HIDDEN
100
AcDbLine
 10
229.7273721233233
 20
85.33644960912319
 30
0.0
 11
228.7273721233232
 21
84.33644960913071
 31
0.0
  0
LINE
  5
12A
330
6F
100
AcDbEntity
  8
ANCHOR
  6
HIDDEN
100
AcDbLine
 10
229.727372123324
 20
85.33644960939161
 30
0.0
 11
225.727372123324
 21
85.33644960940639
 31
0.0
  0
LINE
  5
12B
330
6F
100
AcDbEntity
  8
ANCHOR
  6
HIDDEN
100
AcDbLine
 10
228.7273721233241
 20
84.33644960962629
 30
0.0
 11
226.7273721233241
 21
84.33644960963551
 31
0.0
  0
LINE
  5
12C
330
6F
100
AcDbEntity
  8
ANCHOR
  6
HIDDEN
100
AcDbLine
 10
228.9273721233239
 20
84.53644960912807
 30
0.0
 11
228.9273721232827
 21
121.8364496098135
 31
0.0
  0
LINE
  5
12D
330
6F
100
AcDbEntity
  8
ANCHOR
  6
HIDDEN
100
AcDbLine
 10
226.5273721233242
 20
84.53644960966929
 30
0.0
 11
226.5273721232831
 21
121.8364496098043
 31
0.0
  0
LINE
  5
12E
330
6F
100
AcDbEntity
  8
KUTAI
  6
Continuous
100
AcDbLine
 10
212.7273721234328
 20
57.33644960962596
 30
0.0
 11
212.7273721234328
 21
113.336449609626
 31
0.0
  0
LINE
  5
12F
330
6F
100
AcDbEntity
  8
KUTAI
  6
Continuous
100
AcDbLine
 10
214.7273721234328
 20
55.33644960962596
 30
0.0
 11
240.7273721234328
 21
55.33644960962596
 31
0.0
  0
LINE
  5
130
330
6F
100
AcDbEntity
  8
KUTAI
  6
Continuous
100
AcDbLine
 10
215.3273721234328
 20
113.736449609626
 30
0.0
 11
240.1273721234328
 21
113.736449609626
 31
0.0
  0
LINE
  5
131
330
6F
100
AcDbEntity
  8
KUTAI
  6
Continuous
100
AcDbLine
 10
214.3273721234328
 20
57.93644960962595
 30
0.0
 11
214.3273721234328
 21
112.736449609626
 31
0.0
  0
LINE
  5
132
330
6F
100
AcDbEntity
  8
KUTAI
  6
Continuous
100
AcDbLine
 10
215.3273721234328
 20
56.93644960962595
 30
0.0
 11
240.1273721234329
 21
56.93644960962595
 31
0.0
  0
LINE
  5
133
330
6F
100
AcDbEntity
  8
KUTAI
  6
Continuous
100
AcDbLine
 10
241.1273721234328
 20
105.336449609626
 30
0.0
 11
242.7273721234328
 21
105.336449609626
 31
0.0
  0
LINE
  5
134
330
6F
100
AcDbEntity
  8
KUTAI
  6
Continuous
100
AcDbLine
 10
241.1273721234328
 20
65.33644960962596
 30
0.0
 11
242.7273721234328
 21
65.33644960962596
 31
0.0
  0
LINE
  5
135
330
6F
100
AcDbEntity
  8
KUTAI
  6
Continuous
100
AcDbLine
 10
241.1273721234328
 20
57.93644960962595
 30
0.0
 11
241.1273721234328
 21
65.33644960962596
 31
0.0
  0
LINE
  5
136
330
6F
100
AcDbEntity
  8
KUTAI
  6
Continuous
100
AcDbLine
 10
241.1273721234328
 20
105.336449609626
 30
0.0
 11
241.1273721234328
 21
112.736449609626
 31
0.0
  0
LINE
  5
137
330
6F
100
AcDbEntity
  8
KUTAI
  6
Continuous
100
AcDbLine
 10
242.7273721234328
 20
57.33644960962596
 30
0.0
 11
242.7273721234328
 21
65.33644960962596
 31
0.0
  0
LINE
  5
138
330
6F
100
AcDbEntity
  8
KUTAI
  6
Continuous
100
AcDbLine
 10
242.7273721234328
 20
105.336449609626
 30
0.0
 11
242.7273721234328
 21
113.336449609626
 31
0.0
  0
ARC
  5
139
330
6F
100
AcDbEntity
  8
KUTAI
  6
Continuous
100
AcDbCircle
 10
240.7273721234328
 20
113.336449609626
 30
0.0
 40
2.0
100
AcDbArc
 50
0.0
 51
90.0
  0
ARC
  5
13A
330
6F
100
AcDbEntity
  8
KUTAI
  6
Continuous
100
AcDbCircle
 10
214.7273721234328
 20
113.336449609626
 30
0.0
 40
2.0
100
AcDbArc
 50
90.0
 51
180.0
  0
ARC
  5
13B
330
6F
100
AcDbEntity
  8
KUTAI
  6
Continuous
100
AcDbCircle
 10
214.7273721234328
 20
57.33644960962596
 30
0.0
 40
2.0
100
AcDbArc
 50
180.0
 51
270.0
  0
ARC
  5
13C
330
6F
100
AcDbEntity
  8
KUTAI
  6
Continuous
100
AcDbCircle
 10
240.7273721234328
 20
57.33644960962596
 30
0.0
 40
2.0
100
AcDbArc
 50
270.0
 51
0.0
  0
ARC
  5
13D
330
6F
100
AcDbEntity
  8
KUTAI
  6
Continuous
100
AcDbCircle
 10
240.1273721234329
 20
57.93644960962595
 30
0.0
 40
1.0
100
AcDbArc
 50
270.0
 51
0.0
  0
ARC
  5
13E
330
6F
100
AcDbEntity
  8
KUTAI
  6
Continuous
100
AcDbCircle
 10
240.1273721234328
 20
112.736449609626
 30
0.0
 40
1.0
100
AcDbArc
 50
0.0
 51
90.0
  0
ARC
  5
13F
330
6F
100
AcDbEntity
  8
KUTAI
  6
Continuous
100
AcDbCircle
 10
215.3273721234328
 20
112.736449609626
 30
0.0
 40
1.0
100
AcDbArc
 50
90.0
 51
180.0
  0
ARC
  5
140
330
6F
100
AcDbEntity
  8
KUTAI
  6
Continuous
100
AcDbCircle
 10
215.3273721234328
 20
57.93644960962595
 30
0.0
 40
1.0
100
AcDbArc
 50
180.0
 51
270.0
  0
INSERT
  5
141
330
6F
100
AcDbEntity
  8
COMMENT
  6
Continuous
100
AcDbBlockReference
  2
M3
 10
212.7273721234328
 20
71.91834033546445
 30
0.0
  0
LINE
  5
142
330
6F
100
AcDbEntity
  8
KUTAI
  6
Continuous
100
AcDbLine
 10
117.4720475945935
 20
115.336449609626
 30
0.0
 11
319.6456117066339
 21
115.336449609626
 31
0.0
  0
INSERT
  5
143
330
6F
100
AcDbEntity
  8
KUTAI
  6
Continuous
100
AcDbBlockReference
  2
*X4
 10
0.0
 20
0.0
 30
0.0
  0
TEXT
  5
144
330
6F
100
AcDbEntity
  8
COMMENT
  6
Continuous
100
AcDbText
 10
349.9418172490461
 20
322.2594101746117
 30
0.0
 40
6.0
  1
RC納まり図
  7
KNJYOKO
100
AcDbText
  0
LINE
  5
145
330
6F
100
AcDbEntity
  8
COMMENT
  6
Continuous
100
AcDbLine
 10
343.7194436660042
 20
316.0977062953458
 30
0.0
 11
393.4272863119038
 21
316.0977062953458
 31
0.0
  0
LINE
  5
146
330
6F
100
AcDbEntity
  8
COMMENT
  6
Continuous
100
AcDbLine
 10
393.4272863119038
 20
316.0977062953458
 30
0.0
 11
393.4272863119038
 21
332.4572886387153
 31
0.0
  0
LINE
  5
147
330
6F
100
AcDbEntity
  8
COMMENT
  6
Continuous
100
AcDbLine
 10
393.4272863119038
 20
332.4572886387153
 30
0.0
 11
343.7194436660042
 21
332.4572886387153
 31
0.0
  0
LINE
  5
148
330
6F
100
AcDbEntity
  8
COMMENT
  6
Continuous
100
AcDbLine
 10
343.7194436660042
 20
332.4572886387153
 30
0.0
 11
343.7194436660042
 21
316.0977062953458
 31
0.0
  0
TEXT
  5
149
330
6F
100
AcDbEntity
  8
COMMENT
  6
Continuous
100
AcDbText
 10
582.06240904737
 20
429.0945013405024
 30
0.0
 40
6.0
  1
ALC取付不可
  7
KNJYOKO
100
AcDbText
  0
LINE
  5
14A
330
6F
100
AcDbEntity
  8
COMMENT
  6
Continuous
100
AcDbLine
 10
578.2955067451488
 20
423.4908579547875
 30
0.0
 11
628.0033493910487
 21
423.4908579547875
 31
0.0
  0
LINE
  5
14B
330
6F
100
AcDbEntity
  8
COMMENT
  6
Continuous
100
AcDbLine
 10
628.0033493910487
 20
423.4908579547875
 30
0.0
 11
628.0033493910487
 21
439.8504402981571
 31
0.0
  0
LINE
  5
14C
330
6F
100
AcDbEntity
  8
COMMENT
  6
Continuous
100
AcDbLine
 10
628.0033493910487
 20
439.8504402981571
 30
0.0
 11
578.2955067451488
 21
439.8504402981571
 31
0.0
  0
LINE
  5
14D
330
6F
100
AcDbEntity
  8
COMMENT
  6
Continuous
100
AcDbLine
 10
578.2955067451488
 20
439.8504402981571
 30
0.0
 11
578.2955067451488
 21
423.4908579547875
 31
0.0
  0
TEXT
  5
14E
330
6F
100
AcDbEntity
  8
COMMENT
  6
Continuous
100
AcDbText
 10
349.941817249046
 20
53.68204903107908
 30
0.0
 40
6.0
  1
鉄骨納まり図
  7
KNJYOKO
100
AcDbText
  0
LINE
  5
14F
330
6F
100
AcDbEntity
  8
COMMENT
  6
Continuous
100
AcDbLine
 10
343.7194436660041
 20
47.52034515181314
 30
0.0
 11
393.4272863119038
 21
47.52034515181314
 31
0.0
  0
LINE
  5
150
330
6F
100
AcDbEntity
  8
COMMENT
  6
Continuous
100
AcDbLine
 10
393.4272863119038
 20
47.52034515181314
 30
0.0
 11
393.4272863119038
 21
63.87992749518264
 31
0.0
  0
LINE
  5
151
330
6F
100
AcDbEntity
  8
COMMENT
  6
Continuous
100
AcDbLine
 10
393.4272863119038
 20
63.87992749518264
 30
0.0
 11
343.7194436660041
 21
63.87992749518264
 31
0.0
  0
LINE
  5
152
330
6F
100
AcDbEntity
  8
COMMENT
  6
Continuous
100
AcDbLine
 10
343.7194436660041
 20
63.87992749518264
 30
0.0
 11
343.7194436660041
 21
47.52034515181314
 31
0.0
  0
LINE
  5
153
330
6F
100
AcDbEntity
  8
WAKU
  6
Continuous
100
AcDbLine
 10
33.25789717601344
 20
27.52034515181316
 30
0.0
 11
793.5966754467925
 21
27.52034515181316
 31
0.0
  0
LINE
  5
154
330
6F
100
AcDbEntity
  8
WAKU
  6
Continuous
100
AcDbLine
 10
793.5966754467925
 20
27.52034515181316
 30
0.0
 11
793.5966754467925
 21
574.6750674359868
 31
0.0
  0
LINE
  5
155
330
6F
100
AcDbEntity
  8
WAKU
  6
Continuous
100
AcDbLine
 10
33.25789717601344
 20
574.6750674359868
 30
0.0
 11
33.25789717601344
 21
27.52034515181316
 31
0.0
  0
LINE
  5
156
330
6F
100
AcDbEntity
  8
WAKU
  6
Continuous
100
AcDbLine
 10
793.5966754467925
 20
296.0977062953458
 30
0.0
 11
33.25789717601344
 21
296.0977062953458
 31
0.0
  0
LINE
  5
157
330
6F
100
AcDbEntity
  8
WAKU
  6
Continuous
100
AcDbLine
 10
413.4272863119038
 20
27.52034515181315
 30
0.0
 11
413.4272863119038
 21
549.6750674359868
 31
0.0
  0
LINE
  5
158
330
6F
100
AcDbEntity
  8
WAKU
  6
Continuous
100
AcDbLine
 10
793.5966754467925
 20
574.6750674359868
 30
0.0
 11
33.25789717601344
 21
574.6750674359868
 31
0.0
  0
LINE
  5
159
330
6F
100
AcDbEntity
  8
WAKU
  6
Continuous
100
AcDbLine
 10
793.5966754467925
 20
549.6750674359868
 30
0.0
 11
33.25789717601344
 21
549.6750674359868
 31
0.0
  0
INSERT
  5
15A
330
6F
100
AcDbEntity
  8
COMMENT
  6
Continuous
100
AcDbBlockReference
  2
M4
 10
210.2273721229401
 20
128.8346478573686
 30
0.0
  0
INSERT
  5
15B
330
6F
100
AcDbEntity
  8
COMMENT
  6
Continuous
100
AcDbBlockReference
  2
M5
 10
210.2273721221127
 20
381.2537673600441
 30
0.0
  0
LINE
  5
15C
330
6F
100
AcDbEntity
  8
LOUVER
  6
CENTER
100
AcDbLine
 10
227.7273721236393
 20
130.64850397211
 30
0.0
 11
227.727372123726
 21
75.38446659772448
 31
0.0
  0
LINE
  5
15D
330
6F
100
AcDbEntity
  8
LOUVER
  6
CENTER
100
AcDbLine
 10
205.4969337619797
 20
128.336449609626
 30
0.0
 11
229.8423238575598
 21
128.336449609626
 31
0.0
  0
LINE
  5
15E
330
6F
100
AcDbEntity
  8
LOUVER
  6
CENTER
100
AcDbLine
 10
227.7273721250871
 20
383.0676234747873
 30
0.0
 11
227.7273721252
 21
311.0622285511648
 31
0.0
  0
LINE
  5
15F
330
6F
100
AcDbEntity
  8
LOUVER
  6
CENTER
100
AcDbLine
 10
205.4969337634275
 20
380.7555691123031
 30
0.0
 11
229.8423238590077
 21
380.7555691123031
 31
0.0
  0
ARC
  5
160
330
6F
100
AcDbEntity
  8
LOUVER
  6
Continuous
100
AcDbCircle
 10
227.7273721234692
 20
264.8364496096411
 30
0.0
 40
2.1
100
AcDbArc
 50
171.042328421765
 51
188.9576715807843
  0
ARC
  5
161
330
6F
100
AcDbEntity
  8
LOUVER
  6
Continuous
100
AcDbCircle
 10
227.7273721234692
 20
264.8364496096411
 30
0.0
 40
1.8
100
AcDbArc
 50
200.3599951900864
 51
222.7186445082694
  0
ARC
  5
162
330
6F
100
AcDbEntity
  8
LOUVER
  6
Continuous
100
AcDbCircle
 10
225.8505452071136
 20
264.5406105891571
 30
0.0
 40
0.2
100
AcDbArc
 50
188.9576715807859
 51
269.9999999998204
  0
ARC
  5
163
330
6F
100
AcDbEntity
  8
LOUVER
  6
Continuous
100
AcDbCircle
 10
225.8505452070999
 20
265.1322886300396
 30
0.0
 40
0.2
100
AcDbArc
 50
89.99999999982042
 51
171.0423284217637
  0
ARC
  5
164
330
6F
100
AcDbEntity
  8
LOUVER
  6
Continuous
100
AcDbCircle
 10
225.8523218445066
 20
265.5322846844712
 30
0.0
 40
0.2
100
AcDbArc
 50
269.9999999998204
 51
339.6400048124608
  0
ARC
  5
165
330
6F
100
AcDbEntity
  8
LOUVER
  6
Continuous
100
AcDbCircle
 10
225.8523218445375
 20
264.1406145347274
 30
0.0
 40
0.2
100
AcDbArc
 50
20.35999519009133
 51
89.99999999982028
  0
ARC
  5
166
330
6F
100
AcDbEntity
  8
LOUVER
  6
Continuous
100
AcDbCircle
 10
225.9273721232917
 20
263.1743725959724
 30
0.0
 40
0.6500000000000014
100
AcDbArc
 50
222.7186445082704
 51
42.71864450827043
  0
ARC
  5
167
330
6F
100
AcDbEntity
  8
LOUVER
  6
Continuous
100
AcDbCircle
 10
227.7273721234692
 20
264.8364496096411
 30
0.0
 40
1.8
100
AcDbArc
 50
110.3599951900866
 51
159.6400048124626
  0
ARC
  5
168
330
6F
100
AcDbEntity
  8
LOUVER
  6
Continuous
100
AcDbCircle
 10
227.7273721234692
 20
264.8364496096411
 30
0.0
 40
1.8
100
AcDbArc
 50
317.281355473095
 51
339.6400048124627
  0
ARC
  5
169
330
6F
100
AcDbEntity
  8
LOUVER
  6
Continuous
100
AcDbCircle
 10
227.7273721234692
 20
264.8364496096411
 30
0.0
 40
1.8
100
AcDbArc
 50
20.35999519008635
 51
69.64000481246268
  0
ARC
  5
16A
330
6F
100
AcDbEntity
  8
LOUVER
  6
Continuous
100
AcDbCircle
 10
229.5273721231065
 20
263.1743725953885
 30
0.0
 40
0.6500000000000048
100
AcDbArc
 50
137.2813554730932
 51
317.2813554730932
  0
ARC
  5
16B
330
6F
100
AcDbEntity
  8
LOUVER
  6
Continuous
100
AcDbCircle
 10
227.7273721234692
 20
264.8364496096411
 30
0.0
 40
3.1
100
AcDbArc
 50
317.2813554730942
 51
21.7974785189991
  0
ARC
  5
16C
330
6F
100
AcDbEntity
  8
LOUVER
  6
Continuous
100
AcDbCircle
 10
227.7273721234692
 20
264.8364496096411
 30
0.0
 40
3.1
100
AcDbArc
 50
158.2025214809955
 51
222.7186445082701
  0
LINE
  5
16D
330
6F
100
AcDbEntity
  8
LOUVER
  6
Continuous
100
AcDbLine
 10
225.8523218445401
 20
264.3406145347269
 30
0.0
 11
225.8505452071145
 21
264.3406105891567
 31
0.0
  0
LINE
  5
16E
330
6F
100
AcDbEntity
  8
LOUVER
  6
Continuous
100
AcDbLine
 10
225.8523218445069
 20
265.3322846844716
 30
0.0
 11
225.8505452071003
 21
265.3322886300416
 31
0.0
  0
ARC
  5
16F
330
6F
100
AcDbEntity
  8
LOUVER
  6
Continuous
100
AcDbCircle
 10
227.7273721234692
 20
264.8364496096411
 30
0.0
 40
2.1
100
AcDbArc
 50
81.042328421765
 51
98.95767158078427
  0
ARC
  5
170
330
6F
100
AcDbEntity
  8
LOUVER
  6
Continuous
100
AcDbCircle
 10
227.4315331029861
 20
266.7132765259968
 30
0.0
 40
0.2
100
AcDbArc
 50
98.95767158078593
 51
179.9999999998205
  0
ARC
  5
171
330
6F
100
AcDbEntity
  8
LOUVER
  6
Continuous
100
AcDbCircle
 10
228.0232111438695
 20
266.7132765260095
 30
0.0
 40
0.2
100
AcDbArc
 50
359.9999999998204
 51
81.04232842176369
  0
ARC
  5
172
330
6F
100
AcDbEntity
  8
LOUVER
  6
Continuous
100
AcDbCircle
 10
228.4232071982992
 20
266.7114998886037
 30
0.0
 40
0.2
100
AcDbArc
 50
179.9999999998204
 51
249.6400048124609
  0
ARC
  5
173
330
6F
100
AcDbEntity
  8
LOUVER
  6
Continuous
100
AcDbCircle
 10
227.0315370485564
 20
266.7114998885728
 30
0.0
 40
0.2
100
AcDbArc
 50
290.3599951900913
 51
359.9999999998204
  0
LINE
  5
174
330
6F
100
AcDbEntity
  8
LOUVER
  6
Continuous
100
AcDbLine
 10
227.2315370485575
 20
266.7114998885719
 30
0.0
 11
227.2315331029874
 21
266.7132765259967
 31
0.0
  0
LINE
  5
175
330
6F
100
AcDbEntity
  8
LOUVER
  6
Continuous
100
AcDbLine
 10
228.2232071982998
 20
266.7114998886048
 30
0.0
 11
228.2232111438698
 21
266.7132765260113
 31
0.0
  0
ARC
  5
176
330
6F
100
AcDbEntity
  8
LOUVER
  6
Continuous
100
AcDbCircle
 10
227.7273721234692
 20
264.8364496096411
 30
0.0
 40
2.1
100
AcDbArc
 50
351.042328421765
 51
8.95767158078419
  0
ARC
  5
177
330
6F
100
AcDbEntity
  8
LOUVER
  6
Continuous
100
AcDbCircle
 10
229.6041990398257
 20
265.1322886301234
 30
0.0
 40
0.2
100
AcDbArc
 50
8.957671580785854
 51
89.99999999982028
  0
ARC
  5
178
330
6F
100
AcDbEntity
  8
LOUVER
  6
Continuous
100
AcDbCircle
 10
229.6041990398394
 20
264.5406105892408
 30
0.0
 40
0.2
100
AcDbArc
 50
269.9999999998204
 51
351.0423284217637
  0
ARC
  5
179
330
6F
100
AcDbEntity
  8
LOUVER
  6
Continuous
100
AcDbCircle
 10
229.6024224024318
 20
264.1406145348111
 30
0.0
 40
0.2
100
AcDbArc
 50
89.99999999982042
 51
159.6400048124608
  0
ARC
  5
17A
330
6F
100
AcDbEntity
  8
LOUVER
  6
Continuous
100
AcDbCircle
 10
229.6024224024009
 20
265.532284684553
 30
0.0
 40
0.2
100
AcDbArc
 50
200.3599951900913
 51
269.9999999998204
  0
LINE
  5
17B
330
6F
100
AcDbEntity
  8
LOUVER
  6
Continuous
100
AcDbLine
 10
229.6024224023985
 20
265.332284684553
 30
0.0
 11
229.6041990398251
 21
265.3322886301231
 31
0.0
  0
LINE
  5
17C
330
6F
100
AcDbEntity
  8
LOUVER
  6
Continuous
100
AcDbLine
 10
229.6024224024338
 20
264.340614534811
 30
0.0
 11
229.6041990398385
 21
264.340610589241
 31
0.0
  0
LINE
  5
17D
330
6F
100
AcDbEntity
  8
LOUVER
  6
Continuous
100
AcDbLine
 10
212.7273721234689
 20
268.3364496096416
 30
0.0
 11
242.7273721234689
 21
268.3364496096416
 31
0.0
  0
LINE
  5
17E
330
6F
100
AcDbEntity
  8
LOUVER
  6
Continuous
100
AcDbLine
 10
215.227372123609
 20
128.1364496096243
 30
0.0
 11
213.9273721234661
 21
128.1364496096243
 31
0.0
  0
LINE
  5
17F
330
6F
100
AcDbEntity
  8
LOUVER
  6
Continuous
100
AcDbLine
 10
214.5273721234121
 20
119.336449609642
 30
0.0
 11
214.527372123411
 21
124.3364496093291
 31
0.0
  0
LINE
  5
180
330
6F
100
AcDbEntity
  8
LOUVER
  6
Continuous
100
AcDbLine
 10
214.5273721234137
 20
119.3364496096414
 30
0.0
 11
212.7273721234653
 21
119.3364496096414
 31
0.0
  0
LINE
  5
181
330
6F
100
AcDbEntity
  8
LOUVER
  6
Continuous
100
AcDbLine
 10
213.9273721234661
 20
133.3364496096411
 30
0.0
 11
218.0273721234655
 21
133.3364496096424
 31
0.0
  0
LINE
  5
182
330
6F
100
AcDbEntity
  8
LOUVER
  6
Continuous
100
AcDbLine
 10
218.0273721234655
 20
133.3364496096432
 30
0.0
 11
218.0273721234655
 21
134.536449609644
 31
0.0
  0
ARC
  5
183
330
6F
100
AcDbEntity
  8
LOUVER
  6
Continuous
100
AcDbCircle
 10
215.2273721236102
 20
127.9364496096251
 30
0.0
 40
0.2
100
AcDbArc
 50
345.8703295024461
 51
90.0
  0
LINE
  5
184
330
6F
100
AcDbEntity
  8
LOUVER
  6
Continuous
100
AcDbLine
 10
213.9273721234657
 20
134.53644960964
 30
0.0
 11
218.0273721234651
 21
134.5364496096413
 31
0.0
  0
ARC
  5
185
330
6F
100
AcDbEntity
  8
LOUVER
  6
Continuous
100
AcDbCircle
 10
227.7273721234692
 20
167.3364496096411
 30
0.0
 40
2.1
100
AcDbArc
 50
171.0423284192157
 51
188.9576715782349
  0
ARC
  5
186
330
6F
100
AcDbEntity
  8
LOUVER
  6
Continuous
100
AcDbCircle
 10
227.7273721234692
 20
167.3364496096411
 30
0.0
 40
1.8
100
AcDbArc
 50
137.2813554917305
 51
159.6400048099136
  0
ARC
  5
187
330
6F
100
AcDbEntity
  8
LOUVER
  6
Continuous
100
AcDbCircle
 10
225.8505452071136
 20
167.6322886301232
 30
0.0
 40
0.2
100
AcDbArc
 50
90.00000000017953
 51
171.042328419214
  0
ARC
  5
188
330
6F
100
AcDbEntity
  8
LOUVER
  6
Continuous
100
AcDbCircle
 10
225.8505452070999
 20
167.0406105892408
 30
0.0
 40
0.2
100
AcDbArc
 50
188.9576715782362
 51
270.0000000001795
  0
ARC
  5
189
330
6F
100
AcDbEntity
  8
LOUVER
  6
Continuous
100
AcDbCircle
 10
225.8523218445066
 20
166.6406145348111
 30
0.0
 40
0.2
100
AcDbArc
 50
20.3599951875391
 51
90.00000000017953
  0
ARC
  5
18A
330
6F
100
AcDbEntity
  8
LOUVER
  6
Continuous
100
AcDbCircle
 10
225.8523218445375
 20
168.032284684553
 30
0.0
 40
0.2
100
AcDbArc
 50
270.0000000001796
 51
339.6400048099085
  0
ARC
  5
18B
330
6F
100
AcDbEntity
  8
LOUVER
  6
Continuous
100
AcDbCircle
 10
225.9273721232917
 20
168.998526623308
 30
0.0
 40
0.6500000000000014
100
AcDbArc
 50
317.2813554917294
 51
137.2813554917293
  0
ARC
  5
18C
330
6F
100
AcDbEntity
  8
LOUVER
  6
Continuous
100
AcDbCircle
 10
227.7273721234692
 20
167.3364496096411
 30
0.0
 40
1.8
100
AcDbArc
 50
200.3599951875373
 51
249.6400048099133
  0
ARC
  5
18D
330
6F
100
AcDbEntity
  8
LOUVER
  6
Continuous
100
AcDbCircle
 10
227.7273721234692
 20
167.3364496096411
 30
0.0
 40
1.8
100
AcDbArc
 50
20.35999518753717
 51
42.71864452690496
  0
ARC
  5
18E
330
6F
100
AcDbEntity
  8
LOUVER
  6
Continuous
100
AcDbCircle
 10
227.7273721234692
 20
167.3364496096411
 30
0.0
 40
1.8
100
AcDbArc
 50
290.3599951875372
 51
339.6400048099135
  0
ARC
  5
18F
330
6F
100
AcDbEntity
  8
LOUVER
  6
Continuous
100
AcDbCircle
 10
229.5273721231065
 20
168.9985266238936
 30
0.0
 40
0.6500000000000048
100
AcDbArc
 50
42.71864452690667
 51
222.7186445269066
  0
ARC
  5
190
330
6F
100
AcDbEntity
  8
LOUVER
  6
Continuous
100
AcDbCircle
 10
227.7273721234692
 20
167.3364496096411
 30
0.0
 40
3.1
100
AcDbArc
 50
338.8315511541686
 51
42.71864452690567
  0
ARC
  5
191
330
6F
100
AcDbEntity
  8
LOUVER
  6
Continuous
100
AcDbCircle
 10
227.7273721234692
 20
167.3364496096411
 30
0.0
 40
3.1
100
AcDbArc
 50
137.28135549173
 51
201.1684488458311
  0
LINE
  5
192
330
6F
100
AcDbEntity
  8
LOUVER
  6
Continuous
100
AcDbLine
 10
225.8523218445381
 20
167.8322846845538
 30
0.0
 11
225.8505452071115
 21
167.8322886301239
 31
0.0
  0
LINE
  5
193
330
6F
100
AcDbEntity
  8
LOUVER
  6
Continuous
100
AcDbLine
 10
225.8523218445069
 20
166.8406145348114
 30
0.0
 11
225.8505452071013
 21
166.8406105892414
 31
0.0
  0
ARC
  5
194
330
6F
100
AcDbEntity
  8
LOUVER
  6
Continuous
100
AcDbCircle
 10
227.7273721234692
 20
167.3364496096411
 30
0.0
 40
2.1
100
AcDbArc
 50
261.0423284192156
 51
278.9576715782349
  0
ARC
  5
195
330
6F
100
AcDbEntity
  8
LOUVER
  6
Continuous
100
AcDbCircle
 10
227.4315331029861
 20
165.4596226932836
 30
0.0
 40
0.2
100
AcDbArc
 50
180.0000000001794
 51
261.0423284192139
  0
ARC
  5
196
330
6F
100
AcDbEntity
  8
LOUVER
  6
Continuous
100
AcDbCircle
 10
228.0232111438695
 20
165.4596226932709
 30
0.0
 40
0.2
100
AcDbArc
 50
278.9576715782362
 51
0.0000000001796163
  0
ARC
  5
197
330
6F
100
AcDbEntity
  8
LOUVER
  6
Continuous
100
AcDbCircle
 10
228.4232071982992
 20
165.4613993306785
 30
0.0
 40
0.2
100
AcDbArc
 50
110.3599951875391
 51
180.0000000001795
  0
ARC
  5
198
330
6F
100
AcDbEntity
  8
LOUVER
  6
Continuous
100
AcDbCircle
 10
227.0315370485564
 20
165.4613993307094
 30
0.0
 40
0.2
100
AcDbArc
 50
0.000000000179536
 51
69.64000480990852
  0
LINE
  5
199
330
6F
100
AcDbEntity
  8
LOUVER
  6
Continuous
100
AcDbLine
 10
227.2315370485582
 20
165.4613993307101
 30
0.0
 11
227.2315331029881
 21
165.4596226932836
 31
0.0
  0
LINE
  5
19A
330
6F
100
AcDbEntity
  8
LOUVER
  6
Continuous
100
AcDbLine
 10
228.2232071982996
 20
165.4613993306803
 30
0.0
 11
228.2232111438696
 21
165.4596226932738
 31
0.0
  0
ARC
  5
19B
330
6F
100
AcDbEntity
  8
LOUVER
  6
Continuous
100
AcDbCircle
 10
227.7273721234692
 20
167.3364496096411
 30
0.0
 40
2.1
100
AcDbArc
 50
351.0423284192156
 51
8.957671578234869
  0
ARC
  5
19C
330
6F
100
AcDbEntity
  8
LOUVER
  6
Continuous
100
AcDbCircle
 10
229.6041990398257
 20
167.0406105891571
 30
0.0
 40
0.2
100
AcDbArc
 50
270.0000000001796
 51
351.042328419214
  0
ARC
  5
19D
330
6F
100
AcDbEntity
  8
LOUVER
  6
Continuous
100
AcDbCircle
 10
229.6041990398394
 20
167.6322886300396
 30
0.0
 40
0.2
100
AcDbArc
 50
8.957671578236167
 51
90.00000000017953
  0
ARC
  5
19E
330
6F
100
AcDbEntity
  8
LOUVER
  6
Continuous
100
AcDbCircle
 10
229.6024224024318
 20
168.0322846844693
 30
0.0
 40
0.2
100
AcDbArc
 50
200.3599951875391
 51
270.0000000001795
  0
ARC
  5
19F
330
6F
100
AcDbEntity
  8
LOUVER
  6
Continuous
100
AcDbCircle
 10
229.6024224024009
 20
166.6406145347274
 30
0.0
 40
0.2
100
AcDbArc
 50
90.00000000017953
 51
159.6400048099086
  0
LINE
  5
1A0
330
6F
100
AcDbEntity
  8
LOUVER
  6
Continuous
100
AcDbLine
 10
229.6024224023999
 20
166.8406145347284
 30
0.0
 11
229.6041990398265
 21
166.8406105891583
 31
0.0
  0
LINE
  5
1A1
330
6F
100
AcDbEntity
  8
LOUVER
  6
Continuous
100
AcDbLine
 10
229.602422402433
 20
167.8322846844715
 30
0.0
 11
229.6041990398387
 21
167.8322886300416
 31
0.0
  0
LINE
  5
1A2
330
6F
100
AcDbEntity
  8
LOUVER
  6
Continuous
100
AcDbLine
 10
231.084454189788
 20
165.5364496096403
 30
0.0
 11
241.2273721234908
 21
165.5364496096404
 31
0.0
  0
LINE
  5
1A3
330
6F
100
AcDbEntity
  8
LOUVER
  6
Continuous
100
AcDbLine
 10
212.7273721234704
 20
268.3364496096408
 30
0.0
 11
212.7273721234669
 21
119.3364496096406
 31
0.0
  0
LINE
  5
1A4
330
6F
100
AcDbEntity
  8
LOUVER
  6
Continuous
100
AcDbLine
 10
214.2273721234661
 20
165.5364496096387
 30
0.0
 11
224.3702900571499
 21
165.5364496096386
 31
0.0
  0
LINE
  5
1A5
330
6F
100
AcDbEntity
  8
LOUVER
  6
Continuous
100
AcDbLine
 10
240.2273721233349
 20
128.1364496096123
 30
0.0
 11
241.5273721234697
 21
128.1364496096101
 31
0.0
  0
LINE
  5
1A6
330
6F
100
AcDbEntity
  8
LOUVER
  6
Continuous
100
AcDbLine
 10
240.9273721235183
 20
119.3364496096283
 30
0.0
 11
240.9273721235211
 21
124.3364496093155
 31
0.0
  0
LINE
  5
1A7
330
6F
100
AcDbEntity
  8
LOUVER
  6
Continuous
100
AcDbLine
 10
240.9273721235166
 20
119.336449609626
 30
0.0
 11
242.7273721234649
 21
119.336449609623
 31
0.0
  0
LINE
  5
1A8
330
6F
100
AcDbEntity
  8
LOUVER
  6
Continuous
100
AcDbLine
 10
241.527372123473
 20
133.3364496096266
 30
0.0
 11
237.4273721234872
 21
133.3364496096349
 31
0.0
  0
LINE
  5
1A9
330
6F
100
AcDbEntity
  8
LOUVER
  6
Continuous
100
AcDbLine
 10
237.427372123489
 20
133.3364496096336
 30
0.0
 11
237.427372123491
 21
134.5364496096343
 31
0.0
  0
ARC
  5
1AA
330
6F
100
AcDbEntity
  8
LOUVER
  6
Continuous
100
AcDbCircle
 10
240.2273721233346
 20
127.9364496096124
 30
0.0
 40
0.2
100
AcDbArc
 50
89.9999999999035
 51
194.1296704973584
  0
LINE
  5
1AB
330
6F
100
AcDbEntity
  8
LOUVER
  6
Continuous
100
AcDbLine
 10
241.5273721234743
 20
134.536449609626
 30
0.0
 11
237.4273721234903
 21
134.5364496096342
 31
0.0
  0
LINE
  5
1AC
330
6F
100
AcDbEntity
  8
LOUVER
  6
Continuous
100
AcDbLine
 10
242.7273721235599
 20
268.3364496096281
 30
0.0
 11
242.7273721234641
 21
119.336449609623
 31
0.0
  0
ARC
  5
1AD
330
6F
100
AcDbEntity
  8
LOUVER
  6
Continuous
100
AcDbCircle
 10
224.3702900571502
 20
166.03644960964
 30
0.0
 40
0.5
100
AcDbArc
 50
270.0
 51
21.16844884583121
  0
ARC
  5
1AE
330
6F
100
AcDbEntity
  8
LOUVER
  6
Continuous
100
AcDbCircle
 10
231.0844541897882
 20
166.03644960964
 30
0.0
 40
0.5
100
AcDbArc
 50
158.8315511541688
 51
270.0
  0
LINE
  5
1AF
330
6F
100
AcDbEntity
  8
LOUVER
  6
Continuous
100
AcDbLine
 10
214.2273721234697
 20
267.1364496096388
 30
0.0
 11
214.2273721234672
 21
165.5364496096403
 31
0.0
  0
LINE
  5
1B0
330
6F
100
AcDbEntity
  8
LOUVER
  6
Continuous
100
AcDbLine
 10
241.2273721235603
 20
267.1364496096396
 30
0.0
 11
241.2273721234918
 21
165.5364496096408
 31
0.0
  0
LINE
  5
1B1
330
6F
100
AcDbEntity
  8
LOUVER
  6
Continuous
100
AcDbLine
 10
213.9273721234679
 20
164.3364496096414
 30
0.0
 11
213.9273721234673
 21
134.5364496096421
 31
0.0
  0
LINE
  5
1B2
330
6F
100
AcDbEntity
  8
LOUVER
  6
Continuous
100
AcDbLine
 10
213.9273721234669
 20
133.3364496096408
 30
0.0
 11
213.9273721234668
 21
128.1364496096237
 31
0.0
  0
LINE
  5
1B3
330
6F
100
AcDbEntity
  8
LOUVER
  6
Continuous
100
AcDbLine
 10
241.52737212349
 20
164.3364496096396
 30
0.0
 11
241.527372123474
 21
134.5364496096258
 31
0.0
  0
LINE
  5
1B4
330
6F
100
AcDbEntity
  8
LOUVER
  6
Continuous
100
AcDbLine
 10
241.5273721234732
 20
133.3364496096254
 30
0.0
 11
241.5273721234699
 21
128.1364496096083
 31
0.0
  0
LINE
  5
1B5
330
6F
100
AcDbEntity
  8
LOUVER
  6
Continuous
100
AcDbLine
 10
241.2273721235608
 20
267.1364496096397
 30
0.0
 11
231.0472267969031
 21
266.6727087434655
 31
0.0
  0
LINE
  5
1B6
330
6F
100
AcDbEntity
  8
LOUVER
  6
Continuous
100
AcDbLine
 10
224.4075174500365
 20
266.6727087434686
 30
0.0
 11
214.2273721234699
 21
267.1364496096423
 31
0.0
  0
ARC
  5
1B7
330
6F
100
AcDbEntity
  8
LOUVER
  6
Continuous
100
AcDbCircle
 10
224.3847643143804
 20
266.1732267169456
 30
0.0
 40
0.5
100
AcDbArc
 50
338.2025214809959
 51
87.39178199167815
  0
ARC
  5
1B8
330
6F
100
AcDbEntity
  8
LOUVER
  6
Continuous
100
AcDbCircle
 10
231.0699799325589
 20
266.1732267169456
 30
0.0
 40
0.5
100
AcDbArc
 50
92.60821800829905
 51
201.797478518999
  0
LINE
  5
1B9
330
6F
100
AcDbEntity
  8
LOUVER
  6
Continuous
100
AcDbLine
 10
240.033422977387
 20
127.8876261645606
 30
0.0
 11
240.9273721235203
 21
124.3364496093134
 31
0.0
  0
LINE
  5
1BA
330
6F
100
AcDbEntity
  8
LOUVER
  6
Continuous
100
AcDbLine
 10
215.4213212695565
 20
127.8876261645728
 30
0.0
 11
214.527372123411
 21
124.3364496093286
 31
0.0
  0
ARC
  5
1BB
330
6F
100
AcDbEntity
  8
LOUVER
  6
Continuous
100
AcDbCircle
 10
220.7273721234674
 20
164.3364496096411
 30
0.0
 40
0.3
100
AcDbArc
 50
0.0
 51
180.0
  0
LINE
  5
1BC
330
6F
100
AcDbEntity
  8
LOUVER
  6
Continuous
100
AcDbLine
 10
213.9273721234661
 20
164.3364496096414
 30
0.0
 11
220.427372123467
 21
164.3364496096414
 31
0.0
  0
ARC
  5
1BD
330
6F
100
AcDbEntity
  8
LOUVER
  6
Continuous
100
AcDbCircle
 10
234.7273721234574
 20
164.3364496096411
 30
0.0
 40
0.3
100
AcDbArc
 50
0.0000000000088547
 51
180.0000000000089
  0
LINE
  5
1BE
330
6F
100
AcDbEntity
  8
LOUVER
  6
Continuous
100
AcDbLine
 10
221.0273721234663
 20
164.3364496096416
 30
0.0
 11
234.4273721234569
 21
164.3364496096416
 31
0.0
  0
LINE
  5
1BF
330
6F
100
AcDbEntity
  8
LOUVER
  6
Continuous
100
AcDbLine
 10
235.0273721234564
 20
164.3364496096415
 30
0.0
 11
241.5273721234901
 21
164.3364496096415
 31
0.0
  0
LINE
  5
1C0
330
6F
100
AcDbEntity
  8
UKEZAI
  6
Continuous
100
AcDbLine
 10
239.4273721234647
 20
121.336449609626
 30
0.0
 11
239.4273721234647
 21
128.336449609626
 31
0.0
  0
LINE
  5
1C1
330
6F
100
AcDbEntity
  8
UKEZAI
  6
Continuous
100
AcDbLine
 10
240.9273721235165
 20
118.3364496096257
 30
0.0
 11
240.9273721235188
 21
120.3364496093389
 31
0.0
  0
LINE
  5
1C2
330
6F
100
AcDbEntity
  8
UKEZAI
  6
Continuous
100
AcDbLine
 10
237.9273721234647
 20
119.836449609626
 30
0.0
 11
237.9273721234647
 21
132.586449609626
 31
0.0
  0
LINE
  5
1C3
330
6F
100
AcDbEntity
  8
UKEZAI
  6
Continuous
100
AcDbLine
 10
239.427372123465
 20
128.3364496095804
 30
0.0
 11
240.727372122734
 21
128.3364496095814
 31
0.0
  0
LINE
  5
1C4
330
6F
100
AcDbEntity
  8
UKEZAI
  6
Continuous
100
AcDbLine
 10
239.4273721234647
 20
121.336449609626
 30
0.0
 11
240.7273721235199
 21
121.336449609626
 31
0.0
  0
LINE
  5
1C5
330
6F
100
AcDbEntity
  8
UKEZAI
  6
Continuous
100
AcDbLine
 10
216.0273721234648
 20
121.336449609626
 30
0.0
 11
216.0273721234648
 21
128.336449609626
 31
0.0
  0
LINE
  5
1C6
330
6F
100
AcDbEntity
  8
UKEZAI
  6
Continuous
100
AcDbLine
 10
214.5273721234123
 20
118.3364496096259
 30
0.0
 11
214.5273721234101
 21
120.3364496093359
 31
0.0
  0
LINE
  5
1C7
330
6F
100
AcDbEntity
  8
UKEZAI
  6
Continuous
100
AcDbLine
 10
217.5273721234648
 20
119.836449609626
 30
0.0
 11
217.5273721234648
 21
132.586449609626
 31
0.0
  0
ARC
  5
1C8
330
6F
100
AcDbEntity
  8
UKEZAI
  6
Continuous
100
AcDbCircle
 10
216.7773721234648
 20
132.586449609626
 30
0.0
 40
0.75
100
AcDbArc
 50
0.0
 51
160.1120357041571
  0
LINE
  5
1C9
330
6F
100
AcDbEntity
  8
UKEZAI
  6
Continuous
100
AcDbLine
 10
216.0273721234645
 20
128.3364496095806
 30
0.0
 11
214.7273721241956
 21
128.3364496095815
 31
0.0
  0
LINE
  5
1CA
330
6F
100
AcDbEntity
  8
UKEZAI
  6
Continuous
100
AcDbLine
 10
216.0273721234648
 20
121.336449609626
 30
0.0
 11
214.7273721234099
 21
121.336449609626
 31
0.0
  0
LINE
  5
1CB
330
6F
100
AcDbEntity
  8
UKEZAI
  6
Continuous
100
AcDbLine
 10
214.5273721234132
 20
118.336449609626
 30
0.0
 11
240.9273721235165
 21
118.336449609626
 31
0.0
  0
ARC
  5
1CC
330
6F
100
AcDbEntity
  8
UKEZAI
  6
Continuous
100
AcDbCircle
 10
227.7273721234649
 20
119.836449609626
 30
0.0
 40
0.3
100
AcDbArc
 50
180.0
 51
0.0
  0
ARC
  5
1CD
330
6F
100
AcDbEntity
  8
UKEZAI
  6
Continuous
100
AcDbCircle
 10
238.6773721234647
 20
132.586449609626
 30
0.0
 40
0.75
100
AcDbArc
 50
19.8879642958426
 51
180.0
  0
LINE
  5
1CE
330
6F
100
AcDbEntity
  8
UKEZAI
  6
Continuous
100
AcDbLine
 10
240.9273721235188
 20
120.3364496093391
 30
0.0
 11
240.7273721235199
 21
121.336449609626
 31
0.0
  0
LINE
  5
1CF
330
6F
100
AcDbEntity
  8
UKEZAI
  6
Continuous
100
AcDbLine
 10
214.5273721234108
 20
120.3364496093388
 30
0.0
 11
214.7273721234097
 21
121.3364496096258
 31
0.0
  0
ARC
  5
1D0
330
6F
100
AcDbEntity
  8
UKEZAI
  6
Continuous
100
AcDbCircle
 10
214.7273721241961
 20
128.5364496095816
 30
0.0
 40
0.2
100
AcDbArc
 50
160.1120357041559
 51
270.0
  0
LINE
  5
1D1
330
6F
100
AcDbEntity
  8
UKEZAI
  6
Continuous
100
AcDbLine
 10
214.5393002027359
 20
128.6044860142362
 30
0.0
 11
216.0721024179899
 21
132.8415861270818
 31
0.0
  0
ARC
  5
1D2
330
6F
100
AcDbEntity
  8
UKEZAI
  6
Continuous
100
AcDbCircle
 10
240.7273721227336
 20
128.5364496095816
 30
0.0
 40
0.2
100
AcDbArc
 50
270.0
 51
19.88796429584412
  0
LINE
  5
1D3
330
6F
100
AcDbEntity
  8
UKEZAI
  6
Continuous
100
AcDbLine
 10
240.9154440441936
 20
128.6044860142366
 30
0.0
 11
239.3826418289396
 21
132.8415861270819
 31
0.0
  0
ARC
  5
1D4
330
6F
100
AcDbEntity
  8
UKEZAI
  6
HIDDEN
100
AcDbCircle
 10
229.7273721234649
 20
119.836449609626
 30
0.0
 40
0.3
100
AcDbArc
 50
0.0
 51
180.0
  0
LINE
  5
1D5
330
6F
100
AcDbEntity
  8
UKEZAI
  6
Continuous
100
AcDbLine
 10
228.0273721234648
 20
119.836449609626
 30
0.0
 11
229.4273721234647
 21
119.836449609626
 31
0.0
  0
LINE
  5
1D6
330
6F
100
AcDbEntity
  8
UKEZAI
  6
Continuous
100
AcDbLine
 10
230.0273721234648
 20
119.836449609626
 30
0.0
 11
237.9273721234647
 21
119.836449609626
 31
0.0
  0
ARC
  5
1D7
330
6F
100
AcDbEntity
  8
UKEZAI
  6
HIDDEN
100
AcDbCircle
 10
225.7273721234649
 20
119.836449609626
 30
0.0
 40
0.3
100
AcDbArc
 50
0.0
 51
180.0
  0
LINE
  5
1D8
330
6F
100
AcDbEntity
  8
UKEZAI
  6
Continuous
100
AcDbLine
 10
217.5273721234648
 20
119.836449609626
 30
0.0
 11
225.4273721234649
 21
119.836449609626
 31
0.0
  0
LINE
  5
1D9
330
6F
100
AcDbEntity
  8
UKEZAI
  6
Continuous
100
AcDbLine
 10
226.0273721234648
 20
119.836449609626
 30
0.0
 11
227.4273721234649
 21
119.836449609626
 31
0.0
  0
ARC
  5
1DA
330
6F
100
AcDbEntity
  8
LOUVER
  6
Continuous
100
AcDbCircle
 10
227.727372124917
 20
517.2555691123164
 30
0.0
 40
2.1
100
AcDbArc
 50
171.042328421765
 51
188.9576715807843
  0
ARC
  5
1DB
330
6F
100
AcDbEntity
  8
LOUVER
  6
Continuous
100
AcDbCircle
 10
227.727372124917
 20
517.2555691123164
 30
0.0
 40
1.8
100
AcDbArc
 50
200.3599951900864
 51
222.7186445082694
  0
ARC
  5
1DC
330
6F
100
AcDbEntity
  8
LOUVER
  6
Continuous
100
AcDbCircle
 10
225.8505452085614
 20
516.9597300918326
 30
0.0
 40
0.2
100
AcDbArc
 50
188.9576715807859
 51
269.9999999998204
  0
ARC
  5
1DD
330
6F
100
AcDbEntity
  8
LOUVER
  6
Continuous
100
AcDbCircle
 10
225.8505452085477
 20
517.551408132715
 30
0.0
 40
0.2
100
AcDbArc
 50
89.99999999982042
 51
171.0423284217637
  0
ARC
  5
1DE
330
6F
100
AcDbEntity
  8
LOUVER
  6
Continuous
100
AcDbCircle
 10
225.8523218459544
 20
517.9514041871466
 30
0.0
 40
0.2
100
AcDbArc
 50
269.9999999998204
 51
339.6400048124608
  0
ARC
  5
1DF
330
6F
100
AcDbEntity
  8
LOUVER
  6
Continuous
100
AcDbCircle
 10
225.8523218459853
 20
516.5597340374029
 30
0.0
 40
0.2
100
AcDbArc
 50
20.35999519009133
 51
89.99999999982028
  0
ARC
  5
1E0
330
6F
100
AcDbEntity
  8
LOUVER
  6
Continuous
100
AcDbCircle
 10
225.9273721247395
 20
515.5934920986478
 30
0.0
 40
0.6500000000000014
100
AcDbArc
 50
222.7186445082704
 51
42.71864450827043
  0
ARC
  5
1E1
330
6F
100
AcDbEntity
  8
LOUVER
  6
Continuous
100
AcDbCircle
 10
227.727372124917
 20
517.2555691123164
 30
0.0
 40
1.8
100
AcDbArc
 50
110.3599951900866
 51
159.6400048124626
  0
ARC
  5
1E2
330
6F
100
AcDbEntity
  8
LOUVER
  6
Continuous
100
AcDbCircle
 10
227.727372124917
 20
517.2555691123164
 30
0.0
 40
1.8
100
AcDbArc
 50
317.281355473095
 51
339.6400048124627
  0
ARC
  5
1E3
330
6F
100
AcDbEntity
  8
LOUVER
  6
Continuous
100
AcDbCircle
 10
227.727372124917
 20
517.2555691123164
 30
0.0
 40
1.8
100
AcDbArc
 50
20.35999519008635
 51
69.64000481246268
  0
ARC
  5
1E4
330
6F
100
AcDbEntity
  8
LOUVER
  6
Continuous
100
AcDbCircle
 10
229.5273721245543
 20
515.5934920980638
 30
0.0
 40
0.6500000000000048
100
AcDbArc
 50
137.2813554730932
 51
317.2813554730932
  0
ARC
  5
1E5
330
6F
100
AcDbEntity
  8
LOUVER
  6
Continuous
100
AcDbCircle
 10
227.727372124917
 20
517.2555691123164
 30
0.0
 40
3.1
100
AcDbArc
 50
317.2813554730942
 51
21.7974785189991
  0
ARC
  5
1E6
330
6F
100
AcDbEntity
  8
LOUVER
  6
Continuous
100
AcDbCircle
 10
227.727372124917
 20
517.2555691123164
 30
0.0
 40
3.1
100
AcDbArc
 50
158.2025214809955
 51
222.7186445082701
  0
LINE
  5
1E7
330
6F
100
AcDbEntity
  8
LOUVER
  6
Continuous
100
AcDbLine
 10
225.8523218459879
 20
516.7597340374023
 30
0.0
 11
225.8505452085622
 21
516.7597300918321
 31
0.0
  0
LINE
  5
1E8
330
6F
100
AcDbEntity
  8
LOUVER
  6
Continuous
100
AcDbLine
 10
225.8523218459546
 20
517.7514041871472
 30
0.0
 11
225.850545208548
 21
517.7514081327172
 31
0.0
  0
ARC
  5
1E9
330
6F
100
AcDbEntity
  8
LOUVER
  6
Continuous
100
AcDbCircle
 10
227.727372124917
 20
517.2555691123164
 30
0.0
 40
2.1
100
AcDbArc
 50
81.042328421765
 51
98.95767158078427
  0
ARC
  5
1EA
330
6F
100
AcDbEntity
  8
LOUVER
  6
Continuous
100
AcDbCircle
 10
227.4315331044339
 20
519.1323960286723
 30
0.0
 40
0.2
100
AcDbArc
 50
98.95767158078593
 51
179.9999999998205
  0
ARC
  5
1EB
330
6F
100
AcDbEntity
  8
LOUVER
  6
Continuous
100
AcDbCircle
 10
228.0232111453173
 20
519.1323960286848
 30
0.0
 40
0.2
100
AcDbArc
 50
359.9999999998204
 51
81.04232842176369
  0
ARC
  5
1EC
330
6F
100
AcDbEntity
  8
LOUVER
  6
Continuous
100
AcDbCircle
 10
228.423207199747
 20
519.1306193912792
 30
0.0
 40
0.2
100
AcDbArc
 50
179.9999999998204
 51
249.6400048124609
  0
ARC
  5
1ED
330
6F
100
AcDbEntity
  8
LOUVER
  6
Continuous
100
AcDbCircle
 10
227.0315370500042
 20
519.1306193912481
 30
0.0
 40
0.2
100
AcDbArc
 50
290.3599951900913
 51
359.9999999998204
  0
LINE
  5
1EE
330
6F
100
AcDbEntity
  8
LOUVER
  6
Continuous
100
AcDbLine
 10
227.2315370500054
 20
519.1306193912473
 30
0.0
 11
227.2315331044352
 21
519.1323960286721
 31
0.0
  0
LINE
  5
1EF
330
6F
100
AcDbEntity
  8
LOUVER
  6
Continuous
100
AcDbLine
 10
228.2232071997475
 20
519.1306193912802
 30
0.0
 11
228.2232111453176
 21
519.1323960286868
 31
0.0
  0
ARC
  5
1F0
330
6F
100
AcDbEntity
  8
LOUVER
  6
Continuous
100
AcDbCircle
 10
227.727372124917
 20
517.2555691123164
 30
0.0
 40
2.1
100
AcDbArc
 50
351.042328421765
 51
8.95767158078419
  0
ARC
  5
1F1
330
6F
100
AcDbEntity
  8
LOUVER
  6
Continuous
100
AcDbCircle
 10
229.6041990412736
 20
517.5514081327988
 30
0.0
 40
0.2
100
AcDbArc
 50
8.957671580785854
 51
89.99999999982028
  0
ARC
  5
1F2
330
6F
100
AcDbEntity
  8
LOUVER
  6
Continuous
100
AcDbCircle
 10
229.6041990412872
 20
516.9597300919162
 30
0.0
 40
0.2
100
AcDbArc
 50
269.9999999998204
 51
351.0423284217637
  0
ARC
  5
1F3
330
6F
100
AcDbEntity
  8
LOUVER
  6
Continuous
100
AcDbCircle
 10
229.6024224038796
 20
516.5597340374866
 30
0.0
 40
0.2
100
AcDbArc
 50
89.99999999982042
 51
159.6400048124608
  0
ARC
  5
1F4
330
6F
100
AcDbEntity
  8
LOUVER
  6
Continuous
100
AcDbCircle
 10
229.6024224038487
 20
517.9514041872285
 30
0.0
 40
0.2
100
AcDbArc
 50
200.3599951900913
 51
269.9999999998204
  0
LINE
  5
1F5
330
6F
100
AcDbEntity
  8
LOUVER
  6
Continuous
100
AcDbLine
 10
229.6024224038463
 20
517.7514041872284
 30
0.0
 11
229.6041990412728
 21
517.7514081327983
 31
0.0
  0
LINE
  5
1F6
330
6F
100
AcDbEntity
  8
LOUVER
  6
Continuous
100
AcDbLine
 10
229.6024224038815
 20
516.7597340374864
 30
0.0
 11
229.6041990412862
 21
516.7597300919162
 31
0.0
  0
LINE
  5
1F7
330
6F
100
AcDbEntity
  8
LOUVER
  6
Continuous
100
AcDbLine
 10
212.7273721249167
 20
520.7555691123172
 30
0.0
 11
242.7273721249167
 21
520.7555691123172
 31
0.0
  0
LINE
  5
1F8
330
6F
100
AcDbEntity
  8
LOUVER
  6
Continuous
100
AcDbLine
 10
215.2273721250568
 20
380.5555691122997
 30
0.0
 11
213.9273721249138
 21
380.5555691122997
 31
0.0
  0
LINE
  5
1F9
330
6F
100
AcDbEntity
  8
LOUVER
  6
Continuous
100
AcDbLine
 10
214.5273721248599
 20
371.7555691123174
 30
0.0
 11
214.5273721248588
 21
376.7555691120045
 31
0.0
  0
LINE
  5
1FA
330
6F
100
AcDbEntity
  8
LOUVER
  6
Continuous
100
AcDbLine
 10
214.5273721248614
 20
371.7555691123168
 30
0.0
 11
212.7273721249131
 21
371.7555691123168
 31
0.0
  0
LINE
  5
1FB
330
6F
100
AcDbEntity
  8
LOUVER
  6
Continuous
100
AcDbLine
 10
213.9273721249139
 20
385.7555691123164
 30
0.0
 11
218.0273721249133
 21
385.7555691123178
 31
0.0
  0
LINE
  5
1FC
330
6F
100
AcDbEntity
  8
LOUVER
  6
Continuous
100
AcDbLine
 10
218.0273721249133
 20
385.7555691123187
 30
0.0
 11
218.0273721249133
 21
386.9555691123194
 31
0.0
  0
ARC
  5
1FD
330
6F
100
AcDbEntity
  8
LOUVER
  6
Continuous
100
AcDbCircle
 10
215.227372125058
 20
380.3555691123005
 30
0.0
 40
0.2
100
AcDbArc
 50
345.8703295024461
 51
90.0
  0
LINE
  5
1FE
330
6F
100
AcDbEntity
  8
LOUVER
  6
Continuous
100
AcDbLine
 10
213.9273721249135
 20
386.9555691123153
 30
0.0
 11
218.0273721249129
 21
386.9555691123167
 31
0.0
  0
ARC
  5
1FF
330
6F
100
AcDbEntity
  8
LOUVER
  6
Continuous
100
AcDbCircle
 10
227.727372124917
 20
419.7555691123165
 30
0.0
 40
2.1
100
AcDbArc
 50
171.0423284192157
 51
188.9576715782349
  0
ARC
  5
200
330
6F
100
AcDbEntity
  8
LOUVER
  6
Continuous
100
AcDbCircle
 10
227.727372124917
 20
419.7555691123165
 30
0.0
 40
1.8
100
AcDbArc
 50
137.2813554917305
 51
159.6400048099136
  0
ARC
  5
201
330
6F
100
AcDbEntity
  8
LOUVER
  6
Continuous
100
AcDbCircle
 10
225.8505452085614
 20
420.0514081327987
 30
0.0
 40
0.2
100
AcDbArc
 50
90.00000000017953
 51
171.042328419214
  0
ARC
  5
202
330
6F
100
AcDbEntity
  8
LOUVER
  6
Continuous
100
AcDbCircle
 10
225.8505452085477
 20
419.4597300919161
 30
0.0
 40
0.2
100
AcDbArc
 50
188.9576715782362
 51
270.0000000001795
  0
ARC
  5
203
330
6F
100
AcDbEntity
  8
LOUVER
  6
Continuous
100
AcDbCircle
 10
225.8523218459544
 20
419.0597340374865
 30
0.0
 40
0.2
100
AcDbArc
 50
20.3599951875391
 51
90.00000000017953
  0
ARC
  5
204
330
6F
100
AcDbEntity
  8
LOUVER
  6
Continuous
100
AcDbCircle
 10
225.8523218459853
 20
420.4514041872283
 30
0.0
 40
0.2
100
AcDbArc
 50
270.0000000001796
 51
339.6400048099085
  0
ARC
  5
205
330
6F
100
AcDbEntity
  8
LOUVER
  6
Continuous
100
AcDbCircle
 10
225.9273721247395
 20
421.4176461259834
 30
0.0
 40
0.6500000000000014
100
AcDbArc
 50
317.2813554917294
 51
137.2813554917293
  0
ARC
  5
206
330
6F
100
AcDbEntity
  8
LOUVER
  6
Continuous
100
AcDbCircle
 10
227.727372124917
 20
419.7555691123165
 30
0.0
 40
1.8
100
AcDbArc
 50
200.3599951875373
 51
249.6400048099133
  0
ARC
  5
207
330
6F
100
AcDbEntity
  8
LOUVER
  6
Continuous
100
AcDbCircle
 10
227.727372124917
 20
419.7555691123165
 30
0.0
 40
1.8
100
AcDbArc
 50
20.35999518753717
 51
42.71864452690496
  0
ARC
  5
208
330
6F
100
AcDbEntity
  8
LOUVER
  6
Continuous
100
AcDbCircle
 10
227.727372124917
 20
419.7555691123165
 30
0.0
 40
1.8
100
AcDbArc
 50
290.3599951875372
 51
339.6400048099135
  0
ARC
  5
209
330
6F
100
AcDbEntity
  8
LOUVER
  6
Continuous
100
AcDbCircle
 10
229.5273721245543
 20
421.4176461265691
 30
0.0
 40
0.6500000000000048
100
AcDbArc
 50
42.71864452690667
 51
222.7186445269066
  0
ARC
  5
20A
330
6F
100
AcDbEntity
  8
LOUVER
  6
Continuous
100
AcDbCircle
 10
227.727372124917
 20
419.7555691123165
 30
0.0
 40
3.1
100
AcDbArc
 50
338.8315511541686
 51
42.71864452690567
  0
ARC
  5
20B
330
6F
100
AcDbEntity
  8
LOUVER
  6
Continuous
100
AcDbCircle
 10
227.727372124917
 20
419.7555691123165
 30
0.0
 40
3.1
100
AcDbArc
 50
137.28135549173
 51
201.1684488458311
  0
LINE
  5
20C
330
6F
100
AcDbEntity
  8
LOUVER
  6
Continuous
100
AcDbLine
 10
225.8523218459858
 20
420.2514041872292
 30
0.0
 11
225.8505452085593
 21
420.2514081327993
 31
0.0
  0
LINE
  5
20D
330
6F
100
AcDbEntity
  8
LOUVER
  6
Continuous
100
AcDbLine
 10
225.8523218459546
 20
419.2597340374867
 30
0.0
 11
225.850545208549
 21
419.2597300919167
 31
0.0
  0
ARC
  5
20E
330
6F
100
AcDbEntity
  8
LOUVER
  6
Continuous
100
AcDbCircle
 10
227.727372124917
 20
419.7555691123165
 30
0.0
 40
2.1
100
AcDbArc
 50
261.0423284192156
 51
278.9576715782349
  0
ARC
  5
20F
330
6F
100
AcDbEntity
  8
LOUVER
  6
Continuous
100
AcDbCircle
 10
227.4315331044339
 20
417.878742195959
 30
0.0
 40
0.2
100
AcDbArc
 50
180.0000000001794
 51
261.0423284192139
  0
ARC
  5
210
330
6F
100
AcDbEntity
  8
LOUVER
  6
Continuous
100
AcDbCircle
 10
228.0232111453173
 20
417.8787421959463
 30
0.0
 40
0.2
100
AcDbArc
 50
278.9576715782362
 51
0.0000000001796163
  0
ARC
  5
211
330
6F
100
AcDbEntity
  8
LOUVER
  6
Continuous
100
AcDbCircle
 10
228.423207199747
 20
417.8805188333539
 30
0.0
 40
0.2
100
AcDbArc
 50
110.3599951875391
 51
180.0000000001795
  0
ARC
  5
212
330
6F
100
AcDbEntity
  8
LOUVER
  6
Continuous
100
AcDbCircle
 10
227.0315370500042
 20
417.8805188333846
 30
0.0
 40
0.2
100
AcDbArc
 50
0.000000000179536
 51
69.64000480990852
  0
LINE
  5
213
330
6F
100
AcDbEntity
  8
LOUVER
  6
Continuous
100
AcDbLine
 10
227.231537050006
 20
417.8805188333856
 30
0.0
 11
227.2315331044358
 21
417.878742195959
 31
0.0
  0
LINE
  5
214
330
6F
100
AcDbEntity
  8
LOUVER
  6
Continuous
100
AcDbLine
 10
228.2232071997474
 20
417.8805188333558
 30
0.0
 11
228.2232111453174
 21
417.8787421959492
 31
0.0
  0
ARC
  5
215
330
6F
100
AcDbEntity
  8
LOUVER
  6
Continuous
100
AcDbCircle
 10
227.727372124917
 20
419.7555691123165
 30
0.0
 40
2.1
100
AcDbArc
 50
351.0423284192156
 51
8.957671578234869
  0
ARC
  5
216
330
6F
100
AcDbEntity
  8
LOUVER
  6
Continuous
100
AcDbCircle
 10
229.6041990412736
 20
419.4597300918323
 30
0.0
 40
0.2
100
AcDbArc
 50
270.0000000001796
 51
351.042328419214
  0
ARC
  5
217
330
6F
100
AcDbEntity
  8
LOUVER
  6
Continuous
100
AcDbCircle
 10
229.6041990412872
 20
420.0514081327148
 30
0.0
 40
0.2
100
AcDbArc
 50
8.957671578236167
 51
90.00000000017953
  0
ARC
  5
218
330
6F
100
AcDbEntity
  8
LOUVER
  6
Continuous
100
AcDbCircle
 10
229.6024224038796
 20
420.4514041871447
 30
0.0
 40
0.2
100
AcDbArc
 50
200.3599951875391
 51
270.0000000001795
  0
ARC
  5
219
330
6F
100
AcDbEntity
  8
LOUVER
  6
Continuous
100
AcDbCircle
 10
229.6024224038487
 20
419.0597340374027
 30
0.0
 40
0.2
100
AcDbArc
 50
90.00000000017953
 51
159.6400048099086
  0
LINE
  5
21A
330
6F
100
AcDbEntity
  8
LOUVER
  6
Continuous
100
AcDbLine
 10
229.6024224038476
 20
419.2597340374038
 30
0.0
 11
229.6041990412742
 21
419.2597300918337
 31
0.0
  0
LINE
  5
21B
330
6F
100
AcDbEntity
  8
LOUVER
  6
Continuous
100
AcDbLine
 10
229.6024224038808
 20
420.2514041871471
 30
0.0
 11
229.6041990412864
 21
420.2514081327171
 31
0.0
  0
LINE
  5
21C
330
6F
100
AcDbEntity
  8
LOUVER
  6
Continuous
100
AcDbLine
 10
231.0844541912357
 20
417.9555691123155
 30
0.0
 11
241.2273721249386
 21
417.9555691123155
 31
0.0
  0
LINE
  5
21D
330
6F
100
AcDbEntity
  8
LOUVER
  6
Continuous
100
AcDbLine
 10
212.7273721249183
 20
520.7555691123161
 30
0.0
 11
212.7273721249148
 21
371.755569112316
 31
0.0
  0
LINE
  5
21E
330
6F
100
AcDbEntity
  8
LOUVER
  6
Continuous
100
AcDbLine
 10
214.2273721249139
 20
417.9555691123142
 30
0.0
 11
224.3702900585977
 21
417.9555691123141
 31
0.0
  0
LINE
  5
21F
330
6F
100
AcDbEntity
  8
LOUVER
  6
Continuous
100
AcDbLine
 10
240.2273721247827
 20
380.5555691122877
 30
0.0
 11
241.5273721249175
 21
380.5555691122855
 31
0.0
  0
LINE
  5
220
330
6F
100
AcDbEntity
  8
LOUVER
  6
Continuous
100
AcDbLine
 10
240.9273721249662
 20
371.7555691123037
 30
0.0
 11
240.9273721249689
 21
376.7555691119909
 31
0.0
  0
LINE
  5
221
330
6F
100
AcDbEntity
  8
LOUVER
  6
Continuous
100
AcDbLine
 10
240.9273721249644
 20
371.7555691123014
 30
0.0
 11
242.7273721249128
 21
371.7555691122984
 31
0.0
  0
LINE
  5
222
330
6F
100
AcDbEntity
  8
LOUVER
  6
Continuous
100
AcDbLine
 10
241.5273721249208
 20
385.755569112302
 30
0.0
 11
237.427372124935
 21
385.7555691123102
 31
0.0
  0
LINE
  5
223
330
6F
100
AcDbEntity
  8
LOUVER
  6
Continuous
100
AcDbLine
 10
237.4273721249368
 20
385.7555691123089
 30
0.0
 11
237.4273721249388
 21
386.9555691123096
 31
0.0
  0
ARC
  5
224
330
6F
100
AcDbEntity
  8
LOUVER
  6
Continuous
100
AcDbCircle
 10
240.2273721247824
 20
380.3555691122878
 30
0.0
 40
0.2
100
AcDbArc
 50
89.9999999999035
 51
194.1296704973584
  0
LINE
  5
225
330
6F
100
AcDbEntity
  8
LOUVER
  6
Continuous
100
AcDbLine
 10
241.527372124922
 20
386.9555691123014
 30
0.0
 11
237.4273721249381
 21
386.9555691123096
 31
0.0
  0
LINE
  5
226
330
6F
100
AcDbEntity
  8
LOUVER
  6
Continuous
100
AcDbLine
 10
242.7273721250077
 20
520.7555691123034
 30
0.0
 11
242.7273721249119
 21
371.7555691122985
 31
0.0
  0
ARC
  5
227
330
6F
100
AcDbEntity
  8
LOUVER
  6
Continuous
100
AcDbCircle
 10
224.370290058598
 20
418.4555691123152
 30
0.0
 40
0.5
100
AcDbArc
 50
270.0
 51
21.16844884583121
  0
ARC
  5
228
330
6F
100
AcDbEntity
  8
LOUVER
  6
Continuous
100
AcDbCircle
 10
231.084454191236
 20
418.4555691123152
 30
0.0
 40
0.5
100
AcDbArc
 50
158.8315511541688
 51
270.0
  0
LINE
  5
229
330
6F
100
AcDbEntity
  8
LOUVER
  6
Continuous
100
AcDbLine
 10
214.2273721249175
 20
519.5555691123141
 30
0.0
 11
214.227372124915
 21
417.9555691123155
 31
0.0
  0
LINE
  5
22A
330
6F
100
AcDbEntity
  8
LOUVER
  6
Continuous
100
AcDbLine
 10
241.2273721250081
 20
519.5555691123148
 30
0.0
 11
241.2273721249395
 21
417.9555691123161
 31
0.0
  0
LINE
  5
22B
330
6F
100
AcDbEntity
  8
LOUVER
  6
Continuous
100
AcDbLine
 10
213.9273721249157
 20
416.7555691123168
 30
0.0
 11
213.9273721249151
 21
386.9555691123177
 31
0.0
  0
LINE
  5
22C
330
6F
100
AcDbEntity
  8
LOUVER
  6
Continuous
100
AcDbLine
 10
213.9273721249147
 20
385.7555691123162
 30
0.0
 11
213.9273721249146
 21
380.5555691122991
 31
0.0
  0
LINE
  5
22D
330
6F
100
AcDbEntity
  8
LOUVER
  6
Continuous
100
AcDbLine
 10
241.5273721249378
 20
416.7555691123149
 30
0.0
 11
241.5273721249219
 21
386.9555691123012
 31
0.0
  0
LINE
  5
22E
330
6F
100
AcDbEntity
  8
LOUVER
  6
Continuous
100
AcDbLine
 10
241.527372124921
 20
385.7555691123008
 30
0.0
 11
241.5273721249176
 21
380.5555691122837
 31
0.0
  0
LINE
  5
22F
330
6F
100
AcDbEntity
  8
LOUVER
  6
Continuous
100
AcDbLine
 10
241.2273721250085
 20
519.5555691123151
 30
0.0
 11
231.0472267983509
 21
519.0918282461409
 31
0.0
  0
LINE
  5
230
330
6F
100
AcDbEntity
  8
LOUVER
  6
Continuous
100
AcDbLine
 10
224.4075174514844
 20
519.0918282461439
 30
0.0
 11
214.2273721249177
 21
519.5555691123177
 31
0.0
  0
ARC
  5
231
330
6F
100
AcDbEntity
  8
LOUVER
  6
Continuous
100
AcDbCircle
 10
224.3847643158282
 20
518.5923462196211
 30
0.0
 40
0.5
100
AcDbArc
 50
338.2025214809959
 51
87.39178199167815
  0
ARC
  5
232
330
6F
100
AcDbEntity
  8
LOUVER
  6
Continuous
100
AcDbCircle
 10
231.0699799340067
 20
518.5923462196211
 30
0.0
 40
0.5
100
AcDbArc
 50
92.60821800829905
 51
201.797478518999
  0
LINE
  5
233
330
6F
100
AcDbEntity
  8
LOUVER
  6
Continuous
100
AcDbLine
 10
240.0334229788347
 20
380.306745667236
 30
0.0
 11
240.9273721249681
 21
376.7555691119887
 31
0.0
  0
LINE
  5
234
330
6F
100
AcDbEntity
  8
LOUVER
  6
Continuous
100
AcDbLine
 10
215.4213212710044
 20
380.3067456672483
 30
0.0
 11
214.5273721248589
 21
376.755569112004
 31
0.0
  0
ARC
  5
235
330
6F
100
AcDbEntity
  8
LOUVER
  6
Continuous
100
AcDbCircle
 10
220.7273721249152
 20
416.7555691123165
 30
0.0
 40
0.3
100
AcDbArc
 50
0.0
 51
180.0
  0
LINE
  5
236
330
6F
100
AcDbEntity
  8
LOUVER
  6
Continuous
100
AcDbLine
 10
213.9273721249138
 20
416.7555691123168
 30
0.0
 11
220.4273721249147
 21
416.7555691123168
 31
0.0
  0
ARC
  5
237
330
6F
100
AcDbEntity
  8
LOUVER
  6
Continuous
100
AcDbCircle
 10
234.7273721249052
 20
416.7555691123165
 30
0.0
 40
0.3
100
AcDbArc
 50
0.0000000000088547
 51
180.0000000000089
  0
LINE
  5
238
330
6F
100
AcDbEntity
  8
LOUVER
  6
Continuous
100
AcDbLine
 10
221.0273721249141
 20
416.7555691123168
 30
0.0
 11
234.4273721249046
 21
416.7555691123168
 31
0.0
  0
LINE
  5
239
330
6F
100
AcDbEntity
  8
LOUVER
  6
Continuous
100
AcDbLine
 10
235.0273721249042
 20
416.7555691123168
 30
0.0
 11
241.5273721249378
 21
416.7555691123168
 31
0.0
  0
LINE
  5
23A
330
6F
100
AcDbEntity
  8
UKEZAI
  6
Continuous
100
AcDbLine
 10
239.4273721249125
 20
373.7555691123014
 30
0.0
 11
239.4273721249125
 21
380.7555691123014
 31
0.0
  0
LINE
  5
23B
330
6F
100
AcDbEntity
  8
UKEZAI
  6
Continuous
100
AcDbLine
 10
240.9273721249643
 20
370.7555691123012
 30
0.0
 11
240.9273721249665
 21
372.7555691120143
 31
0.0
  0
LINE
  5
23C
330
6F
100
AcDbEntity
  8
UKEZAI
  6
Continuous
100
AcDbLine
 10
237.9273721249125
 20
372.2555691123014
 30
0.0
 11
237.9273721249125
 21
385.0055691123015
 31
0.0
  0
LINE
  5
23D
330
6F
100
AcDbEntity
  8
UKEZAI
  6
Continuous
100
AcDbLine
 10
239.4273721249129
 20
380.7555691122558
 30
0.0
 11
240.7273721241818
 21
380.7555691122567
 31
0.0
  0
LINE
  5
23E
330
6F
100
AcDbEntity
  8
UKEZAI
  6
Continuous
100
AcDbLine
 10
239.4273721249125
 20
373.7555691123014
 30
0.0
 11
240.7273721249677
 21
373.7555691123014
 31
0.0
  0
LINE
  5
23F
330
6F
100
AcDbEntity
  8
UKEZAI
  6
Continuous
100
AcDbLine
 10
216.0273721249126
 20
373.7555691123014
 30
0.0
 11
216.0273721249126
 21
380.7555691123014
 31
0.0
  0
LINE
  5
240
330
6F
100
AcDbEntity
  8
UKEZAI
  6
Continuous
100
AcDbLine
 10
214.5273721248602
 20
370.7555691123013
 30
0.0
 11
214.527372124858
 21
372.7555691120114
 31
0.0
  0
LINE
  5
241
330
6F
100
AcDbEntity
  8
UKEZAI
  6
Continuous
100
AcDbLine
 10
217.5273721249126
 20
372.2555691123014
 30
0.0
 11
217.5273721249126
 21
385.0055691123015
 31
0.0
  0
ARC
  5
242
330
6F
100
AcDbEntity
  8
UKEZAI
  6
Continuous
100
AcDbCircle
 10
216.7773721249126
 20
385.0055691123015
 30
0.0
 40
0.75
100
AcDbArc
 50
0.0
 51
160.1120357041571
  0
LINE
  5
243
330
6F
100
AcDbEntity
  8
UKEZAI
  6
Continuous
100
AcDbLine
 10
216.0273721249124
 20
380.755569112256
 30
0.0
 11
214.7273721256434
 21
380.7555691122569
 31
0.0
  0
LINE
  5
244
330
6F
100
AcDbEntity
  8
UKEZAI
  6
Continuous
100
AcDbLine
 10
216.0273721249126
 20
373.7555691123014
 30
0.0
 11
214.7273721248577
 21
373.7555691123014
 31
0.0
  0
LINE
  5
245
330
6F
100
AcDbEntity
  8
UKEZAI
  6
Continuous
100
AcDbLine
 10
214.527372124861
 20
370.7555691123014
 30
0.0
 11
240.9273721249643
 21
370.7555691123014
 31
0.0
  0
ARC
  5
246
330
6F
100
AcDbEntity
  8
UKEZAI
  6
Continuous
100
AcDbCircle
 10
227.7273721249127
 20
372.2555691123014
 30
0.0
 40
0.3
100
AcDbArc
 50
180.0
 51
0.0
  0
ARC
  5
247
330
6F
100
AcDbEntity
  8
UKEZAI
  6
Continuous
100
AcDbCircle
 10
238.6773721249125
 20
385.0055691123015
 30
0.0
 40
0.75
100
AcDbArc
 50
19.8879642958426
 51
180.0
  0
LINE
  5
248
330
6F
100
AcDbEntity
  8
UKEZAI
  6
Continuous
100
AcDbLine
 10
240.9273721249667
 20
372.7555691120144
 30
0.0
 11
240.7273721249678
 21
373.7555691123013
 31
0.0
  0
LINE
  5
249
330
6F
100
AcDbEntity
  8
UKEZAI
  6
Continuous
100
AcDbLine
 10
214.5273721248586
 20
372.7555691120141
 30
0.0
 11
214.7273721248575
 21
373.7555691123012
 31
0.0
  0
ARC
  5
24A
330
6F
100
AcDbEntity
  8
UKEZAI
  6
Continuous
100
AcDbCircle
 10
214.7273721256439
 20
380.955569112257
 30
0.0
 40
0.2
100
AcDbArc
 50
160.1120357041559
 51
270.0
  0
LINE
  5
24B
330
6F
100
AcDbEntity
  8
UKEZAI
  6
Continuous
100
AcDbLine
 10
214.5393002041837
 20
381.0236055169117
 30
0.0
 11
216.0721024194377
 21
385.2607056297572
 31
0.0
  0
ARC
  5
24C
330
6F
100
AcDbEntity
  8
UKEZAI
  6
Continuous
100
AcDbCircle
 10
240.7273721241814
 20
380.955569112257
 30
0.0
 40
0.2
100
AcDbArc
 50
270.0
 51
19.88796429584412
  0
LINE
  5
24D
330
6F
100
AcDbEntity
  8
UKEZAI
  6
Continuous
100
AcDbLine
 10
240.9154440456414
 20
381.023605516912
 30
0.0
 11
239.3826418303873
 21
385.2607056297573
 31
0.0
  0
ARC
  5
24E
330
6F
100
AcDbEntity
  8
UKEZAI
  6
HIDDEN
100
AcDbCircle
 10
229.7273721249127
 20
372.2555691123014
 30
0.0
 40
0.3
100
AcDbArc
 50
0.0
 51
180.0
  0
LINE
  5
24F
330
6F
100
AcDbEntity
  8
UKEZAI
  6
Continuous
100
AcDbLine
 10
228.0273721249126
 20
372.2555691123014
 30
0.0
 11
229.4273721249125
 21
372.2555691123014
 31
0.0
  0
LINE
  5
250
330
6F
100
AcDbEntity
  8
UKEZAI
  6
Continuous
100
AcDbLine
 10
230.0273721249126
 20
372.2555691123014
 30
0.0
 11
237.9273721249125
 21
372.2555691123014
 31
0.0
  0
ARC
  5
251
330
6F
100
AcDbEntity
  8
UKEZAI
  6
HIDDEN
100
AcDbCircle
 10
225.7273721249127
 20
372.2555691123014
 30
0.0
 40
0.3
100
AcDbArc
 50
0.0
 51
180.0
  0
LINE
  5
252
330
6F
100
AcDbEntity
  8
UKEZAI
  6
Continuous
100
AcDbLine
 10
217.5273721249126
 20
372.2555691123014
 30
0.0
 11
225.4273721249127
 21
372.2555691123014
 31
0.0
  0
LINE
  5
253
330
6F
100
AcDbEntity
  8
UKEZAI
  6
Continuous
100
AcDbLine
 10
226.0273721249126
 20
372.2555691123014
 30
0.0
 11
227.4273721249127
 21
372.2555691123014
 31
0.0
  0
LINE
  5
254
330
6F
100
AcDbEntity
  8
WASHER
  6
Continuous
100
AcDbLine
 10
218.727372121985
 20
121.8364496096262
 30
0.0
 11
236.727372121985
 21
121.8364496096262
 31
0.0
  0
LINE
  5
255
330
6F
100
AcDbEntity
  8
WASHER
  6
Continuous
100
AcDbLine
 10
236.727372121985
 20
119.8364496096262
 30
0.0
 11
236.727372121985
 21
121.8364496096262
 31
0.0
  0
LINE
  5
256
330
6F
100
AcDbEntity
  8
WASHER
  6
Continuous
100
AcDbLine
 10
218.727372121985
 20
119.8364496096262
 30
0.0
 11
236.727372121985
 21
119.8364496096262
 31
0.0
  0
LINE
  5
257
330
6F
100
AcDbEntity
  8
WASHER
  6
HIDDEN
100
AcDbLine
 10
230.9273721219851
 20
119.836449609626
 30
0.0
 11
230.9273721219851
 21
121.8364496096327
 31
0.0
  0
LINE
  5
258
330
6F
100
AcDbEntity
  8
WASHER
  6
HIDDEN
100
AcDbLine
 10
224.5273721219851
 20
119.836449609626
 30
0.0
 11
224.5273721219851
 21
121.8364496096193
 31
0.0
  0
LINE
  5
259
330
6F
100
AcDbEntity
  8
WASHER
  6
Continuous
100
AcDbLine
 10
218.727372121985
 20
119.8364496096262
 30
0.0
 11
218.727372121985
 21
121.8364496096262
 31
0.0
  0
INSERT
  5
25A
330
6F
100
AcDbEntity
  8
COMMENT
  6
Continuous
100
AcDbBlockReference
  2
M6
 10
237.047344785418
 20
121.8364496096262
 30
0.0
  0
INSERT
  5
25B
330
6F
100
AcDbEntity
  8
COMMENT
  6
Continuous
100
AcDbBlockReference
  2
M7
 10
242.7273721235197
 20
205.8108257540164
 30
0.0
  0
LINE
  5
25C
330
6F
100
AcDbEntity
  8
COMMENT
  6
Continuous
100
AcDbLine
 10
211.927372111548
 20
268.3364496096416
 30
0.0
 11
181.2932553803003
 21
268.3364496096416
 31
0.0
  0
LINE
  5
25D
330
6F
100
AcDbEntity
  8
COMMENT
  6
Continuous
100
AcDbLine
 10
182.2932553803003
 20
268.3364496096416
 30
0.0
 11
182.2932553803003
 21
118.336449609626
 31
0.0
  0
LWPOLYLINE
  5
25E
330
6F
100
AcDbEntity
  8
COMMENT
  6
Continuous
100
AcDbPolyline
 90
        2
 70
     1
 43
0.5
 10
182.5432553803003
 20
268.3364496096416
 42
1.0
 10
182.0432553803003
 20
268.3364496096416
 42
1.0
  0
LWPOLYLINE
  5
262
330
6F
100
AcDbEntity
  8
COMMENT
  6
Continuous
100
AcDbPolyline
 90
        2
 70
     1
 43
0.5
 10
182.5432553803003
 20
118.336449609626
 42
1.0
 10
182.0432553803003
 20
118.336449609626
 42
1.0
  0
TEXT
  5
266
330
6F
100
AcDbEntity
  8
COMMENT
  6
Continuous
100
AcDbText
 10
181.7932553803003
 20
189.3414494856561
 30
0.0
 40
3.099999904632568
  1
150
 50
90.0
100
AcDbText
  0
LINE
  5
267
330
6F
100
AcDbEntity
  8
COMMENT
  6
Continuous
100
AcDbLine
 10
242.7273721234689
 20
269.1364496215625
 30
0.0
 11
242.7273721234689
 21
282.122764726969
 31
0.0
  0
LINE
  5
268
330
6F
100
AcDbEntity
  8
COMMENT
  6
Continuous
100
AcDbLine
 10
242.7273721234689
 20
281.1227647269689
 30
0.0
 11
212.7273721234689
 21
281.1227647269689
 31
0.0
  0
LWPOLYLINE
  5
269
330
6F
100
AcDbEntity
  8
COMMENT
  6
Continuous
100
AcDbPolyline
 90
        2
 70
     1
 43
0.5
 10
242.9773721234689
 20
281.1227647269689
 42
1.0
 10
242.4773721234689
 20
281.1227647269689
 42
1.0
  0
LWPOLYLINE
  5
26D
330
6F
100
AcDbEntity
  8
COMMENT
  6
Continuous
100
AcDbPolyline
 90
        2
 70
     1
 43
0.5
 10
212.9773721234689
 20
281.1227647269689
 42
1.0
 10
212.4773721234689
 20
281.1227647269689
 42
1.0
  0
TEXT
  5
271
330
6F
100
AcDbEntity
  8
COMMENT
  6
Continuous
100
AcDbText
 10
225.1273720400224
 20
281.622764726969
 30
0.0
 40
3.099999904632568
  1
30
100
AcDbText
  0
LINE
  5
272
330
6F
100
AcDbEntity
  8
COMMENT
  6
Continuous
100
AcDbLine
 10
212.7273721234689
 20
269.1364496215625
 30
0.0
 11
212.7273721234689
 21
282.122764726969
 31
0.0
  0
LINE
  5
273
330
6F
100
AcDbEntity
  8
COMMENT
  6
Continuous
100
AcDbLine
 10
204.6969337500588
 20
128.336449609626
 30
0.0
 11
191.5251479102479
 21
128.336449609626
 31
0.0
  0
LINE
  5
274
330
6F
100
AcDbEntity
  8
COMMENT
  6
Continuous
100
AcDbLine
 10
192.5251479102479
 20
128.336449609626
 30
0.0
 11
192.5251479102479
 21
118.336449609626
 31
0.0
  0
LWPOLYLINE
  5
275
330
6F
100
AcDbEntity
  8
COMMENT
  6
Continuous
100
AcDbPolyline
 90
        2
 70
     1
 43
0.5
 10
192.7751479102479
 20
128.336449609626
 42
1.0
 10
192.2751479102479
 20
128.336449609626
 42
1.0
  0
LWPOLYLINE
  5
279
330
6F
100
AcDbEntity
  8
COMMENT
  6
Continuous
100
AcDbPolyline
 90
        2
 70
     1
 43
0.5
 10
192.7751479102479
 20
118.336449609626
 42
1.0
 10
192.2751479102479
 20
118.336449609626
 42
1.0
  0
TEXT
  5
27D
330
6F
100
AcDbEntity
  8
COMMENT
  6
Continuous
100
AcDbText
 10
192.0251479102479
 20
120.7364495261795
 30
0.0
 40
3.099999904632568
  1
10
 50
90.0
100
AcDbText
  0
LINE
  5
27E
330
6F
100
AcDbEntity
  8
COMMENT
  6
Continuous
100
AcDbLine
 10
211.9273721115459
 20
119.3364496096406
 30
0.0
 11
204.0346937493736
 21
119.3364496096406
 31
0.0
  0
LINE
  5
27F
330
6F
100
AcDbEntity
  8
COMMENT
  6
Continuous
100
AcDbLine
 10
205.0346937493736
 20
124.0531911715302
 30
0.0
 11
205.0346937493736
 21
118.336449609626
 31
0.0
  0
LWPOLYLINE
  5
280
330
6F
100
AcDbEntity
  8
COMMENT
  6
Continuous
100
AcDbPolyline
 90
        2
 70
     1
 43
0.5
 10
205.2846937493736
 20
119.3364496096406
 42
1.0
 10
204.7846937493736
 20
119.3364496096406
 42
1.0
  0
LWPOLYLINE
  5
284
330
6F
100
AcDbEntity
  8
COMMENT
  6
Continuous
100
AcDbPolyline
 90
        2
 70
     1
 43
0.5
 10
205.2846937493736
 20
118.336449609626
 42
1.0
 10
204.7846937493736
 20
118.336449609626
 42
1.0
  0
TEXT
  5
288
330
6F
100
AcDbEntity
  8
COMMENT
  6
Continuous
100
AcDbText
 10
204.5346937493736
 20
121.4531912370752
 30
0.0
 40
3.099999904632568
  1
1
 50
90.0
100
AcDbText
  0
LINE
  5
289
330
6F
100
AcDbEntity
  8
COMMENT
  6
Continuous
100
AcDbLine
 10
212.7273721234669
 20
118.5364495977197
 30
0.0
 11
212.7273721234669
 21
75.54741973538195
 31
0.0
  0
LINE
  5
28A
330
6F
100
AcDbEntity
  8
COMMENT
  6
Continuous
100
AcDbLine
 10
212.7273721234669
 20
76.54741973538197
 30
0.0
 11
227.727372123726
 21
76.54741973538197
 31
0.0
  0
LWPOLYLINE
  5
28B
330
6F
100
AcDbEntity
  8
COMMENT
  6
Continuous
100
AcDbPolyline
 90
        2
 70
     1
 43
0.5
 10
212.9773721234669
 20
76.54741973538197
 42
1.0
 10
212.4773721234669
 20
76.54741973538197
 42
1.0
  0
LWPOLYLINE
  5
28F
330
6F
100
AcDbEntity
  8
COMMENT
  6
Continuous
100
AcDbPolyline
 90
        2
 70
     1
 43
0.5
 10
227.977372123726
 20
76.54741973538197
 42
1.0
 10
227.477372123726
 20
76.54741973538197
 42
1.0
  0
TEXT
  5
293
330
6F
100
AcDbEntity
  8
COMMENT
  6
Continuous
100
AcDbText
 10
217.6273720401499
 20
77.04741973538197
 30
0.0
 40
3.099999904632568
  1
15
100
AcDbText
  0
LINE
  5
294
330
6F
100
AcDbEntity
  8
COMMENT
  6
Continuous
100
AcDbLine
 10
227.727372123726
 20
76.54741973538197
 30
0.0
 11
242.7273721234641
 21
76.54741973538197
 31
0.0
  0
LWPOLYLINE
  5
295
330
6F
100
AcDbEntity
  8
COMMENT
  6
Continuous
100
AcDbPolyline
 90
        2
 70
     1
 43
0.5
 10
227.977372123726
 20
76.54741973538197
 42
1.0
 10
227.477372123726
 20
76.54741973538197
 42
1.0
  0
LWPOLYLINE
  5
299
330
6F
100
AcDbEntity
  8
COMMENT
  6
Continuous
100
AcDbPolyline
 90
        2
 70
     1
 43
0.5
 10
242.9773721234641
 20
76.54741973538197
 42
1.0
 10
242.4773721234641
 20
76.54741973538197
 42
1.0
  0
TEXT
  5
29D
330
6F
100
AcDbEntity
  8
COMMENT
  6
Continuous
100
AcDbText
 10
232.6273720401485
 20
77.04741973538197
 30
0.0
 40
3.099999904632568
  1
15
100
AcDbText
  0
LINE
  5
29E
330
6F
100
AcDbEntity
  8
COMMENT
  6
Continuous
100
AcDbLine
 10
242.7273721234641
 20
118.5364495977021
 30
0.0
 11
242.7273721234641
 21
75.54741973538195
 31
0.0
  0
LINE
  5
29F
330
6F
100
AcDbEntity
  8
COMMENT
  6
Continuous
100
AcDbLine
 10
242.7273721249167
 20
521.5555691242379
 30
0.0
 11
242.7273721249167
 21
535.4987828773898
 31
0.0
  0
LINE
  5
2A0
330
6F
100
AcDbEntity
  8
COMMENT
  6
Continuous
100
AcDbLine
 10
242.7273721249167
 20
534.4987828773898
 30
0.0
 11
212.7273721249167
 21
534.4987828773898
 31
0.0
  0
LWPOLYLINE
  5
2A1
330
6F
100
AcDbEntity
  8
COMMENT
  6
Continuous
100
AcDbPolyline
 90
        2
 70
     1
 43
0.5
 10
242.9773721249167
 20
534.4987828773898
 42
1.0
 10
242.4773721249167
 20
534.4987828773898
 42
1.0
  0
LWPOLYLINE
  5
2A5
330
6F
100
AcDbEntity
  8
COMMENT
  6
Continuous
100
AcDbPolyline
 90
        2
 70
     1
 43
0.5
 10
212.9773721249167
 20
534.4987828773898
 42
1.0
 10
212.4773721249167
 20
534.4987828773898
 42
1.0
  0
TEXT
  5
2A9
330
6F
100
AcDbEntity
  8
COMMENT
  6
Continuous
100
AcDbText
 10
225.1273720414702
 20
534.9987828773898
 30
0.0
 40
3.099999904632568
  1
30
100
AcDbText
  0
LINE
  5
2AA
330
6F
100
AcDbEntity
  8
COMMENT
  6
Continuous
100
AcDbLine
 10
212.7273721249167
 20
521.5555691242379
 30
0.0
 11
212.7273721249167
 21
535.4987828773898
 31
0.0
  0
LINE
  5
2AB
330
6F
100
AcDbEntity
  8
COMMENT
  6
Continuous
100
AcDbLine
 10
211.9273721129958
 20
520.7555691123172
 30
0.0
 11
181.1168472554397
 21
520.7555691123172
 31
0.0
  0
LINE
  5
2AC
330
6F
100
AcDbEntity
  8
COMMENT
  6
Continuous
100
AcDbLine
 10
182.1168472554397
 20
520.7555691123172
 30
0.0
 11
182.1168472554397
 21
370.7555691123014
 31
0.0
  0
LWPOLYLINE
  5
2AD
330
6F
100
AcDbEntity
  8
COMMENT
  6
Continuous
100
AcDbPolyline
 90
        2
 70
     1
 43
0.5
 10
182.3668472554397
 20
520.7555691123172
 42
1.0
 10
181.8668472554397
 20
520.7555691123172
 42
1.0
  0
LWPOLYLINE
  5
2B1
330
6F
100
AcDbEntity
  8
COMMENT
  6
Continuous
100
AcDbPolyline
 90
        2
 70
     1
 43
0.5
 10
182.3668472554397
 20
370.7555691123014
 42
1.0
 10
181.8668472554397
 20
370.7555691123014
 42
1.0
  0
TEXT
  5
2B5
330
6F
100
AcDbEntity
  8
COMMENT
  6
Continuous
100
AcDbText
 10
181.6168472554397
 20
441.7605689883314
 30
0.0
 40
3.099999904632568
  1
150
 50
90.0
100
AcDbText
  0
LINE
  5
2B6
330
6F
100
AcDbEntity
  8
COMMENT
  6
Continuous
100
AcDbLine
 10
204.6969337515066
 20
380.7555691123031
 30
0.0
 11
194.507251497287
 21
380.7555691123031
 31
0.0
  0
LINE
  5
2B7
330
6F
100
AcDbEntity
  8
COMMENT
  6
Continuous
100
AcDbLine
 10
195.507251497287
 20
380.7555691123031
 30
0.0
 11
195.507251497287
 21
370.7555691123014
 31
0.0
  0
LWPOLYLINE
  5
2B8
330
6F
100
AcDbEntity
  8
COMMENT
  6
Continuous
100
AcDbPolyline
 90
        2
 70
     1
 43
0.5
 10
195.757251497287
 20
380.7555691123031
 42
1.0
 10
195.257251497287
 20
380.7555691123031
 42
1.0
  0
LWPOLYLINE
  5
2BC
330
6F
100
AcDbEntity
  8
COMMENT
  6
Continuous
100
AcDbPolyline
 90
        2
 70
     1
 43
0.5
 10
195.757251497287
 20
370.7555691123014
 42
1.0
 10
195.257251497287
 20
370.7555691123014
 42
1.0
  0
TEXT
  5
2C0
330
6F
100
AcDbEntity
  8
COMMENT
  6
Continuous
100
AcDbText
 10
195.007251497287
 20
373.1555690288557
 30
0.0
 40
3.099999904632568
  1
10
 50
90.0
100
AcDbText
  0
LINE
  5
2C1
330
6F
100
AcDbEntity
  8
COMMENT
  6
Continuous
100
AcDbLine
 10
211.9273721129922
 20
371.7555691123168
 30
0.0
 11
205.5069638881555
 21
371.7555691123168
 31
0.0
  0
LINE
  5
2C2
330
6F
100
AcDbEntity
  8
COMMENT
  6
Continuous
100
AcDbLine
 10
206.5069638881555
 20
375.66840113403
 30
0.0
 11
206.5069638881555
 21
370.7555691123014
 31
0.0
  0
LWPOLYLINE
  5
2C3
330
6F
100
AcDbEntity
  8
COMMENT
  6
Continuous
100
AcDbPolyline
 90
        2
 70
     1
 43
0.5
 10
206.7569638881555
 20
371.7555691123168
 42
1.0
 10
206.2569638881555
 20
371.7555691123168
 42
1.0
  0
LWPOLYLINE
  5
2C7
330
6F
100
AcDbEntity
  8
COMMENT
  6
Continuous
100
AcDbPolyline
 90
        2
 70
     1
 43
0.5
 10
206.7569638881555
 20
370.7555691123014
 42
1.0
 10
206.2569638881555
 20
370.7555691123014
 42
1.0
  0
TEXT
  5
2CB
330
6F
100
AcDbEntity
  8
COMMENT
  6
Continuous
100
AcDbText
 10
206.0069638881555
 20
373.0684009463717
 30
0.0
 40
3.099999904632568
  1
1
 50
90.0
100
AcDbText
  0
LINE
  5
2CC
330
6F
100
AcDbEntity
  8
COMMENT
  6
Continuous
100
AcDbLine
 10
212.7273721249148
 20
370.9555691003951
 30
0.0
 11
212.7273721249148
 21
302.3863537818536
 31
0.0
  0
LINE
  5
2CD
330
6F
100
AcDbEntity
  8
COMMENT
  6
Continuous
100
AcDbLine
 10
212.7273721249148
 20
303.3863537818537
 30
0.0
 11
227.7273721252
 21
303.3863537818537
 31
0.0
  0
LWPOLYLINE
  5
2CE
330
6F
100
AcDbEntity
  8
COMMENT
  6
Continuous
100
AcDbPolyline
 90
        2
 70
     1
 43
0.5
 10
212.9773721249148
 20
303.3863537818537
 42
1.0
 10
212.4773721249148
 20
303.3863537818537
 42
1.0
  0
LWPOLYLINE
  5
2D2
330
6F
100
AcDbEntity
  8
COMMENT
  6
Continuous
100
AcDbPolyline
 90
        2
 70
     1
 43
0.5
 10
227.9773721252
 20
303.3863537818537
 42
1.0
 10
227.4773721252
 20
303.3863537818537
 42
1.0
  0
TEXT
  5
2D6
330
6F
100
AcDbEntity
  8
COMMENT
  6
Continuous
100
AcDbText
 10
217.6273720416109
 20
303.8863537818536
 30
0.0
 40
3.099999904632568
  1
15
100
AcDbText
  0
LINE
  5
2D7
330
6F
100
AcDbEntity
  8
COMMENT
  6
Continuous
100
AcDbLine
 10
227.7273721252
 20
310.2622285392439
 30
0.0
 11
227.7273721252
 21
302.3863537818536
 31
0.0
  0
LINE
  5
2D8
330
6F
100
AcDbEntity
  8
COMMENT
  6
Continuous
100
AcDbLine
 10
227.7273721252
 20
303.3863537818537
 30
0.0
 11
242.7273721249119
 21
303.3863537818537
 31
0.0
  0
LWPOLYLINE
  5
2D9
330
6F
100
AcDbEntity
  8
COMMENT
  6
Continuous
100
AcDbPolyline
 90
        2
 70
     1
 43
0.5
 10
227.9773721252
 20
303.3863537818537
 42
1.0
 10
227.4773721252
 20
303.3863537818537
 42
1.0
  0
LWPOLYLINE
  5
2DD
330
6F
100
AcDbEntity
  8
COMMENT
  6
Continuous
100
AcDbPolyline
 90
        2
 70
     1
 43
0.5
 10
242.9773721249119
 20
303.3863537818537
 42
1.0
 10
242.4773721249119
 20
303.3863537818537
 42
1.0
  0
TEXT
  5
2E1
330
6F
100
AcDbEntity
  8
COMMENT
  6
Continuous
100
AcDbText
 10
232.6273720416094
 20
303.8863537818536
 30
0.0
 40
3.099999904632568
  1
15
100
AcDbText
  0
LINE
  5
2E2
330
6F
100
AcDbEntity
  8
COMMENT
  6
Continuous
100
AcDbLine
 10
242.7273721249119
 20
370.9555691003777
 30
0.0
 11
242.7273721249119
 21
302.3863537818536
 31
0.0
  0
TEXT
  5
2E3
330
6F
100
AcDbEntity
  8
COMMENT
  6
Continuous
100
AcDbText
 10
582.06240904737
 20
160.5171401969698
 30
0.0
 40
6.0
  1
ECP取付不可
  7
KNJYOKO
100
AcDbText
  0
LINE
  5
2E4
330
6F
100
AcDbEntity
  8
COMMENT
  6
Continuous
100
AcDbLine
 10
578.2955067451488
 20
154.9134968112548
 30
0.0
 11
628.0033493910487
 21
154.9134968112548
 31
0.0
  0
LINE
  5
2E5
330
6F
100
AcDbEntity
  8
COMMENT
  6
Continuous
100
AcDbLine
 10
628.0033493910487
 20
154.9134968112548
 30
0.0
 11
628.0033493910487
 21
171.2730791546244
 31
0.0
  0
LINE
  5
2E6
330
6F
100
AcDbEntity
  8
COMMENT
  6
Continuous
100
AcDbLine
 10
628.0033493910487
 20
171.2730791546244
 30
0.0
 11
578.2955067451488
 21
171.2730791546244
 31
0.0
  0
LINE
  5
2E7
330
6F
100
AcDbEntity
  8
COMMENT
  6
Continuous
100
AcDbLine
 10
578.2955067451488
 20
171.2730791546244
 30
0.0
 11
578.2955067451488
 21
154.9134968112548
 31
0.0
  0
TEXT
  5
2E8
330
6F
100
AcDbEntity
  8
WAKU
  6
Continuous
100
AcDbText
 10
38.64675006063919
 20
555.4024753726626
 30
0.0
 40
12.0
  1
直付タイプ
  7
KNJYOKO
100
AcDbText
  0
LINE
  5
2E9
330
6F
100
AcDbEntity
  8
WASHER
  6
Continuous
100
AcDbLine
 10
218.7273721234328
 20
374.2555691123016
 30
0.0
 11
236.7273721234328
 21
374.2555691123016
 31
0.0
  0
LINE
  5
2EA
330
6F
100
AcDbEntity
  8
WASHER
  6
Continuous
100
AcDbLine
 10
236.7273721234328
 20
372.2555691123016
 30
0.0
 11
236.7273721234328
 21
374.2555691123016
 31
0.0
  0
LINE
  5
2EB
330
6F
100
AcDbEntity
  8
WASHER
  6
Continuous
100
AcDbLine
 10
218.7273721234328
 20
372.2555691123016
 30
0.0
 11
218.7273721234328
 21
374.2555691123016
 31
0.0
  0
LINE
  5
2EC
330
6F
100
AcDbEntity
  8
KUTAI
  6
Continuous
100
AcDbLine
 10
320.1307796053935
 20
370.7555691123014
 30
0.0
 11
117.957215493353
 21
370.7555691123014
 31
0.0
  0
LINE
  5
2ED
330
6F
100
AcDbEntity
  8
ANCHOR
  6
HIDDEN
100
AcDbLine
 10
222.2273721249206
 20
382.7555691124107
 30
0.0
 11
212.7273721235919
 21
382.755569112451
 31
0.0
  0
LINE
  5
2EE
330
6F
100
AcDbEntity
  8
ANCHOR
  6
HIDDEN
100
AcDbLine
 10
222.2273721254757
 20
378.7555691124107
 30
0.0
 11
212.7273721235762
 21
378.755569112451
 31
0.0
  0
LINE
  5
2EF
330
6F
100
AcDbEntity
  8
ANCHOR
  6
HIDDEN
100
AcDbLine
 10
225.1500218556861
 20
381.7555691124194
 30
0.0
 11
223.2273721249313
 21
381.7555691124155
 31
0.0
  0
LINE
  5
2F0
330
6F
100
AcDbEntity
  8
ANCHOR
  6
HIDDEN
100
AcDbLine
 10
225.150021855882
 20
379.7555691124194
 30
0.0
 11
223.2273721254693
 21
379.7555691124155
 31
0.0
  0
LINE
  5
2F1
330
6F
100
AcDbEntity
  8
ANCHOR
  6
HIDDEN
100
AcDbLine
 10
225.7273721249734
 20
380.7555691122592
 30
0.0
 11
225.150021855686
 21
381.7555691124201
 31
0.0
  0
LINE
  5
2F2
330
6F
100
AcDbEntity
  8
ANCHOR
  6
HIDDEN
100
AcDbLine
 10
225.1500218558827
 20
379.7555691124208
 30
0.0
 11
225.7273721249744
 21
380.7555691122598
 31
0.0
  0
ARC
  5
2F3
330
6F
100
AcDbEntity
  8
ANCHOR
  6
HIDDEN
100
AcDbCircle
 10
223.7273721254787
 20
380.7555691124179
 30
0.0
 40
0.5
100
AcDbArc
 50
97.20679386168658
 51
262.7932061387912
  0
LINE
  5
2F4
330
6F
100
AcDbEntity
  8
ANCHOR
  6
HIDDEN
100
AcDbLine
 10
223.6646466890138
 20
380.259519195957
 30
0.0
 11
225.150021855882
 21
379.7555691124193
 31
0.0
  0
LINE
  5
2F5
330
6F
100
AcDbEntity
  8
ANCHOR
  6
HIDDEN
100
AcDbLine
 10
223.6646466890101
 20
381.2516190288782
 30
0.0
 11
225.1500218556859
 21
381.7555691124202
 31
0.0
  0
LINE
  5
2F6
330
6F
100
AcDbEntity
  8
ANCHOR
  6
HIDDEN
100
AcDbLine
 10
223.2273721249297
 20
381.7555691124147
 30
0.0
 11
222.2273721249202
 21
382.7555691124121
 31
0.0
  0
LINE
  5
2F7
330
6F
100
AcDbEntity
  8
ANCHOR
  6
HIDDEN
100
AcDbLine
 10
222.2273721254762
 20
378.7555691124146
 30
0.0
 11
223.2273721254689
 21
379.7555691124147
 31
0.0
  0
LINE
  5
2F8
330
6F
100
AcDbEntity
  8
ANCHOR
  6
HIDDEN
100
AcDbLine
 10
222.2273721252072
 20
378.7555691124132
 30
0.0
 11
222.2273721251924
 21
382.7555691124132
 31
0.0
  0
LINE
  5
2F9
330
6F
100
AcDbEntity
  8
ANCHOR
  6
HIDDEN
100
AcDbLine
 10
223.2273721249732
 20
379.7555691124134
 30
0.0
 11
223.2273721249639
 21
381.7555691124134
 31
0.0
  0
LINE
  5
2FA
330
6F
100
AcDbEntity
  8
ANCHOR
  6
HIDDEN
100
AcDbLine
 10
223.0273721254709
 20
379.5555691124135
 30
0.0
 11
212.7273721235803
 21
379.5555691124546
 31
0.0
  0
LINE
  5
2FB
330
6F
100
AcDbEntity
  8
ANCHOR
  6
HIDDEN
100
AcDbLine
 10
223.0273721249297
 20
381.9555691124132
 30
0.0
 11
212.7273721235894
 21
381.9555691124543
 31
0.0
  0
LINE
  5
2FC
330
6F
100
AcDbEntity
  8
ANCHOR
  6
Continuous
100
AcDbLine
 10
210.7050615424423
 20
381.2537673600436
 30
0.0
 11
210.7050615424429
 21
380.2573708645613
 31
0.0
  0
LINE
  5
2FD
330
6F
100
AcDbEntity
  8
ANCHOR
  6
Continuous
100
AcDbLine
 10
210.7050615424421
 20
381.2537673600439
 30
0.0
 11
210.2273721237677
 21
381.2537673600439
 31
0.0
  0
LINE
  5
2FE
330
6F
100
AcDbEntity
  8
ANCHOR
  6
Continuous
100
AcDbLine
 10
210.7050615424425
 20
380.2573708645616
 30
0.0
 11
210.2273721237682
 21
380.2573708645616
 31
0.0
  0
LINE
  5
2FF
330
6F
100
AcDbEntity
  8
ANCHOR
  6
Continuous
100
AcDbLine
 10
212.2273721237847
 20
376.0555691123007
 30
0.0
 11
212.7273721237847
 21
376.055569112301
 31
0.0
  0
ARC
  5
300
330
6F
100
AcDbEntity
  8
ANCHOR
  6
Continuous
100
AcDbCircle
 10
216.3188375180907
 20
380.5799376789855
 30
0.0
 40
6.099999999999998
100
AcDbArc
 50
183.0312034848472
 51
227.876411461438
  0
LINE
  5
301
330
6F
100
AcDbEntity
  8
ANCHOR
  6
Continuous
100
AcDbLine
 10
212.2273721237507
 20
385.4555691123026
 30
0.0
 11
212.2273721237855
 21
376.0555691123012
 31
0.0
  0
ARC
  5
302
330
6F
100
AcDbEntity
  8
ANCHOR
  6
Continuous
100
AcDbCircle
 10
216.3188375180907
 20
380.9312005456231
 30
0.0
 40
6.099999999999998
100
AcDbArc
 50
132.1235885386251
 51
176.9687965152159
  0
LINE
  5
303
330
6F
100
AcDbEntity
  8
ANCHOR
  6
Continuous
100
AcDbLine
 10
212.7273721237513
 20
385.455569112304
 30
0.0
 11
212.727372123786
 21
376.0555691123025
 31
0.0
  0
LINE
  5
304
330
6F
100
AcDbEntity
  8
ANCHOR
  6
Continuous
100
AcDbLine
 10
212.2273721237802
 20
385.4555691123023
 30
0.0
 11
212.7273721237802
 21
385.4555691123027
 31
0.0
  0
LINE
  5
305
330
6F
100
AcDbEntity
  8
WASHER
  6
Continuous
100
AcDbLine
 10
218.7273721234328
 20
372.2555691123016
 30
0.0
 11
236.7273721234328
 21
372.2555691123016
 31
0.0
  0
INSERT
  5
306
330
6F
100
AcDbEntity
  8
COMMENT
  6
Continuous
100
AcDbBlockReference
  2
M8
 10
242.7273721249675
 20
458.2299452566917
 30
0.0
  0
INSERT
  5
307
330
6F
100
AcDbEntity
  8
COMMENT
  6
Continuous
100
AcDbBlockReference
  2
M9
 10
218.1611924527679
 20
370.7555691123013
 30
0.0
  0
INSERT
  5
308
330
6F
100
AcDbEntity
  8
COMMENT
  6
Continuous
100
AcDbBlockReference
  2
M10
 10
237.0473447868658
 20
374.2555691123016
 30
0.0
  0
LINE
  5
309
330
6F
100
AcDbEntity
  8
ANCHOR
  6
HIDDEN
100
AcDbLine
 10
227.7273721234749
 20
363.7555691123123
 30
0.0
 11
228.0273721234833
 21
363.7555691123123
 31
0.0
  0
LINE
  5
30A
330
6F
100
AcDbEntity
  8
ANCHOR
  6
HIDDEN
100
AcDbLine
 10
228.0273721235101
 20
338.2555691123125
 30
0.0
 11
228.0273721234819
 21
363.7555691123126
 31
0.0
  0
LINE
  5
30B
330
6F
100
AcDbEntity
  8
ANCHOR
  6
HIDDEN
100
AcDbLine
 10
226.0689159441695
 20
330.4272652920452
 30
0.0
 11
223.6982166493242
 21
330.6863360534822
 31
0.0
  0
LINE
  5
30C
330
6F
100
AcDbEntity
  8
ANCHOR
  6
HIDDEN
100
AcDbLine
 10
223.7273721234808
 20
365.7555691123034
 30
0.0
 11
223.0273721234753
 21
370.7555691123014
 31
0.0
  0
LINE
  5
30D
330
6F
100
AcDbEntity
  8
ANCHOR
  6
HIDDEN
100
AcDbLine
 10
227.7273721234893
 20
363.7555691123116
 30
0.0
 11
227.4273721234827
 21
363.7555691123109
 31
0.0
  0
LINE
  5
30E
330
6F
100
AcDbEntity
  8
ANCHOR
  6
HIDDEN
100
AcDbLine
 10
227.4273721235109
 20
338.255569112311
 30
0.0
 11
227.4273721234825
 21
363.7555691123114
 31
0.0
  0
LINE
  5
30F
330
6F
100
AcDbEntity
  8
ANCHOR
  6
HIDDEN
100
AcDbLine
 10
223.7273721234865
 20
360.2555691123031
 30
0.0
 11
224.7273721234865
 21
359.7555691123056
 31
0.0
  0
LINE
  5
310
330
6F
100
AcDbEntity
  8
ANCHOR
  6
HIDDEN
100
AcDbLine
 10
224.7273721234872
 20
359.7555691123062
 30
0.0
 11
224.9773721234958
 21
351.7555691123066
 31
0.0
  0
LINE
  5
311
330
6F
100
AcDbEntity
  8
ANCHOR
  6
HIDDEN
100
AcDbLine
 10
223.7273721234875
 20
360.2555691123035
 30
0.0
 11
223.7273721234759
 21
370.7555691123035
 31
0.0
  0
LINE
  5
312
330
6F
100
AcDbEntity
  8
ANCHOR
  6
HIDDEN
100
AcDbLine
 10
226.8918576058291
 20
333.3551940858354
 30
0.0
 11
222.6324027755069
 21
333.8206686437424
 31
0.0
  0
LINE
  5
313
330
6F
100
AcDbEntity
  8
ANCHOR
  6
HIDDEN
100
AcDbLine
 10
227.0004911829198
 20
334.3492759466139
 30
0.0
 11
223.3871895621033
 21
334.7441386794125
 31
0.0
  0
LINE
  5
314
330
6F
100
AcDbEntity
  8
ANCHOR
  6
HIDDEN
100
AcDbLine
 10
223.6982166493256
 20
330.6863360534813
 30
0.0
 11
222.6324027755076
 21
333.8206686437418
 31
0.0
  0
LINE
  5
315
330
6F
100
AcDbEntity
  8
ANCHOR
  6
HIDDEN
100
AcDbLine
 10
222.6324027755062
 20
333.8206686437412
 30
0.0
 11
223.3871895621033
 21
334.744138679412
 31
0.0
  0
LINE
  5
316
330
6F
100
AcDbEntity
  8
ANCHOR
  6
HIDDEN
100
AcDbLine
 10
227.1091247600114
 20
335.3433578073914
 30
0.0
 11
222.8496699296875
 21
335.8088323652984
 31
0.0
  0
LINE
  5
317
330
6F
100
AcDbEntity
  8
ANCHOR
  6
HIDDEN
100
AcDbLine
 10
223.387189562104
 20
334.7441386794115
 30
0.0
 11
222.8496699296887
 21
335.8088323652978
 31
0.0
  0
LINE
  5
318
330
6F
100
AcDbEntity
  8
ANCHOR
  6
HIDDEN
100
AcDbLine
 10
227.2720751256487
 20
336.8344805985589
 30
0.0
 11
223.0126202953246
 21
337.299955156466
 31
0.0
  0
LINE
  5
319
330
6F
100
AcDbEntity
  8
ANCHOR
  6
HIDDEN
100
AcDbLine
 10
222.8496699296879
 20
335.8088323652983
 30
0.0
 11
223.0126202953238
 21
337.2999551564658
 31
0.0
  0
LINE
  5
31A
330
6F
100
AcDbEntity
  8
ANCHOR
  6
HIDDEN
100
AcDbLine
 10
223.1918656975243
 20
338.9401902267449
 30
0.0
 11
223.4471546036877
 21
341.2762825995788
 31
0.0
  0
LINE
  5
31B
330
6F
100
AcDbEntity
  8
ANCHOR
  6
HIDDEN
100
AcDbLine
 10
227.3263919141914
 20
337.3315215289492
 30
0.0
 11
223.7130902933712
 21
337.7263842617481
 31
0.0
  0
LINE
  5
31C
330
6F
100
AcDbEntity
  8
ANCHOR
  6
HIDDEN
100
AcDbLine
 10
227.3807087027382
 20
337.8285624593378
 30
0.0
 11
223.7674070819163
 21
338.223425192137
 31
0.0
  0
LINE
  5
31D
330
6F
100
AcDbEntity
  8
ANCHOR
  6
HIDDEN
100
AcDbLine
 10
223.713090293372
 20
337.7263842617474
 30
0.0
 11
223.0126202953234
 21
337.2999551564657
 31
0.0
  0
LINE
  5
31E
330
6F
100
AcDbEntity
  8
ANCHOR
  6
HIDDEN
100
AcDbLine
 10
223.7130902933732
 20
337.7263842617469
 30
0.0
 11
223.7674070819173
 21
338.2234251921362
 31
0.0
  0
LINE
  5
31F
330
6F
100
AcDbEntity
  8
ANCHOR
  6
HIDDEN
100
AcDbLine
 10
223.7674070819151
 20
338.223425192137
 30
0.0
 11
223.1918656975219
 21
338.9401902267455
 31
0.0
  0
LINE
  5
320
330
6F
100
AcDbEntity
  8
ANCHOR
  6
HIDDEN
100
AcDbLine
 10
227.0258493024886
 20
340.8852017220568
 30
0.0
 11
223.4471546036859
 21
341.2762825995792
 31
0.0
  0
LINE
  5
321
330
6F
100
AcDbEntity
  8
ANCHOR
  6
HIDDEN
100
AcDbLine
 10
224.0933078131907
 20
341.2056707744711
 30
0.0
 11
224.1476246017349
 21
341.70271170486
 31
0.0
  0
LINE
  5
322
330
6F
100
AcDbEntity
  8
ANCHOR
  6
HIDDEN
100
AcDbLine
 10
227.0801660910341
 20
341.3822426524469
 30
0.0
 11
224.1476246017333
 21
341.7027117048613
 31
0.0
  0
LINE
  5
323
330
6F
100
AcDbEntity
  8
ANCHOR
  6
HIDDEN
100
AcDbLine
 10
224.1476246017321
 20
341.702711704859
 30
0.0
 11
223.5720832173387
 21
342.4194767394674
 31
0.0
  0
LINE
  5
324
330
6F
100
AcDbEntity
  8
ANCHOR
  6
HIDDEN
100
AcDbLine
 10
223.8273721235076
 20
342.4055691122989
 30
0.0
 11
223.8273721235049
 21
344.7555691123039
 31
0.0
  0
LINE
  5
325
330
6F
100
AcDbEntity
  8
ANCHOR
  6
HIDDEN
100
AcDbLine
 10
227.4273721235044
 20
344.755569112311
 30
0.0
 11
223.8273721235041
 21
344.7555691123032
 31
0.0
  0
LINE
  5
326
330
6F
100
AcDbEntity
  8
ANCHOR
  6
HIDDEN
100
AcDbLine
 10
224.4773721234997
 20
344.7555691123043
 30
0.0
 11
224.4773721234979
 21
345.2555691123043
 31
0.0
  0
LINE
  5
327
330
6F
100
AcDbEntity
  8
ANCHOR
  6
HIDDEN
100
AcDbLine
 10
227.4273721235045
 20
345.2555691123116
 30
0.0
 11
224.4773721234983
 21
345.255569112305
 31
0.0
  0
LINE
  5
328
330
6F
100
AcDbEntity
  8
ANCHOR
  6
HIDDEN
100
AcDbLine
 10
224.4773721234978
 20
345.2555691123056
 30
0.0
 11
223.8273721235016
 21
345.905569112299
 31
0.0
  0
LINE
  5
329
330
6F
100
AcDbEntity
  8
ANCHOR
  6
HIDDEN
100
AcDbLine
 10
223.8273721235035
 20
345.9055691122987
 30
0.0
 11
223.8273721235008
 21
348.2555691123037
 31
0.0
  0
LINE
  5
32A
330
6F
100
AcDbEntity
  8
ANCHOR
  6
HIDDEN
100
AcDbLine
 10
227.427372123501
 20
348.2555691123121
 30
0.0
 11
223.8273721235007
 21
348.255569112304
 31
0.0
  0
LINE
  5
32B
330
6F
100
AcDbEntity
  8
ANCHOR
  6
HIDDEN
100
AcDbLine
 10
224.4773721234977
 20
348.2555691123051
 30
0.0
 11
224.4773721234961
 21
348.7555691123051
 31
0.0
  0
LINE
  5
32C
330
6F
100
AcDbEntity
  8
ANCHOR
  6
HIDDEN
100
AcDbLine
 10
227.4273721235005
 20
348.7555691123121
 30
0.0
 11
224.4773721234961
 21
348.7555691123055
 31
0.0
  0
LINE
  5
32D
330
6F
100
AcDbEntity
  8
ANCHOR
  6
HIDDEN
100
AcDbLine
 10
224.4773721234947
 20
348.7555691123051
 30
0.0
 11
223.8273721234984
 21
349.4055691122985
 31
0.0
  0
LINE
  5
32E
330
6F
100
AcDbEntity
  8
ANCHOR
  6
HIDDEN
100
AcDbLine
 10
223.8273721235006
 20
348.2555691123039
 30
0.0
 11
223.8273721234967
 21
351.7555691123042
 31
0.0
  0
LINE
  5
32F
330
6F
100
AcDbEntity
  8
ANCHOR
  6
HIDDEN
100
AcDbLine
 10
227.4273721234962
 20
351.7555691123116
 30
0.0
 11
223.7273721233555
 21
351.7555691123034
 31
0.0
  0
LINE
  5
330
330
6F
100
AcDbEntity
  8
ANCHOR
  6
HIDDEN
100
AcDbLine
 10
227.4273721234953
 20
352.2555691123118
 30
0.0
 11
224.9617471234946
 21
352.2555691123063
 31
0.0
  0
LINE
  5
331
330
6F
100
AcDbEntity
  8
ANCHOR
  6
HIDDEN
100
AcDbLine
 10
227.4273721234893
 20
355.2555691123123
 30
0.0
 11
224.8679971234922
 21
355.2555691123066
 31
0.0
  0
LINE
  5
332
330
6F
100
AcDbEntity
  8
ANCHOR
  6
HIDDEN
100
AcDbLine
 10
227.4273721234866
 20
355.7555691123118
 30
0.0
 11
224.8523721234914
 21
355.7555691123062
 31
0.0
  0
LINE
  5
333
330
6F
100
AcDbEntity
  8
ANCHOR
  6
HIDDEN
100
AcDbLine
 10
227.4273721234815
 20
358.7555691123115
 30
0.0
 11
224.758622123488
 21
358.7555691123056
 31
0.0
  0
LINE
  5
334
330
6F
100
AcDbEntity
  8
ANCHOR
  6
HIDDEN
100
AcDbLine
 10
227.4273721234794
 20
359.2555691123118
 30
0.0
 11
224.7429971234878
 21
359.2555691123059
 31
0.0
  0
LINE
  5
335
330
6F
100
AcDbEntity
  8
ANCHOR
  6
HIDDEN
100
AcDbLine
 10
227.4273721235093
 20
338.2555691122995
 30
0.0
 11
226.6202736631017
 21
330.8699894338886
 31
0.0
  0
ARC
  5
336
330
6F
100
AcDbEntity
  8
ANCHOR
  6
HIDDEN
100
AcDbCircle
 10
226.123232732715
 20
330.9243062224343
 30
0.0
 40
0.5
100
AcDbArc
 50
263.7634467283077
 51
353.7634467282444
  0
LINE
  5
337
330
6F
100
AcDbEntity
  8
ANCHOR
  6
HIDDEN
100
AcDbLine
 10
227.7273720779525
 20
363.7555691123127
 30
0.0
 11
227.4273720779441
 21
363.7555691123101
 31
0.0
  0
LINE
  5
338
330
6F
100
AcDbEntity
  8
ANCHOR
  6
HIDDEN
100
AcDbLine
 10
227.4273720781444
 20
338.2555691123096
 30
0.0
 11
227.4273720779464
 21
363.7555691123097
 31
0.0
  0
LINE
  5
339
330
6F
100
AcDbEntity
  8
ANCHOR
  6
HIDDEN
100
AcDbLine
 10
229.3858282575542
 20
330.4272652920598
 30
0.0
 11
231.7565275523972
 21
330.6863360535179
 31
0.0
  0
LINE
  5
33A
330
6F
100
AcDbEntity
  8
ANCHOR
  6
HIDDEN
100
AcDbLine
 10
231.7273720779321
 20
365.7555691123387
 30
0.0
 11
232.4273720778932
 21
370.7555691123437
 31
0.0
  0
LINE
  5
33B
330
6F
100
AcDbEntity
  8
ANCHOR
  6
HIDDEN
100
AcDbLine
 10
227.7273720779369
 20
363.7555691123117
 30
0.0
 11
228.0273720779453
 21
363.7555691123138
 31
0.0
  0
LINE
  5
33C
330
6F
100
AcDbEntity
  8
ANCHOR
  6
HIDDEN
100
AcDbLine
 10
228.0273720781441
 20
338.2555691123139
 30
0.0
 11
228.0273720779462
 21
363.7555691123138
 31
0.0
  0
LINE
  5
33D
330
6F
100
AcDbEntity
  8
ANCHOR
  6
HIDDEN
100
AcDbLine
 10
231.7273720779745
 20
360.255569112339
 30
0.0
 11
230.7273720779772
 21
359.755569112332
 31
0.0
  0
LINE
  5
33E
330
6F
100
AcDbEntity
  8
ANCHOR
  6
HIDDEN
100
AcDbLine
 10
230.7273720779774
 20
359.755569112332
 30
0.0
 11
230.4773720780397
 21
351.7555691123305
 31
0.0
  0
LINE
  5
33F
330
6F
100
AcDbEntity
  8
ANCHOR
  6
HIDDEN
100
AcDbLine
 10
231.727372077972
 20
360.2555691123393
 30
0.0
 11
231.7273720778905
 21
370.7555691123394
 31
0.0
  0
LINE
  5
340
330
6F
100
AcDbEntity
  8
ANCHOR
  6
HIDDEN
100
AcDbLine
 10
228.5628865958692
 20
333.3551940858421
 30
0.0
 11
232.8223414261872
 21
333.8206686437869
 31
0.0
  0
LINE
  5
341
330
6F
100
AcDbEntity
  8
ANCHOR
  6
HIDDEN
100
AcDbLine
 10
228.4542530187665
 20
334.3492759466191
 30
0.0
 11
232.0675546395796
 21
334.7441386794498
 31
0.0
  0
LINE
  5
342
330
6F
100
AcDbEntity
  8
ANCHOR
  6
HIDDEN
100
AcDbLine
 10
231.7565275523973
 20
330.6863360535178
 30
0.0
 11
232.8223414261875
 21
333.8206686437874
 31
0.0
  0
LINE
  5
343
330
6F
100
AcDbEntity
  8
ANCHOR
  6
HIDDEN
100
AcDbLine
 10
232.8223414261859
 20
333.8206686437875
 30
0.0
 11
232.0675546395812
 21
334.7441386794509
 31
0.0
  0
LINE
  5
344
330
6F
100
AcDbEntity
  8
ANCHOR
  6
HIDDEN
100
AcDbLine
 10
228.3456194416708
 20
335.3433578073972
 30
0.0
 11
232.6050742719883
 21
335.8088323653417
 31
0.0
  0
LINE
  5
345
330
6F
100
AcDbEntity
  8
ANCHOR
  6
HIDDEN
100
AcDbLine
 10
232.0675546395805
 20
334.7441386794515
 30
0.0
 11
232.6050742719866
 21
335.8088323653429
 31
0.0
  0
LINE
  5
346
330
6F
100
AcDbEntity
  8
ANCHOR
  6
HIDDEN
100
AcDbLine
 10
228.1826690760211
 20
336.8344805985626
 30
0.0
 11
232.4421239063409
 21
337.2999551565073
 31
0.0
  0
LINE
  5
347
330
6F
100
AcDbEntity
  8
ANCHOR
  6
HIDDEN
100
AcDbLine
 10
232.6050742719887
 20
335.8088323653417
 30
0.0
 11
232.4421239063396
 21
337.2999551565077
 31
0.0
  0
LINE
  5
348
330
6F
100
AcDbEntity
  8
ANCHOR
  6
HIDDEN
100
AcDbLine
 10
232.2628785041254
 20
338.940190226785
 30
0.0
 11
232.0075895979412
 21
341.2762825996168
 31
0.0
  0
LINE
  5
349
330
6F
100
AcDbEntity
  8
ANCHOR
  6
HIDDEN
100
AcDbLine
 10
228.1283522874706
 20
337.3315215289523
 30
0.0
 11
231.7416539082872
 21
337.7263842617832
 31
0.0
  0
LINE
  5
34A
330
6F
100
AcDbEntity
  8
ANCHOR
  6
HIDDEN
100
AcDbLine
 10
228.0740354989202
 20
337.8285624593408
 30
0.0
 11
231.6873371197386
 21
338.2234251921723
 31
0.0
  0
LINE
  5
34B
330
6F
100
AcDbEntity
  8
ANCHOR
  6
HIDDEN
100
AcDbLine
 10
231.7416539082858
 20
337.7263842617834
 30
0.0
 11
232.4421239063381
 21
337.299955156508
 31
0.0
  0
LINE
  5
34C
330
6F
100
AcDbEntity
  8
ANCHOR
  6
HIDDEN
100
AcDbLine
 10
231.7416539082868
 20
337.7263842617829
 30
0.0
 11
231.6873371197382
 21
338.2234251921716
 31
0.0
  0
LINE
  5
34D
330
6F
100
AcDbEntity
  8
ANCHOR
  6
HIDDEN
100
AcDbLine
 10
231.6873371197379
 20
338.2234251921718
 30
0.0
 11
232.2628785041248
 21
338.9401902267854
 31
0.0
  0
LINE
  5
34E
330
6F
100
AcDbEntity
  8
ANCHOR
  6
HIDDEN
100
AcDbLine
 10
228.4288948991427
 20
340.885201722063
 30
0.0
 11
232.007589597942
 21
341.2762825996169
 31
0.0
  0
LINE
  5
34F
330
6F
100
AcDbEntity
  8
ANCHOR
  6
HIDDEN
100
AcDbLine
 10
231.3614363884375
 20
341.2056707745029
 30
0.0
 11
231.3071195998889
 21
341.7027117048917
 31
0.0
  0
LINE
  5
350
330
6F
100
AcDbEntity
  8
ANCHOR
  6
HIDDEN
100
AcDbLine
 10
228.3745781105924
 20
341.3822426524522
 30
0.0
 11
231.3071195998904
 21
341.7027117048927
 31
0.0
  0
LINE
  5
351
330
6F
100
AcDbEntity
  8
ANCHOR
  6
HIDDEN
100
AcDbLine
 10
231.3071195998912
 20
341.7027117048919
 30
0.0
 11
231.8826609842782
 21
342.4194767395053
 31
0.0
  0
LINE
  5
352
330
6F
100
AcDbEntity
  8
ANCHOR
  6
HIDDEN
100
AcDbLine
 10
231.6273720781127
 20
342.4055691123329
 30
0.0
 11
231.6273720780944
 21
344.7555691123378
 31
0.0
  0
LINE
  5
353
330
6F
100
AcDbEntity
  8
ANCHOR
  6
HIDDEN
100
AcDbLine
 10
228.027372078093
 20
344.7555691123138
 30
0.0
 11
231.6273720780934
 21
344.7555691123378
 31
0.0
  0
LINE
  5
354
330
6F
100
AcDbEntity
  8
ANCHOR
  6
HIDDEN
100
AcDbLine
 10
230.977372078096
 20
344.7555691123339
 30
0.0
 11
230.9773720780933
 21
345.2555691123339
 31
0.0
  0
LINE
  5
355
330
6F
100
AcDbEntity
  8
ANCHOR
  6
HIDDEN
100
AcDbLine
 10
228.0273720780882
 20
345.255569112315
 30
0.0
 11
230.9773720780926
 21
345.2555691123346
 31
0.0
  0
LINE
  5
356
330
6F
100
AcDbEntity
  8
ANCHOR
  6
HIDDEN
100
AcDbLine
 10
230.9773720780936
 20
345.255569112332
 30
0.0
 11
231.627372078084
 21
345.9055691123311
 31
0.0
  0
LINE
  5
357
330
6F
100
AcDbEntity
  8
ANCHOR
  6
HIDDEN
100
AcDbLine
 10
231.6273720780855
 20
345.9055691123329
 30
0.0
 11
231.6273720780672
 21
348.2555691123378
 31
0.0
  0
LINE
  5
358
330
6F
100
AcDbEntity
  8
ANCHOR
  6
HIDDEN
100
AcDbLine
 10
228.0273720780668
 20
348.2555691123138
 30
0.0
 11
231.6273720780671
 21
348.2555691123378
 31
0.0
  0
LINE
  5
359
330
6F
100
AcDbEntity
  8
ANCHOR
  6
HIDDEN
100
AcDbLine
 10
230.9773720780699
 20
348.2555691123334
 30
0.0
 11
230.9773720780672
 21
348.7555691123334
 31
0.0
  0
LINE
  5
35A
330
6F
100
AcDbEntity
  8
ANCHOR
  6
HIDDEN
100
AcDbLine
 10
228.0273720780612
 20
348.7555691123147
 30
0.0
 11
230.9773720780656
 21
348.7555691123343
 31
0.0
  0
LINE
  5
35B
330
6F
100
AcDbEntity
  8
ANCHOR
  6
HIDDEN
100
AcDbLine
 10
230.9773720780665
 20
348.7555691123338
 30
0.0
 11
231.627372078057
 21
349.405569112333
 31
0.0
  0
LINE
  5
35C
330
6F
100
AcDbEntity
  8
ANCHOR
  6
HIDDEN
100
AcDbLine
 10
231.6273720780676
 20
348.2555691123383
 30
0.0
 11
231.6273720780405
 21
351.7555691123388
 31
0.0
  0
LINE
  5
35D
330
6F
100
AcDbEntity
  8
ANCHOR
  6
HIDDEN
100
AcDbLine
 10
228.0273720780384
 20
351.7555691123144
 30
0.0
 11
231.727372078181
 21
351.755569112339
 31
0.0
  0
LINE
  5
35E
330
6F
100
AcDbEntity
  8
ANCHOR
  6
HIDDEN
100
AcDbLine
 10
228.0273720780356
 20
352.2555691123141
 30
0.0
 11
230.4929970780345
 21
352.2555691123307
 31
0.0
  0
LINE
  5
35F
330
6F
100
AcDbEntity
  8
ANCHOR
  6
HIDDEN
100
AcDbLine
 10
228.0273720780167
 20
355.2555691123147
 30
0.0
 11
230.586747078012
 21
355.2555691123318
 31
0.0
  0
LINE
  5
360
330
6F
100
AcDbEntity
  8
ANCHOR
  6
HIDDEN
100
AcDbLine
 10
228.027372078013
 20
355.7555691123138
 30
0.0
 11
230.6023720780082
 21
355.7555691123309
 31
0.0
  0
LINE
  5
361
330
6F
100
AcDbEntity
  8
ANCHOR
  6
HIDDEN
100
AcDbLine
 10
228.0273720779926
 20
358.7555691123137
 30
0.0
 11
230.6961220779842
 21
358.7555691123314
 31
0.0
  0
LINE
  5
362
330
6F
100
AcDbEntity
  8
ANCHOR
  6
HIDDEN
100
AcDbLine
 10
228.0273720779903
 20
359.255569112314
 30
0.0
 11
230.7117470779819
 21
359.2555691123318
 31
0.0
  0
LINE
  5
363
330
6F
100
AcDbEntity
  8
ANCHOR
  6
HIDDEN
100
AcDbLine
 10
228.0273720781428
 20
338.2555691123027
 30
0.0
 11
228.8344705386159
 21
330.869989433899
 31
0.0
  0
ARC
  5
364
330
6F
100
AcDbEntity
  8
ANCHOR
  6
HIDDEN
100
AcDbCircle
 10
229.3315114690056
 20
330.9243062224484
 30
0.0
 40
0.5
100
AcDbArc
 50
186.2365532722638
 51
276.2365532722005
  0
LINE
  5
365
330
6F
100
AcDbEntity
  8
ANCHOR
  6
HIDDEN
100
AcDbLine
 10
223.727372123356
 20
351.7555691123039
 30
0.0
 11
222.1158880971461
 21
359.5915833560877
 31
0.0
  0
LINE
  5
366
330
6F
100
AcDbEntity
  8
ANCHOR
  6
HIDDEN
100
AcDbLine
 10
223.2116887197267
 20
359.2275032425846
 30
0.0
 11
222.1158880971752
 21
359.5915833559479
 31
0.0
  0
LINE
  5
367
330
6F
100
AcDbEntity
  8
ANCHOR
  6
HIDDEN
100
AcDbLine
 10
224.7482993129743
 20
351.7555691123058
 30
0.0
 11
223.2116887197268
 21
359.2275032425848
 31
0.0
  0
LINE
  5
368
330
6F
100
AcDbEntity
  8
ANCHOR
  6
HIDDEN
100
AcDbLine
 10
231.7273720781786
 20
351.7555691123098
 30
0.0
 11
233.3388561043711
 21
359.5915833560975
 31
0.0
  0
LINE
  5
369
330
6F
100
AcDbEntity
  8
ANCHOR
  6
HIDDEN
100
AcDbLine
 10
232.2430554817934
 20
359.2275032425914
 30
0.0
 11
233.3388561043439
 21
359.5915833559573
 31
0.0
  0
LINE
  5
36A
330
6F
100
AcDbEntity
  8
ANCHOR
  6
HIDDEN
100
AcDbLine
 10
230.7064448885614
 20
351.7555691123089
 30
0.0
 11
232.2430554817921
 21
359.2275032425908
 31
0.0
  0
LINE
  5
36B
330
6F
100
AcDbEntity
  8
ANCHOR
  6
HIDDEN
100
AcDbLine
 10
227.7273721689339
 20
318.7555691123112
 30
0.0
 11
224.9773721344775
 21
329.0187089614264
 31
0.0
  0
LINE
  5
36C
330
6F
100
AcDbEntity
  8
ANCHOR
  6
HIDDEN
100
AcDbLine
 10
227.7273721234753
 20
318.7555691123109
 30
0.0
 11
230.4773721342489
 21
329.0187088734046
 31
0.0
  0
LINE
  5
36D
330
6F
100
AcDbEntity
  8
ANCHOR
  6
HIDDEN
100
AcDbLine
 10
224.977372134479
 20
329.0187089614267
 30
0.0
 11
224.9773721339327
 21
330.5465495414958
 31
0.0
  0
LINE
  5
36E
330
6F
100
AcDbEntity
  8
ANCHOR
  6
HIDDEN
100
AcDbLine
 10
230.477372134249
 20
329.0187088734045
 30
0.0
 11
230.4773721338875
 21
330.5465495487437
 31
0.0
  0
ARC
  5
36F
330
6F
100
AcDbEntity
  8
ANCHOR
  6
Continuous
100
AcDbCircle
 10
227.727372123424
 20
364.1555691123021
 30
0.0
 40
14.0
100
AcDbArc
 50
74.63751496329646
 51
105.3624850364064
  0
LINE
  5
370
330
6F
100
AcDbEntity
  8
ANCHOR
  6
Continuous
100
AcDbLine
 10
222.4773721234012
 20
374.8555691122911
 30
0.0
 11
222.4857134320941
 21
374.9179062927616
 31
0.0
  0
LINE
  5
371
330
6F
100
AcDbEntity
  8
ANCHOR
  6
Continuous
100
AcDbLine
 10
232.9773721234049
 20
374.8555691123132
 30
0.0
 11
232.8257322491111
 21
375.988820806653
 31
0.0
  0
ARC
  5
372
330
6F
100
AcDbEntity
  8
ANCHOR
  6
Continuous
100
AcDbCircle
 10
230.9329623227175
 20
375.8232248953987
 30
0.0
 40
1.9
100
AcDbArc
 50
5.000000000119887
 51
74.63751496329646
  0
LINE
  5
373
330
6F
100
AcDbEntity
  8
ANCHOR
  6
Continuous
100
AcDbLine
 10
234.2273721234341
 20
374.8555691123153
 30
0.0
 11
221.2273721234414
 21
374.855569112288
 31
0.0
  0
LINE
  5
374
330
6F
100
AcDbEntity
  8
ANCHOR
  6
Continuous
100
AcDbLine
 10
221.2273721234336
 20
374.2555691122892
 30
0.0
 11
221.2273721234337
 21
374.2899579990402
 31
0.0
  0
LINE
  5
375
330
6F
100
AcDbEntity
  8
ANCHOR
  6
Continuous
100
AcDbLine
 10
234.2273721234325
 20
374.2555691123162
 30
0.0
 11
234.227372123433
 21
374.8555691123161
 31
0.0
  0
LINE
  5
376
330
6F
100
AcDbEntity
  8
ANCHOR
  6
HIDDEN
100
AcDbLine
 10
230.4773721246137
 20
369.2555691121238
 30
0.0
 11
230.4773721234311
 21
374.2555691123079
 31
0.0
  0
LINE
  5
377
330
6F
100
AcDbEntity
  8
ANCHOR
  6
HIDDEN
100
AcDbLine
 10
224.9773721252206
 20
369.255569112138
 30
0.0
 11
224.9773721234328
 21
374.2555691122967
 31
0.0
  0
LINE
  5
378
330
6F
100
AcDbEntity
  8
ANCHOR
  6
Continuous
100
AcDbLine
 10
234.2273721234336
 20
374.255569112315
 30
0.0
 11
221.2273721234336
 21
374.2555691122876
 31
0.0
  0
LINE
  5
379
330
6F
100
AcDbEntity
  8
ANCHOR
  6
Continuous
100
AcDbLine
 10
222.4773721234735
 20
374.8555691123848
 30
0.0
 11
222.6290119977819
 21
375.9888208067217
 31
0.0
  0
ARC
  5
37A
330
6F
100
AcDbEntity
  8
ANCHOR
  6
Continuous
100
AcDbCircle
 10
224.5217819241686
 20
375.8232248954422
 30
0.0
 40
1.9
100
AcDbArc
 50
105.3624850359274
 51
174.999999999104
  0
LINE
  5
37B
330
6F
100
AcDbEntity
  8
ANCHOR
  6
Continuous
100
AcDbLine
 10
221.2273721234348
 20
374.2555691124042
 30
0.0
 11
221.2273721234426
 21
374.8555691124041
 31
0.0
  0
ENDSEC
  0
SECTION
  2
OBJECTS
  0
DICTIONARY
  5
C
330
0
100
AcDbDictionary
281
     1
  3
ACAD_CIP_PREVIOUS_PRODUCT_INFO
350
37F
  3
ACAD_COLOR
350
62
  3
ACAD_DETAILVIEWSTYLE
350
69
  3
ACAD_GROUP
350
D
  3
ACAD_LAYOUT
350
61
  3
ACAD_MATERIAL
350
10
  3
ACAD_MLEADERSTYLE
350
65
  3
ACAD_MLINESTYLE
350
5E
  3
ACAD_PLOTSETTINGS
350
60
  3
ACAD_PLOTSTYLENAME
350
E
  3
ACAD_SCALELIST
350
42
  3
ACAD_SECTIONVIEWSTYLE
350
67
  3
ACAD_TABLESTYLE
350
63
  3
ACAD_VISUALSTYLE
350
29
  3
ACDB_RECOMPOSE_DATA
350
43D
  3
AcDbVariableDictionary
350
392
  0
DICTIONARY
  5
382
330
54
100
AcDbDictionary
280
     1
281
     1
  3
ADSK_XREC_LAYER_RECONCILED
360
383
  0
DICTIONARY
  5
384
330
75
100
AcDbDictionary
280
     1
281
     1
  3
ADSK_XREC_LAYER_RECONCILED
360
385
  0
DICTIONARY
  5
386
330
76
100
AcDbDictionary
280
     1
281
     1
  3
ADSK_XREC_LAYER_RECONCILED
360
387
  0
DICTIONARY
  5
388
330
77
100
AcDbDictionary
280
     1
281
     1
  3
ADSK_XREC_LAYER_RECONCILED
360
389
  0
DICTIONARY
  5
38A
330
78
100
AcDbDictionary
280
     1
281
     1
  3
ADSK_XREC_LAYER_RECONCILED
360
38B
  0
DICTIONARY
  5
38C
330
79
100
AcDbDictionary
280
     1
281
     1
  3
ADSK_XREC_LAYER_RECONCILED
360
38D
  0
DICTIONARY
  5
38E
330
7A
100
AcDbDictionary
280
     1
281
     1
  3
ADSK_XREC_LAYER_RECONCILED
360
38F
  0
DICTIONARY
  5
390
330
7B
100
AcDbDictionary
280
     1
281
     1
  3
ADSK_XREC_LAYER_RECONCILED
360
391
  0
DICTIONARY
  5
40E
330
8C
100
AcDbDictionary
280
     1
281
     1
  0
DICTIONARY
  5
428
330
B6
100
AcDbDictionary
280
     1
281
     1
  0
DICTIONARY
  5
3F2
330
C0
100
AcDbDictionary
280
     1
281
     1
  0
XRECORD
  5
37F
102
{ACAD_REACTORS
330
C
102
}
330
C
100
AcDbXrecord
280
     1
300
ACD
300
2022
300

  0
DICTIONARY
  5
62
102
{ACAD_REACTORS
330
C
102
}
330
C
100
AcDbDictionary
281
     1
  0
DICTIONARY
  5
69
102
{ACAD_REACTORS
330
C
102
}
330
C
100
AcDbDictionary
281
     1
  3
Imperial24
350
6A
  3
Metric50
350
37D
  0
DICTIONARY
  5
D
102
{ACAD_REACTORS
330
C
102
}
330
C
100
AcDbDictionary
281
     1
  0
DICTIONARY
  5
61
102
{ACAD_REACTORS
330
C
102
}
330
C
100
AcDbDictionary
281
     1
  3
Model
350
72
  3
レイアウト1
350
6E
  0
DICTIONARY
  5
10
102
{ACAD_REACTORS
330
C
102
}
330
C
100
AcDbDictionary
281
     1
  3
ByBlock
350
19
  3
ByLayer
350
11
  3
Global
350
21
  0
DICTIONARY
  5
65
102
{ACAD_REACTORS
330
C
102
}
330
C
100
AcDbDictionary
281
     1
  3
Standard
350
66
  0
DICTIONARY
  5
5E
102
{ACAD_REACTORS
330
C
102
}
330
C
100
AcDbDictionary
281
     1
  3
Standard
350
5F
  0
DICTIONARY
  5
60
102
{ACAD_REACTORS
330
C
102
}
330
C
100
AcDbDictionary
281
     1
  0
ACDBDICTIONARYWDFLT
  5
E
102
{ACAD_REACTORS
330
C
102
}
330
C
100
AcDbDictionary
281
     1
  3
Normal
350
F
100
AcDbDictionaryWithDefault
340
F
  0
DICTIONARY
  5
42
102
{ACAD_REACTORS
330
C
102
}
330
C
100
AcDbDictionary
281
     1
  3
A0
350
43
  3
A1
350
44
  3
A2
350
45
  3
A3
350
46
  3
A4
350
47
  3
A5
350
48
  3
A6
350
49
  3
A7
350
4A
  3
A8
350
4B
  3
A9
350
4C
  3
B0
350
4D
  3
B1
350
4E
  3
B2
350
4F
  3
B3
350
50
  3
B4
350
51
  3
B5
350
52
  3
B6
350
53
  0
DICTIONARY
  5
67
102
{ACAD_REACTORS
330
C
102
}
330
C
100
AcDbDictionary
281
     1
  3
Imperial24
350
68
  3
Metric50
350
37C
  0
DICTIONARY
  5
63
102
{ACAD_REACTORS
330
C
102
}
330
C
100
AcDbDictionary
281
     1
  3
Standard
350
64
  0
DICTIONARY
  5
29
102
{ACAD_REACTORS
330
C
102
}
330
C
100
AcDbDictionary
281
     1
  3
2dWireframe
350
2F
  3
Basic
350
2E
  3
Brighten
350
35
  3
ColorChange
350
39
  3
Conceptual
350
32
  3
Dim
350
34
  3
EdgeColorOff
350
41
  3
Facepattern
350
38
  3
Flat
350
2A
  3
FlatWithEdges
350
2B
  3
Gouraud
350
2C
  3
GouraudWithEdges
350
2D
  3
Hidden
350
31
  3
JitterOff
350
3F
  3
Linepattern
350
37
  3
OverhangOff
350
40
  3
Realistic
350
33
  3
Shaded
350
3E
  3
Shaded with edges
350
3D
  3
Shades of Gray
350
3A
  3
Sketchy
350
3B
  3
Thicken
350
36
  3
Wireframe
350
30
  3
X-Ray
350
3C
  0
XRECORD
  5
43D
102
{ACAD_REACTORS
330
C
102
}
330
C
100
AcDbXrecord
280
     1
 90
        1
330
64
  0
DICTIONARY
  5
392
102
{ACAD_REACTORS
330
C
102
}
330
C
100
AcDbDictionary
281
     1
  3
CANNOSCALE
350
397
  3
CMLEADERSTYLE
350
394
  3
CTABLESTYLE
350
393
  3
CVIEWDETAILSTYLE
350
395
  3
CVIEWSECTIONSTYLE
350
396
  3
DIMASSOC
350
39A
  3
INDEXCTL
350
399
  3
LAYEREVAL
350
43A
  3
LAYERNOTIFY
350
43B
  3
LIGHTINGUNITS
350
439
  3
MSLTSCALE
350
438
  3
SORTENTS
350
398
  0
XRECORD
  5
383
102
{ACAD_REACTORS
330
382
102
}
330
382
100
AcDbXrecord
280
     1
290
     1
  0
XRECORD
  5
385
102
{ACAD_REACTORS
330
384
102
}
330
384
100
AcDbXrecord
280
     1
290
     1
  0
XRECORD
  5
387
102
{ACAD_REACTORS
330
386
102
}
330
386
100
AcDbXrecord
280
     1
290
     1
  0
XRECORD
  5
389
102
{ACAD_REACTORS
330
388
102
}
330
388
100
AcDbXrecord
280
     1
290
     1
  0
XRECORD
  5
38B
102
{ACAD_REACTORS
330
38A
102
}
330
38A
100
AcDbXrecord
280
     1
290
     1
  0
XRECORD
  5
38D
102
{ACAD_REACTORS
330
38C
102
}
330
38C
100
AcDbXrecord
280
     1
290
     1
  0
XRECORD
  5
38F
102
{ACAD_REACTORS
330
38E
102
}
330
38E
100
AcDbXrecord
280
     1
290
     1
  0
XRECORD
  5
391
102
{ACAD_REACTORS
330
390
102
}
330
390
100
AcDbXrecord
280
     1
290
     1
  0
ACDBDETAILVIEWSTYLE
  5
6A
102
{ACAD_REACTORS
330
69
102
}
330
69
100
AcDbModelDocViewStyle
 70
     0
  3
Imperial24
290
     0
300
Imperial24
 90
        0
100
AcDbDetailViewStyle
 70
     0
 71
     0
 90
        3
 71
     1
340
55
 62
   256
 40
0.24
340
0
 62
   256
 40
0.24
300

 40
0.36
280
     3
 71
     2
340
5C
 90
       25
 62
   256
 71
     3
340
55
 62
   256
 40
0.24
 90
        1
 40
0.75
 90
        1
300
%<\AcVar ViewType \f "%tc1">% %<\AcVar ViewDetailId>%\PSCALE %<\AcVar ViewScale \f "%sn">%
 71
     4
340
5C
 90
       25
 62
   256
340
5C
 90
       25
 62
   256
280
     0
  0
ACDBDETAILVIEWSTYLE
  5
37D
102
{ACAD_REACTORS
330
69
102
}
330
69
100
AcDbModelDocViewStyle
 70
     0
  3
Metric50
290
     0
300
Metric50
 90
        0
100
AcDbDetailViewStyle
 70
     0
 71
     0
 90
        3
 71
     1
340
55
 62
   256
 40
5.0
340
0
 62
   256
 40
5.0
300

 40
0.0
280
     1
 71
     2
340
5C
 90
       25
 62
   256
 71
     3
340
55
 62
   256
 40
5.0
 90
        0
 40
15.0
 90
        1
300
%<\AcVar ViewDetailId>% (%<\AcVar ViewScale \f "%sn">%)
 71
     4
340
5C
 90
       25
 62
   256
340
5C
 90
       25
 62
   256
280
     0
  0
LAYOUT
  5
72
102
{ACAD_REACTORS
330
61
102
}
330
61
100
AcDbPlotSettings
  1

  2
OKI B821
  4

  6

 40
0.0
 41
0.0
 42
0.0
 43
0.0
 44
0.0
 45
0.0
 46
0.0
 47
0.0
 48
0.0
 49
0.0
140
0.0
141
0.0
142
1.0
143
1.0
 70
  1712
 72
     0
 73
     0
 74
     0
  7

 75
     0
147
1.0
 76
     0
 77
     2
 78
   300
148
0.0
149
0.0
100
AcDbLayout
  1
Model
 70
     1
 71
     0
 10
0.0
 20
0.0
 11
12.0
 21
9.0
 12
0.0
 22
0.0
 32
0.0
 14
0.0
 24
0.0
 34
0.0
 15
0.0
 25
0.0
 35
0.0
146
0.0
 13
0.0
 23
0.0
 33
0.0
 16
1.0
 26
0.0
 36
0.0
 17
0.0
 27
1.0
 37
0.0
 76
     0
330
6F
331
82
  0
LAYOUT
  5
6E
102
{ACAD_REACTORS
330
61
102
}
330
61
100
AcDbPlotSettings
  1

  2
OKI B821
  4

  6

 40
0.0
 41
0.0
 42
0.0
 43
0.0
 44
0.0
 45
0.0
 46
0.0
 47
0.0
 48
0.0
 49
0.0
140
0.0
141
0.0
142
1.0
143
1.0
 70
   688
 72
     0
 73
     0
 74
     5
  7

 75
    16
147
1.0
 76
     0
 77
     2
 78
   300
148
0.0
149
0.0
100
AcDbLayout
  1
レイアウト1
 70
     1
 71
     1
 10
0.0
 20
0.0
 11
12.0
 21
9.0
 12
0.0
 22
0.0
 32
0.0
 14
1.000000000000000E+20
 24
1.000000000000000E+20
 34
1.000000000000000E+20
 15
-1.000000000000000E+20
 25
-1.000000000000000E+20
 35
-1.000000000000000E+20
146
0.0
 13
0.0
 23
0.0
 33
0.0
 16
1.0
 26
0.0
 36
0.0
 17
0.0
 27
1.0
 37
0.0
 76
     0
330
6B
  0
MATERIAL
  5
19
102
{ACAD_XDICTIONARY
360
1A
102
}
102
{ACAD_REACTORS
330
10
102
}
330
10
100
AcDbMaterial
  1
ByBlock
 72
     0
 43
0.0208333333333333
 43
0.0
 43
0.0
 43
0.0
 43
0.0
 43
0.0208333333333333
 43
0.0
 43
0.0
 43
0.0
 43
0.0
 43
1.0
 43
0.0
 43
0.0
 43
0.0
 43
0.0
 43
1.0
 77
     0
 47
0.0208333333333333
 47
0.0
 47
0.0
 47
0.0
 47
0.0
 47
0.0208333333333333
 47
0.0
 47
0.0
 47
0.0
 47
0.0
 47
1.0
 47
0.0
 47
0.0
 47
0.0
 47
0.0
 47
1.0
171
     0
 49
0.0208333333333333
 49
0.0
 49
0.0
 49
0.0
 49
0.0
 49
0.0208333333333333
 49
0.0
 49
0.0
 49
0.0
 49
0.0
 49
1.0
 49
0.0
 49
0.0
 49
0.0
 49
0.0
 49
1.0
175
     0
142
0.0208333333333333
142
0.0
142
0.0
142
0.0
142
0.0
142
0.0208333333333333
142
0.0
142
0.0
142
0.0
142
0.0
142
1.0
142
0.0
142
0.0
142
0.0
142
0.0
142
1.0
179
     0
144
0.0208333333333333
144
0.0
144
0.0
144
0.0
144
0.0
144
0.0208333333333333
144
0.0
144
0.0
144
0.0
144
0.0
144
1.0
144
0.0
144
0.0
144
0.0
144
0.0
144
1.0
147
0.0208333333333333
147
0.0
147
0.0
147
0.0
147
0.0
147
0.0208333333333333
147
0.0
147
0.0
147
0.0
147
0.0
147
1.0
147
0.0
147
0.0
147
0.0
147
0.0
147
1.0
  0
MATERIAL
  5
11
102
{ACAD_XDICTIONARY
360
12
102
}
102
{ACAD_REACTORS
330
10
102
}
330
10
100
AcDbMaterial
  1
ByLayer
 72
     0
 43
0.0208333333333333
 43
0.0
 43
0.0
 43
0.0
 43
0.0
 43
0.0208333333333333
 43
0.0
 43
0.0
 43
0.0
 43
0.0
 43
1.0
 43
0.0
 43
0.0
 43
0.0
 43
0.0
 43
1.0
 77
     0
 47
0.0208333333333333
 47
0.0
 47
0.0
 47
0.0
 47
0.0
 47
0.0208333333333333
 47
0.0
 47
0.0
 47
0.0
 47
0.0
 47
1.0
 47
0.0
 47
0.0
 47
0.0
 47
0.0
 47
1.0
171
     0
 49
0.0208333333333333
 49
0.0
 49
0.0
 49
0.0
 49
0.0
 49
0.0208333333333333
 49
0.0
 49
0.0
 49
0.0
 49
0.0
 49
1.0
 49
0.0
 49
0.0
 49
0.0
 49
0.0
 49
1.0
175
     0
142
0.0208333333333333
142
0.0
142
0.0
142
0.0
142
0.0
142
0.0208333333333333
142
0.0
142
0.0
142
0.0
142
0.0
142
1.0
142
0.0
142
0.0
142
0.0
142
0.0
142
1.0
179
     0
144
0.0208333333333333
144
0.0
144
0.0
144
0.0
144
0.0
144
0.0208333333333333
144
0.0
144
0.0
144
0.0
144
0.0
144
1.0
144
0.0
144
0.0
144
0.0
144
0.0
144
1.0
147
0.0208333333333333
147
0.0
147
0.0
147
0.0
147
0.0
147
0.0208333333333333
147
0.0
147
0.0
147
0.0
147
0.0
147
1.0
147
0.0
147
0.0
147
0.0
147
0.0
147
1.0
  0
MATERIAL
  5
21
102
{ACAD_XDICTIONARY
360
22
102
}
102
{ACAD_REACTORS
330
10
102
}
330
10
100
AcDbMaterial
  1
Global
 72
     0
 43
0.0208333333333333
 43
0.0
 43
0.0
 43
0.0
 43
0.0
 43
0.0208333333333333
 43
0.0
 43
0.0
 43
0.0
 43
0.0
 43
1.0
 43
0.0
 43
0.0
 43
0.0
 43
0.0
 43
1.0
 77
     0
 47
0.0208333333333333
 47
0.0
 47
0.0
 47
0.0
 47
0.0
 47
0.0208333333333333
 47
0.0
 47
0.0
 47
0.0
 47
0.0
 47
1.0
 47
0.0
 47
0.0
 47
0.0
 47
0.0
 47
1.0
171
     0
 49
0.0208333333333333
 49
0.0
 49
0.0
 49
0.0
 49
0.0
 49
0.0208333333333333
 49
0.0
 49
0.0
 49
0.0
 49
0.0
 49
1.0
 49
0.0
 49
0.0
 49
0.0
 49
0.0
 49
1.0
175
     0
142
0.0208333333333333
142
0.0
142
0.0
142
0.0
142
0.0
142
0.0208333333333333
142
0.0
142
0.0
142
0.0
142
0.0
142
1.0
142
0.0
142
0.0
142
0.0
142
0.0
142
1.0
179
     0
144
0.0208333333333333
144
0.0
144
0.0
144
0.0
144
0.0
144
0.0208333333333333
144
0.0
144
0.0
144
0.0
144
0.0
144
1.0
144
0.0
144
0.0
144
0.0
144
0.0
144
1.0
147
0.0208333333333333
147
0.0
147
0.0
147
0.0
147
0.0
147
0.0208333333333333
147
0.0
147
0.0
147
0.0
147
0.0
147
1.0
147
0.0
147
0.0
147
0.0
147
0.0
147
1.0
  0
MLEADERSTYLE
  5
66
102
{ACAD_REACTORS
330
65
102
}
330
65
100
AcDbMLeaderStyle
179
     2
170
     2
171
     1
172
     0
 90
        2
 40
0.0
 41
0.0
173
     1
 91
-1056964608
340
5A
 92
       -2
290
     1
 42
0.09
291
     1
 43
0.36
  3
Standard
 44
0.18
300

342
55
174
     1
178
     6
175
     1
176
     0
 93
-1056964608
 45
0.18
292
     0
297
     0
 46
0.18
 94
-1056964608
 47
1.0
 49
1.0
140
1.0
293
     1
141
0.0
294
     1
177
     0
142
1.0
295
     0
296
     0
143
0.125
271
     0
272
     9
273
     9
298
     0
1001
ACAD_MLEADERVER
1070
     2
  0
MLINESTYLE
  5
5F
102
{ACAD_REACTORS
330
5E
102
}
330
5E
100
AcDbMlineStyle
  2
STANDARD
 70
     0
  3

 62
   256
 51
90.0
 52
90.0
 71
     2
 49
0.5
 62
   256
  6
BYLAYER
 49
-0.5
 62
   256
  6
BYLAYER
  0
ACDBPLACEHOLDER
  5
F
102
{ACAD_REACTORS
330
E
102
}
330
E
  0
SCALE
  5
43
102
{ACAD_REACTORS
330
42
102
}
330
42
100
AcDbScale
 70
     0
300
1:1
140
1.0
141
1.0
290
     1
  0
SCALE
  5
44
102
{ACAD_REACTORS
330
42
102
}
330
42
100
AcDbScale
 70
     0
300
1/128" = 1'-0"
140
0.0078125
141
12.0
290
     0
  0
SCALE
  5
45
102
{ACAD_REACTORS
330
42
102
}
330
42
100
AcDbScale
 70
     0
300
1/64" = 1'-0"
140
0.015625
141
12.0
290
     0
  0
SCALE
  5
46
102
{ACAD_REACTORS
330
42
102
}
330
42
100
AcDbScale
 70
     0
300
1/32" = 1'-0"
140
0.03125
141
12.0
290
     0
  0
SCALE
  5
47
102
{ACAD_REACTORS
330
42
102
}
330
42
100
AcDbScale
 70
     0
300
1/16" = 1'-0"
140
0.0625
141
12.0
290
     0
  0
SCALE
  5
48
102
{ACAD_REACTORS
330
42
102
}
330
42
100
AcDbScale
 70
     0
300
3/32" = 1'-0"
140
0.09375
141
12.0
290
     0
  0
SCALE
  5
49
102
{ACAD_REACTORS
330
42
102
}
330
42
100
AcDbScale
 70
     0
300
1/8" = 1'-0"
140
0.125
141
12.0
290
     0
  0
SCALE
  5
4A
102
{ACAD_REACTORS
330
42
102
}
330
42
100
AcDbScale
 70
     0
300
3/16" = 1'-0"
140
0.1875
141
12.0
290
     0
  0
SCALE
  5
4B
102
{ACAD_REACTORS
330
42
102
}
330
42
100
AcDbScale
 70
     0
300
1/4" = 1'-0"
140
0.25
141
12.0
290
     0
  0
SCALE
  5
4C
102
{ACAD_REACTORS
330
42
102
}
330
42
100
AcDbScale
 70
     0
300
3/8" = 1'-0"
140
0.375
141
12.0
290
     0
  0
SCALE
  5
4D
102
{ACAD_REACTORS
330
42
102
}
330
42
100
AcDbScale
 70
     0
300
1/2" = 1'-0"
140
0.5
141
12.0
290
     0
  0
SCALE
  5
4E
102
{ACAD_REACTORS
330
42
102
}
330
42
100
AcDbScale
 70
     0
300
3/4" = 1'-0"
140
0.75
141
12.0
290
     0
  0
SCALE
  5
4F
102
{ACAD_REACTORS
330
42
102
}
330
42
100
AcDbScale
 70
     0
300
1" = 1'-0"
140
1.0
141
12.0
290
     0
  0
SCALE
  5
50
102
{ACAD_REACTORS
330
42
102
}
330
42
100
AcDbScale
 70
     0
300
1-1/2" = 1'-0"
140
1.5
141
12.0
290
     0
  0
SCALE
  5
51
102
{ACAD_REACTORS
330
42
102
}
330
42
100
AcDbScale
 70
     0
300
3" = 1'-0"
140
3.0
141
12.0
290
     0
  0
SCALE
  5
52
102
{ACAD_REACTORS
330
42
102
}
330
42
100
AcDbScale
 70
     0
300
6" = 1'-0"
140
6.0
141
12.0
290
     0
  0
SCALE
  5
53
102
{ACAD_REACTORS
330
42
102
}
330
42
100
AcDbScale
 70
     0
300
1'-0" = 1'-0"
140
12.0
141
12.0
290
     0
  0
ACDBSECTIONVIEWSTYLE
  5
68
102
{ACAD_REACTORS
330
67
102
}
330
67
100
AcDbModelDocViewStyle
 70
     0
  3
Imperial24
290
     0
300
Imperial24
 90
        0
100
AcDbSectionViewStyle
 70
     0
 71
     0
 90
       78
 71
     1
340
55
 62
   256
 40
0.24
340
0
340
0
 62
   256
 40
0.24
300
I, O, Q, S, X, Z
 40
0.48
 90
        3
 40
0.18
 90
        1
 71
     2
340
5C
 90
       25
 62
   256
340
5C
 90
       50
 62
   256
 40
0.24
 40
0.0
 40
0.24
 71
     3
340
55
 62
   256
 40
0.24
 90
        1
 40
0.75
 90
        1
300
%<\AcVar ViewType \f "%tc1">% %<\AcVar ViewSectionStartId>%-%<\AcVar ViewSectionEndId>%\PSCALE %<\AcVar ViewScale \f "%sn">%
 71
     4
 62
   256
 62
   257
300
ANSI31
 40
1.0
 90
        0
290
     0
290
     0
 90
        6
 40
0.0
 40
1.570796326794896
 40
0.2617993877991494
 40
1.308996938995747
 40
-0.2617993877991494
 40
1.832595714594045
  0
ACDBSECTIONVIEWSTYLE
  5
37C
102
{ACAD_REACTORS
330
67
102
}
330
67
100
AcDbModelDocViewStyle
 70
     0
  3
Metric50
290
     0
300
Metric50
 90
        0
100
AcDbSectionViewStyle
 70
     0
 71
     0
 90
      102
 71
     1
340
55
 62
   256
 40
5.0
340
0
340
0
 62
   256
 40
5.0
300
I, O, Q, S, X, Z
 40
10.0
 90
        0
 40
2.5
 90
        0
 71
     2
340
5C
 90
       25
 62
   256
340
5C
 90
       50
 62
   256
 40
5.0
 40
2.5
 40
5.0
 71
     3
340
55
 62
   256
 40
5.0
 90
        0
 40
15.0
 90
        1
300
%<\AcVar ViewSectionStartId>%-%<\AcVar ViewSectionEndId>% (%<\AcVar ViewScale \f "%sn">%)
 71
     4
 62
   256
 62
   257
300
ANSI31
 40
1.0
 90
        0
290
     0
290
     0
 90
        6
 40
0.0
 40
1.570796326794896
 40
0.2617993877991494
 40
1.308996938995747
 40
-0.2617993877991494
 40
1.832595714594045
  0
TABLESTYLE
  5
64
102
{ACAD_XDICTIONARY
360
39D
102
}
102
{ACAD_REACTORS
330
63
102
}
330
63
100
AcDbTableStyle
280
     0
  3
Standard
 70
     0
 71
     0
 40
0.06
 41
0.06
280
     0
281
     0
  7
STANDARD
140
0.18
170
     2
 62
     0
 63
     7
283
     0
 90
      512
 91
        0
  1

274
    -2
284
     1
 64
     0
275
    -2
285
     1
 65
     0
276
    -2
286
     1
 66
     0
277
    -2
287
     1
 67
     0
278
    -2
288
     1
 68
     0
279
    -2
289
     1
 69
     0
  7
STANDARD
140
0.25
170
     5
 62
     0
 63
     7
283
     0
 90
      512
 91
        0
  1

274
    -2
284
     1
 64
     0
275
    -2
285
     1
 65
     0
276
    -2
286
     1
 66
     0
277
    -2
287
     1
 67
     0
278
    -2
288
     1
 68
     0
279
    -2
289
     1
 69
     0
  7
STANDARD
140
0.18
170
     5
 62
     0
 63
     7
283
     0
 90
      512
 91
        0
  1

274
    -2
284
     1
 64
     0
275
    -2
285
     1
 65
     0
276
    -2
286
     1
 66
     0
277
    -2
287
     1
 67
     0
278
    -2
288
     1
 68
     0
279
    -2
289
     1
 69
     0
  0
VISUALSTYLE
  5
2F
102
{ACAD_REACTORS
330
29
102
}
330
29
100
AcDbVisualStyle
  2

 70
     4
177
     3
291
     0
 70
    58
 90
        0
176
     1
 90
        2
176
     1
 90
        0
176
     1
 90
        0
176
     1
 40
0.6
176
     1
 40
30.0
176
     1
 62
     7
176
     1
 90
        1
176
     1
 90
        4
176
     1
 62
     7
176
     1
 62
   257
176
     1
 90
        1
176
     1
 90
        1
176
     1
 40
1.0
176
     1
 90
        0
176
     1
 62
   257
176
     1
 40
1.0
176
     1
 90
        1
176
     1
 90
        6
176
     1
 90
        2
176
     1
 62
     7
176
     1
 90
        5
176
     1
 90
        0
176
     1
 90
        0
176
     1
290
     0
176
     1
 90
        1
176
     1
 40
0.0
176
     1
 90
        0
176
     1
290
     1
176
     1
290
     1
176
     1
290
     0
176
     1
290
     0
176
     1
290
     0
176
     1
290
     0
176
     1
290
     0
176
     1
290
     0
176
     1
290
     0
176
     1
 90
       50
176
     1
 40
0.0
176
     1
 40
1.0
176
     1
 90
        0
176
     1
 62
    18
420
        0
176
     1
 90
       50
176
     1
 90
        3
176
     1
 62
     5
420
      255
176
     1
290
     0
176
     1
 90
       50
176
     1
 90
       50
176
     1
 90
       50
176
     1
290
     0
176
     1
 90
       50
176
     1
 62
   256
176
     0
 40
1.0
176
     0
 90
        2
176
     1
  1
strokes_ogs.tif
176
     1
290
     0
176
     1
 40
1.0
176
     1
 40
1.0
176
     1
1001
ACAD
1000
AcDbSavedByObjectVersion
1070
     0
  0
VISUALSTYLE
  5
2E
102
{ACAD_REACTORS
330
29
102
}
330
29
100
AcDbVisualStyle
  2

 70
     7
177
     3
291
     1
 70
    58
 90
        1
176
     1
 90
        0
176
     1
 90
        1
176
     1
 90
        0
176
     1
 40
0.6
176
     1
 40
30.0
176
     1
 62
     7
176
     1
 90
        0
176
     1
 90
        4
176
     1
 62
     7
176
     1
 62
   257
176
     1
 90
        1
176
     1
 90
        1
176
     1
 40
1.0
176
     1
 90
        8
176
     1
 62
     7
176
     1
 40
1.0
176
     1
 90
        1
176
     1
 90
        6
176
     1
 90
        2
176
     1
 62
     7
176
     1
 90
        5
176
     1
 90
        0
176
     1
 90
        0
176
     1
290
     0
176
     1
 90
        1
176
     1
 40
0.0
176
     1
 90
        0
176
     1
290
     0
176
     1
290
     1
176
     1
290
     1
176
     1
290
     0
176
     1
290
     0
176
     1
290
     0
176
     1
290
     0
176
     1
290
     0
176
     1
290
     0
176
     1
 90
       50
176
     1
 40
0.0
176
     1
 40
1.0
176
     1
 90
        0
176
     1
 62
    18
420
        0
176
     1
 90
       50
176
     1
 90
        3
176
     1
 62
     5
420
      255
176
     1
290
     0
176
     1
 90
       50
176
     1
 90
       50
176
     1
 90
       50
176
     1
290
     0
176
     1
 90
       50
176
     1
 62
   256
176
     0
 40
1.0
176
     0
 90
        2
176
     1
  1
strokes_ogs.tif
176
     1
290
     0
176
     1
 40
1.0
176
     1
 40
1.0
176
     1
1001
ACAD
1000
AcDbSavedByObjectVersion
1070
     0
  0
VISUALSTYLE
  5
35
102
{ACAD_REACTORS
330
29
102
}
330
29
100
AcDbVisualStyle
  2

 70
    12
177
     3
291
     1
 70
    58
 90
        2
176
     1
 90
        2
176
     1
 90
        0
176
     1
 90
        0
176
     1
 40
0.6
176
     1
 40
30.0
176
     1
 62
     7
176
     1
 90
        1
176
     1
 90
        4
176
     1
 62
     7
176
     1
 62
   257
176
     1
 90
        1
176
     1
 90
        1
176
     1
 40
1.0
176
     1
 90
        8
176
     1
 62
     7
176
     1
 40
1.0
176
     1
 90
        1
176
     1
 90
        6
176
     1
 90
        2
176
     1
 62
     7
176
     1
 90
        5
176
     1
 90
        0
176
     1
 90
        0
176
     1
290
     0
176
     1
 90
        1
176
     1
 40
50.0
176
     1
 90
        0
176
     1
290
     0
176
     1
290
     1
176
     1
290
     1
176
     1
290
     0
176
     1
290
     0
176
     1
290
     0
176
     1
290
     0
176
     1
290
     0
176
     1
290
     0
176
     1
 90
       50
176
     1
 40
0.0
176
     1
 40
1.0
176
     1
 90
        0
176
     1
 62
    18
420
        0
176
     1
 90
       50
176
     1
 90
        3
176
     1
 62
     5
420
      255
176
     1
290
     0
176
     1
 90
       50
176
     1
 90
       50
176
     1
 90
       50
176
     1
290
     0
176
     1
 90
       50
176
     1
 62
   256
176
     0
 40
1.0
176
     0
 90
        2
176
     1
  1
strokes_ogs.tif
176
     1
290
     0
176
     1
 40
1.0
176
     1
 40
1.0
176
     1
1001
ACAD
1000
AcDbSavedByObjectVersion
1070
     0
  0
VISUALSTYLE
  5
39
102
{ACAD_REACTORS
330
29
102
}
330
29
100
AcDbVisualStyle
  2

 70
    16
177
     3
291
     1
 70
    58
 90
        2
176
     1
 90
        2
176
     1
 90
        3
176
     1
 90
        0
176
     1
 40
0.6
176
     1
 40
30.0
176
     1
 62
     8
176
     1
 90
        1
176
     1
 90
        4
176
     1
 62
     7
176
     1
 62
   257
176
     1
 90
        1
176
     1
 90
        1
176
     1
 40
1.0
176
     1
 90
        8
176
     1
 62
     8
176
     1
 40
1.0
176
     1
 90
        1
176
     1
 90
        6
176
     1
 90
        2
176
     1
 62
     7
176
     1
 90
        5
176
     1
 90
        0
176
     1
 90
        0
176
     1
290
     0
176
     1
 90
        1
176
     1
 40
0.0
176
     1
 90
        0
176
     1
290
     0
176
     1
290
     1
176
     1
290
     1
176
     1
290
     0
176
     1
290
     0
176
     1
290
     0
176
     1
290
     0
176
     1
290
     0
176
     1
290
     0
176
     1
 90
       50
176
     1
 40
0.0
176
     1
 40
1.0
176
     1
 90
        0
176
     1
 62
    18
420
        0
176
     1
 90
       50
176
     1
 90
        3
176
     1
 62
     5
420
      255
176
     1
290
     0
176
     1
 90
       50
176
     1
 90
       50
176
     1
 90
       50
176
     1
290
     0
176
     1
 90
       50
176
     1
 62
   256
176
     0
 40
1.0
176
     0
 90
        2
176
     1
  1
strokes_ogs.tif
176
     1
290
     0
176
     1
 40
1.0
176
     1
 40
1.0
176
     1
1001
ACAD
1000
AcDbSavedByObjectVersion
1070
     0
  0
VISUALSTYLE
  5
32
102
{ACAD_REACTORS
330
29
102
}
330
29
100
AcDbVisualStyle
  2

 70
     9
177
     3
291
     0
 70
    58
 90
        3
176
     1
 90
        2
176
     1
 90
        0
176
     1
 90
        0
176
     1
 40
0.6
176
     1
 40
30.0
176
     1
 62
     7
176
     1
 90
        2
176
     1
 90
        2
176
     1
 62
     7
176
     1
 62
   257
176
     1
 90
        1
176
     1
 90
        1
176
     1
 40
179.0
176
     1
 90
        8
176
     1
 62
     7
176
     1
 40
1.0
176
     1
 90
        1
176
     1
 90
        6
176
     1
 90
        2
176
     1
 62
     7
176
     1
 90
        3
176
     1
 90
        0
176
     1
 90
        0
176
     1
290
     0
176
     1
 90
        1
176
     1
 40
0.0
176
     1
 90
        0
176
     1
290
     0
176
     1
290
     1
176
     1
290
     1
176
     1
290
     0
176
     1
290
     0
176
     1
290
     0
176
     1
290
     0
176
     1
290
     0
176
     1
290
     0
176
     1
 90
       50
176
     1
 40
0.0
176
     1
 40
1.0
176
     1
 90
        0
176
     1
 62
    18
420
        0
176
     1
 90
       50
176
     1
 90
        3
176
     1
 62
     5
420
      255
176
     1
290
     0
176
     1
 90
       50
176
     1
 90
       50
176
     1
 90
       50
176
     1
290
     0
176
     1
 90
       50
176
     1
 62
   256
176
     0
 40
1.0
176
     0
 90
        2
176
     1
  1
strokes_ogs.tif
176
     1
290
     0
176
     1
 40
1.0
176
     1
 40
1.0
176
     1
1001
ACAD
1000
AcDbSavedByObjectVersion
1070
     0
  0
VISUALSTYLE
  5
34
102
{ACAD_REACTORS
330
29
102
}
330
29
100
AcDbVisualStyle
  2

 70
    11
177
     3
291
     1
 70
    58
 90
        2
176
     1
 90
        2
176
     1
 90
        0
176
     1
 90
        0
176
     1
 40
0.6
176
     1
 40
30.0
176
     1
 62
     7
176
     1
 90
        1
176
     1
 90
        4
176
     1
 62
     7
176
     1
 62
   257
176
     1
 90
        1
176
     1
 90
        1
176
     1
 40
1.0
176
     1
 90
        8
176
     1
 62
     7
176
     1
 40
1.0
176
     1
 90
        1
176
     1
 90
        6
176
     1
 90
        2
176
     1
 62
     7
176
     1
 90
        5
176
     1
 90
        0
176
     1
 90
        0
176
     1
290
     0
176
     1
 90
        1
176
     1
 40
-50.0
176
     1
 90
        0
176
     1
290
     0
176
     1
290
     1
176
     1
290
     1
176
     1
290
     0
176
     1
290
     0
176
     1
290
     0
176
     1
290
     0
176
     1
290
     0
176
     1
290
     0
176
     1
 90
       50
176
     1
 40
0.0
176
     1
 40
1.0
176
     1
 90
        0
176
     1
 62
    18
420
        0
176
     1
 90
       50
176
     1
 90
        3
176
     1
 62
     5
420
      255
176
     1
290
     0
176
     1
 90
       50
176
     1
 90
       50
176
     1
 90
       50
176
     1
290
     0
176
     1
 90
       50
176
     1
 62
   256
176
     0
 40
1.0
176
     0
 90
        2
176
     1
  1
strokes_ogs.tif
176
     1
290
     0
176
     1
 40
1.0
176
     1
 40
1.0
176
     1
1001
ACAD
1000
AcDbSavedByObjectVersion
1070
     0
  0
VISUALSTYLE
  5
41
102
{ACAD_REACTORS
330
29
102
}
330
29
100
AcDbVisualStyle
  2

 70
    22
177
     3
291
     1
 70
    58
 90
        2
176
     0
 90
        2
176
     0
 90
        0
176
     0
 90
        0
176
     0
 40
0.6
176
     0
 40
30.0
176
     0
 62
     7
176
     0
 90
        1
176
     0
 90
        4
176
     0
 62
     7
176
     0
 62
   257
176
     0
 90
        1
176
     0
 90
        1
176
     0
 40
1.0
176
     0
 90
        8
176
     2
 62
     7
176
     0
 40
1.0
176
     0
 90
        1
176
     0
 90
        6
176
     0
 90
        2
176
     0
 62
     7
176
     0
 90
        5
176
     0
 90
        0
176
     0
 90
        0
176
     0
290
     0
176
     0
 90
        1
176
     0
 40
0.0
176
     0
 90
        0
176
     0
290
     0
176
     1
290
     1
176
     1
290
     1
176
     1
290
     0
176
     1
290
     0
176
     1
290
     0
176
     1
290
     0
176
     1
290
     0
176
     1
290
     0
176
     1
 90
       50
176
     0
 40
0.0
176
     0
 40
1.0
176
     0
 90
        0
176
     0
 62
    18
420
        0
176
     0
 90
       50
176
     0
 90
        3
176
     0
 62
     5
420
      255
176
     0
290
     0
176
     1
 90
       50
176
     0
 90
       50
176
     0
 90
       50
176
     0
290
     0
176
     1
 90
       50
176
     0
 62
   256
176
     0
 40
1.0
176
     0
 90
        2
176
     0
  1
strokes_ogs.tif
176
     0
290
     0
176
     1
 40
1.0
176
     0
 40
1.0
176
     0
1001
ACAD
1000
AcDbSavedByObjectVersion
1070
     0
  0
VISUALSTYLE
  5
38
102
{ACAD_REACTORS
330
29
102
}
330
29
100
AcDbVisualStyle
  2

 70
    15
177
     3
291
     1
 70
    58
 90
        2
176
     1
 90
        2
176
     1
 90
        0
176
     1
 90
        0
176
     1
 40
0.6
176
     1
 40
30.0
176
     1
 62
     7
176
     1
 90
        1
176
     1
 90
        4
176
     1
 62
     7
176
     1
 62
   257
176
     1
 90
        1
176
     1
 90
        1
176
     1
 40
1.0
176
     1
 90
        8
176
     1
 62
     7
176
     1
 40
1.0
176
     1
 90
        1
176
     1
 90
        6
176
     1
 90
        2
176
     1
 62
     7
176
     1
 90
        5
176
     1
 90
        0
176
     1
 90
        0
176
     1
290
     0
176
     1
 90
        1
176
     1
 40
0.0
176
     1
 90
        0
176
     1
290
     0
176
     1
290
     1
176
     1
290
     1
176
     1
290
     0
176
     1
290
     0
176
     1
290
     0
176
     1
290
     0
176
     1
290
     0
176
     1
290
     0
176
     1
 90
       50
176
     1
 40
0.0
176
     1
 40
1.0
176
     1
 90
        0
176
     1
 62
    18
420
        0
176
     1
 90
       50
176
     1
 90
        3
176
     1
 62
     5
420
      255
176
     1
290
     0
176
     1
 90
       50
176
     1
 90
       50
176
     1
 90
       50
176
     1
290
     0
176
     1
 90
       50
176
     1
 62
   256
176
     0
 40
1.0
176
     0
 90
        2
176
     1
  1
strokes_ogs.tif
176
     1
290
     0
176
     1
 40
1.0
176
     1
 40
1.0
176
     1
1001
ACAD
1000
AcDbSavedByObjectVersion
1070
     0
  0
VISUALSTYLE
  5
2A
102
{ACAD_REACTORS
330
29
102
}
330
29
100
AcDbVisualStyle
  2

 70
     0
177
     3
291
     1
 70
    58
 90
        2
176
     1
 90
        1
176
     1
 90
        1
176
     1
 90
        2
176
     1
 40
0.6
176
     1
 40
30.0
176
     1
 62
     7
176
     1
 90
        0
176
     1
 90
        0
176
     1
 62
     7
176
     1
 62
   257
176
     1
 90
        1
176
     1
 90
        1
176
     1
 40
1.0
176
     1
 90
        8
176
     1
 62
     7
176
     1
 40
1.0
176
     1
 90
        1
176
     1
 90
        6
176
     1
 90
        2
176
     1
 62
     7
176
     1
 90
        5
176
     1
 90
        0
176
     1
 90
        0
176
     1
290
     0
176
     1
 90
       13
176
     1
 40
0.0
176
     1
 90
        0
176
     1
290
     0
176
     1
290
     1
176
     1
290
     1
176
     1
290
     0
176
     1
290
     0
176
     1
290
     0
176
     1
290
     0
176
     1
290
     0
176
     1
290
     0
176
     1
 90
       50
176
     1
 40
0.0
176
     1
 40
1.0
176
     1
 90
        0
176
     1
 62
    18
420
        0
176
     1
 90
       50
176
     1
 90
        3
176
     1
 62
     5
420
      255
176
     1
290
     0
176
     1
 90
       50
176
     1
 90
       50
176
     1
 90
       50
176
     1
290
     0
176
     1
 90
       50
176
     1
 62
   256
176
     0
 40
1.0
176
     0
 90
        2
176
     1
  1
strokes_ogs.tif
176
     1
290
     0
176
     1
 40
1.0
176
     1
 40
1.0
176
     1
1001
ACAD
1000
AcDbSavedByObjectVersion
1070
     0
  0
VISUALSTYLE
  5
2B
102
{ACAD_REACTORS
330
29
102
}
330
29
100
AcDbVisualStyle
  2

 70
     1
177
     3
291
     1
 70
    58
 90
        2
176
     1
 90
        1
176
     1
 90
        1
176
     1
 90
        2
176
     1
 40
0.6
176
     1
 40
30.0
176
     1
 62
     7
176
     1
 90
        1
176
     1
 90
        0
176
     1
 62
     7
176
     1
 62
   257
176
     1
 90
        1
176
     1
 90
        1
176
     1
 40
1.0
176
     1
 90
        0
176
     1
 62
   257
176
     1
 40
1.0
176
     1
 90
        1
176
     1
 90
        6
176
     1
 90
        2
176
     1
 62
     7
176
     1
 90
        5
176
     1
 90
        0
176
     1
 90
        0
176
     1
290
     0
176
     1
 90
       13
176
     1
 40
0.0
176
     1
 90
        0
176
     1
290
     0
176
     1
290
     1
176
     1
290
     1
176
     1
290
     0
176
     1
290
     0
176
     1
290
     0
176
     1
290
     0
176
     1
290
     0
176
     1
290
     0
176
     1
 90
       50
176
     1
 40
0.0
176
     1
 40
1.0
176
     1
 90
        0
176
     1
 62
    18
420
        0
176
     1
 90
       50
176
     1
 90
        3
176
     1
 62
     5
420
      255
176
     1
290
     0
176
     1
 90
       50
176
     1
 90
       50
176
     1
 90
       50
176
     1
290
     0
176
     1
 90
       50
176
     1
 62
   256
176
     0
 40
1.0
176
     0
 90
        2
176
     1
  1
strokes_ogs.tif
176
     1
290
     0
176
     1
 40
1.0
176
     1
 40
1.0
176
     1
1001
ACAD
1000
AcDbSavedByObjectVersion
1070
     0
  0
VISUALSTYLE
  5
2C
102
{ACAD_REACTORS
330
29
102
}
330
29
100
AcDbVisualStyle
  2

 70
     2
177
     3
291
     1
 70
    58
 90
        2
176
     1
 90
        2
176
     1
 90
        1
176
     1
 90
        2
176
     1
 40
0.6
176
     1
 40
30.0
176
     1
 62
     7
176
     1
 90
        0
176
     1
 90
        0
176
     1
 62
     7
176
     1
 62
   257
176
     1
 90
        1
176
     1
 90
        1
176
     1
 40
1.0
176
     1
 90
        0
176
     1
 62
     7
176
     1
 40
1.0
176
     1
 90
        1
176
     1
 90
        6
176
     1
 90
        2
176
     1
 62
     7
176
     1
 90
        5
176
     1
 90
        0
176
     1
 90
        0
176
     1
290
     0
176
     1
 90
       13
176
     1
 40
0.0
176
     1
 90
        0
176
     1
290
     0
176
     1
290
     1
176
     1
290
     1
176
     1
290
     0
176
     1
290
     0
176
     1
290
     0
176
     1
290
     0
176
     1
290
     0
176
     1
290
     0
176
     1
 90
       50
176
     1
 40
0.0
176
     1
 40
1.0
176
     1
 90
        0
176
     1
 62
    18
420
        0
176
     1
 90
       50
176
     1
 90
        3
176
     1
 62
     5
420
      255
176
     1
290
     0
176
     1
 90
       50
176
     1
 90
       50
176
     1
 90
       50
176
     1
290
     0
176
     1
 90
       50
176
     1
 62
   256
176
     0
 40
1.0
176
     0
 90
        2
176
     1
  1
strokes_ogs.tif
176
     1
290
     0
176
     1
 40
1.0
176
     1
 40
1.0
176
     1
1001
ACAD
1000
AcDbSavedByObjectVersion
1070
     0
  0
VISUALSTYLE
  5
2D
102
{ACAD_REACTORS
330
29
102
}
330
29
100
AcDbVisualStyle
  2

 70
     3
177
     3
291
     1
 70
    58
 90
        2
176
     1
 90
        2
176
     1
 90
        1
176
     1
 90
        2
176
     1
 40
0.6
176
     1
 40
30.0
176
     1
 62
     7
176
     1
 90
        1
176
     1
 90
        0
176
     1
 62
     7
176
     1
 62
   257
176
     1
 90
        1
176
     1
 90
        1
176
     1
 40
1.0
176
     1
 90
        0
176
     1
 62
   257
176
     1
 40
1.0
176
     1
 90
        1
176
     1
 90
        6
176
     1
 90
        2
176
     1
 62
     7
176
     1
 90
        5
176
     1
 90
        0
176
     1
 90
        0
176
     1
290
     0
176
     1
 90
       13
176
     1
 40
0.0
176
     1
 90
        0
176
     1
290
     0
176
     1
290
     1
176
     1
290
     1
176
     1
290
     0
176
     1
290
     0
176
     1
290
     0
176
     1
290
     0
176
     1
290
     0
176
     1
290
     0
176
     1
 90
       50
176
     1
 40
0.0
176
     1
 40
1.0
176
     1
 90
        0
176
     1
 62
    18
420
        0
176
     1
 90
       50
176
     1
 90
        3
176
     1
 62
     5
420
      255
176
     1
290
     0
176
     1
 90
       50
176
     1
 90
       50
176
     1
 90
       50
176
     1
290
     0
176
     1
 90
       50
176
     1
 62
   256
176
     0
 40
1.0
176
     0
 90
        2
176
     1
  1
strokes_ogs.tif
176
     1
290
     0
176
     1
 40
1.0
176
     1
 40
1.0
176
     1
1001
ACAD
1000
AcDbSavedByObjectVersion
1070
     0
  0
VISUALSTYLE
  5
31
102
{ACAD_REACTORS
330
29
102
}
330
29
100
AcDbVisualStyle
  2

 70
     6
177
     3
291
     0
 70
    58
 90
        1
176
     1
 90
        2
176
     1
 90
        2
176
     1
 90
        0
176
     1
 40
0.6
176
     1
 40
30.0
176
     1
 62
     7
176
     1
 90
        2
176
     1
 90
        2
176
     1
 62
     7
176
     1
 62
   257
176
     1
 90
        2
176
     1
 90
        1
176
     1
 40
40.0
176
     1
 90
        0
176
     1
 62
   257
176
     1
 40
1.0
176
     1
 90
        1
176
     1
 90
        6
176
     1
 90
        2
176
     1
 62
     7
176
     1
 90
        3
176
     1
 90
        0
176
     1
 90
        0
176
     1
290
     0
176
     1
 90
        1
176
     1
 40
0.0
176
     1
 90
        0
176
     1
290
     0
176
     1
290
     1
176
     1
290
     1
176
     1
290
     0
176
     1
290
     0
176
     1
290
     0
176
     1
290
     0
176
     1
290
     0
176
     1
290
     0
176
     1
 90
       50
176
     1
 40
0.0
176
     1
 40
1.0
176
     1
 90
        0
176
     1
 62
    18
420
        0
176
     1
 90
       50
176
     1
 90
        3
176
     1
 62
     5
420
      255
176
     1
290
     0
176
     1
 90
       50
176
     1
 90
       50
176
     1
 90
       50
176
     1
290
     0
176
     1
 90
       50
176
     1
 62
   256
176
     0
 40
1.0
176
     0
 90
        2
176
     1
  1
strokes_ogs.tif
176
     1
290
     0
176
     1
 40
1.0
176
     1
 40
1.0
176
     1
1001
ACAD
1000
AcDbSavedByObjectVersion
1070
     0
  0
VISUALSTYLE
  5
3F
102
{ACAD_REACTORS
330
29
102
}
330
29
100
AcDbVisualStyle
  2

 70
    20
177
     3
291
     1
 70
    58
 90
        2
176
     0
 90
        2
176
     0
 90
        0
176
     0
 90
        0
176
     0
 40
0.6
176
     0
 40
30.0
176
     0
 62
     7
176
     0
 90
        1
176
     0
 90
        4
176
     0
 62
     7
176
     0
 62
   257
176
     0
 90
        1
176
     0
 90
        1
176
     0
 40
1.0
176
     0
 90
       10
176
     2
 62
     7
176
     0
 40
1.0
176
     0
 90
        1
176
     0
 90
        6
176
     0
 90
        2
176
     0
 62
     7
176
     0
 90
        5
176
     0
 90
        0
176
     0
 90
        0
176
     0
290
     0
176
     0
 90
        1
176
     0
 40
0.0
176
     0
 90
        0
176
     0
290
     0
176
     1
290
     1
176
     1
290
     1
176
     1
290
     0
176
     1
290
     0
176
     1
290
     0
176
     1
290
     0
176
     1
290
     0
176
     1
290
     0
176
     1
 90
       50
176
     0
 40
0.0
176
     0
 40
1.0
176
     0
 90
        0
176
     0
 62
    18
420
        0
176
     0
 90
       50
176
     0
 90
        3
176
     0
 62
     5
420
      255
176
     0
290
     0
176
     1
 90
       50
176
     0
 90
       50
176
     0
 90
       50
176
     0
290
     0
176
     1
 90
       50
176
     0
 62
   256
176
     0
 40
1.0
176
     0
 90
        2
176
     0
  1
strokes_ogs.tif
176
     0
290
     0
176
     1
 40
1.0
176
     0
 40
1.0
176
     0
1001
ACAD
1000
AcDbSavedByObjectVersion
1070
     0
  0
VISUALSTYLE
  5
37
102
{ACAD_REACTORS
330
29
102
}
330
29
100
AcDbVisualStyle
  2

 70
    14
177
     3
291
     1
 70
    58
 90
        2
176
     1
 90
        2
176
     1
 90
        0
176
     1
 90
        0
176
     1
 40
0.6
176
     1
 40
30.0
176
     1
 62
     7
176
     1
 90
        1
176
     1
 90
        4
176
     1
 62
     7
176
     1
 62
   257
176
     1
 90
        7
176
     1
 90
        7
176
     1
 40
1.0
176
     1
 90
        8
176
     1
 62
     7
176
     1
 40
1.0
176
     1
 90
        1
176
     1
 90
        6
176
     1
 90
        2
176
     1
 62
     7
176
     1
 90
        5
176
     1
 90
        0
176
     1
 90
        0
176
     1
290
     0
176
     1
 90
        1
176
     1
 40
0.0
176
     1
 90
        0
176
     1
290
     0
176
     1
290
     1
176
     1
290
     1
176
     1
290
     0
176
     1
290
     0
176
     1
290
     0
176
     1
290
     0
176
     1
290
     0
176
     1
290
     0
176
     1
 90
       50
176
     1
 40
0.0
176
     1
 40
1.0
176
     1
 90
        0
176
     1
 62
    18
420
        0
176
     1
 90
       50
176
     1
 90
        3
176
     1
 62
     5
420
      255
176
     1
290
     0
176
     1
 90
       50
176
     1
 90
       50
176
     1
 90
       50
176
     1
290
     0
176
     1
 90
       50
176
     1
 62
   256
176
     0
 40
1.0
176
     0
 90
        2
176
     1
  1
strokes_ogs.tif
176
     1
290
     0
176
     1
 40
1.0
176
     1
 40
1.0
176
     1
1001
ACAD
1000
AcDbSavedByObjectVersion
1070
     0
  0
VISUALSTYLE
  5
40
102
{ACAD_REACTORS
330
29
102
}
330
29
100
AcDbVisualStyle
  2

 70
    21
177
     3
291
     1
 70
    58
 90
        2
176
     0
 90
        2
176
     0
 90
        0
176
     0
 90
        0
176
     0
 40
0.6
176
     0
 40
30.0
176
     0
 62
     7
176
     0
 90
        1
176
     0
 90
        4
176
     0
 62
     7
176
     0
 62
   257
176
     0
 90
        1
176
     0
 90
        1
176
     0
 40
1.0
176
     0
 90
        9
176
     2
 62
     7
176
     0
 40
1.0
176
     0
 90
        1
176
     0
 90
        6
176
     0
 90
        2
176
     0
 62
     7
176
     0
 90
        5
176
     0
 90
        0
176
     0
 90
        0
176
     0
290
     0
176
     0
 90
        1
176
     0
 40
0.0
176
     0
 90
        0
176
     0
290
     0
176
     1
290
     1
176
     1
290
     1
176
     1
290
     0
176
     1
290
     0
176
     1
290
     0
176
     1
290
     0
176
     1
290
     0
176
     1
290
     0
176
     1
 90
       50
176
     0
 40
0.0
176
     0
 40
1.0
176
     0
 90
        0
176
     0
 62
    18
420
        0
176
     0
 90
       50
176
     0
 90
        3
176
     0
 62
     5
420
      255
176
     0
290
     0
176
     1
 90
       50
176
     0
 90
       50
176
     0
 90
       50
176
     0
290
     0
176
     1
 90
       50
176
     0
 62
   256
176
     0
 40
1.0
176
     0
 90
        2
176
     0
  1
strokes_ogs.tif
176
     0
290
     0
176
     1
 40
1.0
176
     0
 40
1.0
176
     0
1001
ACAD
1000
AcDbSavedByObjectVersion
1070
     0
  0
VISUALSTYLE
  5
33
102
{ACAD_REACTORS
330
29
102
}
330
29
100
AcDbVisualStyle
  2

 70
     8
177
     3
291
     0
 70
    58
 90
        2
176
     1
 90
        3
176
     1
 90
        0
176
     1
 90
        2
176
     1
 40
0.6
176
     1
 40
30.0
176
     1
 62
     7
176
     1
 90
        0
176
     1
 90
        0
176
     1
 62
     7
176
     1
 62
   257
176
     1
 90
        1
176
     1
 90
        1
176
     1
 40
1.0
176
     1
 90
        8
176
     1
 62
   257
176
     1
 40
1.0
176
     1
 90
        1
176
     1
 90
        6
176
     1
 90
        2
176
     1
 62
     7
176
     1
 90
        3
176
     1
 90
        0
176
     1
 90
        0
176
     1
290
     0
176
     1
 90
       13
176
     1
 40
0.0
176
     1
 90
        0
176
     1
290
     0
176
     1
290
     1
176
     1
290
     1
176
     1
290
     0
176
     1
290
     0
176
     1
290
     0
176
     1
290
     0
176
     1
290
     0
176
     1
290
     0
176
     1
 90
       50
176
     1
 40
0.0
176
     1
 40
1.0
176
     1
 90
        0
176
     1
 62
    18
420
        0
176
     1
 90
       50
176
     1
 90
        3
176
     1
 62
     5
420
      255
176
     1
290
     0
176
     1
 90
       50
176
     1
 90
       50
176
     1
 90
       50
176
     1
290
     0
176
     1
 90
       50
176
     1
 62
   256
176
     0
 40
1.0
176
     0
 90
        2
176
     1
  1
strokes_ogs.tif
176
     1
290
     0
176
     1
 40
1.0
176
     1
 40
1.0
176
     1
1001
ACAD
1000
AcDbSavedByObjectVersion
1070
     0
  0
VISUALSTYLE
  5
3E
102
{ACAD_REACTORS
330
29
102
}
330
29
100
AcDbVisualStyle
  2

 70
    27
177
     3
291
     0
 70
    58
 90
        2
176
     1
 90
        2
176
     1
 90
        1
176
     1
 90
        2
176
     1
 40
0.6
176
     1
 40
30.0
176
     1
 62
     7
176
     1
 90
        0
176
     1
 90
        4
176
     1
 62
     7
176
     1
 62
   257
176
     1
 90
        1
176
     1
 90
        1
176
     1
 40
1.0
176
     1
 90
        8
176
     1
 62
   257
176
     1
 40
1.0
176
     1
 90
        1
176
     1
 90
        6
176
     1
 90
        2
176
     1
 62
     8
176
     1
 90
        3
176
     1
 90
        0
176
     1
 90
        0
176
     1
290
     0
176
     1
 90
        5
176
     1
 40
0.0
176
     1
 90
        0
176
     1
290
     0
176
     1
290
     1
176
     1
290
     1
176
     1
290
     0
176
     1
290
     0
176
     1
290
     0
176
     1
290
     0
176
     1
290
     0
176
     1
290
     0
176
     1
 90
       50
176
     1
 40
0.0
176
     1
 40
1.0
176
     1
 90
        0
176
     1
 62
    18
420
        0
176
     1
 90
       50
176
     1
 90
        3
176
     1
 62
     5
420
      255
176
     1
290
     0
176
     1
 90
       50
176
     1
 90
       50
176
     1
 90
       50
176
     1
290
     0
176
     1
 90
       50
176
     1
 62
   256
176
     0
 40
1.0
176
     0
 90
        2
176
     1
  1
strokes_ogs.tif
176
     1
290
     0
176
     1
 40
1.0
176
     1
 40
1.0
176
     1
1001
ACAD
1000
AcDbSavedByObjectVersion
1070
     0
  0
VISUALSTYLE
  5
3D
102
{ACAD_REACTORS
330
29
102
}
330
29
100
AcDbVisualStyle
  2

 70
    26
177
     3
291
     0
 70
    58
 90
        2
176
     1
 90
        2
176
     1
 90
        1
176
     1
 90
        2
176
     1
 40
0.6
176
     1
 40
30.0
176
     1
 62
     7
176
     1
 90
        1
176
     1
 90
        2
176
     1
 62
     7
176
     1
 62
   257
176
     1
 90
        2
176
     1
 90
        1
176
     1
 40
1.0
176
     1
 90
        8
176
     1
 62
   257
176
     1
 40
1.0
176
     1
 90
        1
176
     1
 90
        6
176
     1
 90
        2
176
     1
 62
     7
176
     1
 90
        3
176
     1
 90
        0
176
     1
 90
        0
176
     1
290
     0
176
     1
 90
        5
176
     1
 40
0.0
176
     1
 90
        0
176
     1
290
     0
176
     1
290
     1
176
     1
290
     1
176
     1
290
     0
176
     1
290
     0
176
     1
290
     0
176
     1
290
     0
176
     1
290
     0
176
     1
290
     0
176
     1
 90
       50
176
     1
 40
0.0
176
     1
 40
1.0
176
     1
 90
        0
176
     1
 62
    18
420
        0
176
     1
 90
       50
176
     1
 90
        3
176
     1
 62
     5
420
      255
176
     1
290
     0
176
     1
 90
       50
176
     1
 90
       50
176
     1
 90
       50
176
     1
290
     0
176
     1
 90
       50
176
     1
 62
   256
176
     0
 40
1.0
176
     0
 90
        2
176
     1
  1
strokes_ogs.tif
176
     1
290
     0
176
     1
 40
1.0
176
     1
 40
1.0
176
     1
1001
ACAD
1000
AcDbSavedByObjectVersion
1070
     0
  0
VISUALSTYLE
  5
3A
102
{ACAD_REACTORS
330
29
102
}
330
29
100
AcDbVisualStyle
  2

 70
    23
177
     3
291
     0
 70
    58
 90
        2
176
     1
 90
        2
176
     1
 90
        3
176
     1
 90
        0
176
     1
 40
0.6
176
     1
 40
30.0
176
     1
 62
     7
176
     1
 90
        2
176
     1
 90
        2
176
     1
 62
     7
176
     1
 62
     7
176
     1
 90
        1
176
     1
 90
        1
176
     1
 40
40.0
176
     1
 90
        8
176
     1
 62
     7
176
     1
 40
1.0
176
     1
 90
        1
176
     1
 90
        6
176
     1
 90
        2
176
     1
 62
     7
176
     1
 90
        3
176
     1
 90
        0
176
     1
 90
        0
176
     1
290
     0
176
     1
 90
        1
176
     1
 40
0.0
176
     1
 90
        0
176
     1
290
     0
176
     1
290
     1
176
     1
290
     1
176
     1
290
     0
176
     1
290
     0
176
     1
290
     0
176
     1
290
     0
176
     1
290
     0
176
     1
290
     0
176
     1
 90
       50
176
     1
 40
0.0
176
     1
 40
1.0
176
     1
 90
        0
176
     1
 62
    18
420
        0
176
     1
 90
       50
176
     1
 90
        3
176
     1
 62
     5
420
      255
176
     1
290
     0
176
     1
 90
       50
176
     1
 90
       50
176
     1
 90
       50
176
     1
290
     0
176
     1
 90
       50
176
     1
 62
   256
176
     0
 40
1.0
176
     0
 90
        2
176
     1
  1
strokes_ogs.tif
176
     1
290
     0
176
     1
 40
1.0
176
     1
 40
1.0
176
     1
1001
ACAD
1000
AcDbSavedByObjectVersion
1070
     0
  0
VISUALSTYLE
  5
3B
102
{ACAD_REACTORS
330
29
102
}
330
29
100
AcDbVisualStyle
  2

 70
    24
177
     3
291
     0
 70
    58
 90
        1
176
     1
 90
        2
176
     1
 90
        2
176
     1
 90
        0
176
     1
 40
0.6
176
     1
 40
30.0
176
     1
 62
     7
176
     1
 90
        2
176
     1
 90
        2
176
     1
 62
     7
176
     1
 62
     7
176
     1
 90
        1
176
     1
 90
        1
176
     1
 40
40.0
176
     1
 90
       11
176
     1
 62
     7
176
     1
 40
1.0
176
     1
 90
        1
176
     1
 90
        6
176
     1
 90
        2
176
     1
 62
     7
176
     1
 90
        6
176
     1
 90
        0
176
     1
 90
        0
176
     1
290
     0
176
     1
 90
        1
176
     1
 40
0.0
176
     1
 90
        0
176
     1
290
     0
176
     1
290
     1
176
     1
290
     1
176
     1
290
     0
176
     1
290
     0
176
     1
290
     0
176
     1
290
     0
176
     1
290
     0
176
     1
290
     0
176
     1
 90
       50
176
     1
 40
0.0
176
     1
 40
1.0
176
     1
 90
        0
176
     1
 62
    18
420
        0
176
     1
 90
       50
176
     1
 90
        3
176
     1
 62
     5
420
      255
176
     1
290
     0
176
     1
 90
       50
176
     1
 90
       50
176
     1
 90
       50
176
     1
290
     0
176
     1
 90
       50
176
     1
 62
   256
176
     0
 40
1.0
176
     0
 90
        2
176
     1
  1
strokes_ogs.tif
176
     1
290
     0
176
     1
 40
1.0
176
     1
 40
1.0
176
     1
1001
ACAD
1000
AcDbSavedByObjectVersion
1070
     0
  0
VISUALSTYLE
  5
36
102
{ACAD_REACTORS
330
29
102
}
330
29
100
AcDbVisualStyle
  2

 70
    13
177
     3
291
     1
 70
    58
 90
        2
176
     1
 90
        2
176
     1
 90
        0
176
     1
 90
        0
176
     1
 40
0.6
176
     1
 40
30.0
176
     1
 62
     7
176
     1
 90
        1
176
     1
 90
        4
176
     1
 62
     7
176
     1
 62
   257
176
     1
 90
        1
176
     1
 90
        1
176
     1
 40
1.0
176
     1
 90
       12
176
     1
 62
     7
176
     1
 40
1.0
176
     1
 90
        1
176
     1
 90
        6
176
     1
 90
        2
176
     1
 62
     7
176
     1
 90
        5
176
     1
 90
        0
176
     1
 90
        0
176
     1
290
     0
176
     1
 90
        1
176
     1
 40
0.0
176
     1
 90
        0
176
     1
290
     0
176
     1
290
     1
176
     1
290
     1
176
     1
290
     0
176
     1
290
     0
176
     1
290
     0
176
     1
290
     0
176
     1
290
     0
176
     1
290
     0
176
     1
 90
       50
176
     1
 40
0.0
176
     1
 40
1.0
176
     1
 90
        0
176
     1
 62
    18
420
        0
176
     1
 90
       50
176
     1
 90
        3
176
     1
 62
     5
420
      255
176
     1
290
     0
176
     1
 90
       50
176
     1
 90
       50
176
     1
 90
       50
176
     1
290
     0
176
     1
 90
       50
176
     1
 62
   256
176
     0
 40
1.0
176
     0
 90
        2
176
     1
  1
strokes_ogs.tif
176
     1
290
     0
176
     1
 40
1.0
176
     1
 40
1.0
176
     1
1001
ACAD
1000
AcDbSavedByObjectVersion
1070
     0
  0
VISUALSTYLE
  5
30
102
{ACAD_REACTORS
330
29
102
}
330
29
100
AcDbVisualStyle
  2

 70
     5
177
     3
291
     0
 70
    58
 90
        0
176
     1
 90
        2
176
     1
 90
        0
176
     1
 90
        0
176
     1
 40
0.6
176
     1
 40
30.0
176
     1
 62
     7
176
     1
 90
        1
176
     1
 90
        4
176
     1
 62
     7
176
     1
 62
   257
176
     1
 90
        1
176
     1
 90
        1
176
     1
 40
1.0
176
     1
 90
        0
176
     1
 62
   257
176
     1
 40
1.0
176
     1
 90
        1
176
     1
 90
        6
176
     1
 90
        2
176
     1
 62
     7
176
     1
 90
        3
176
     1
 90
        0
176
     1
 90
        0
176
     1
290
     0
176
     1
 90
        1
176
     1
 40
0.0
176
     1
 90
        0
176
     1
290
     0
176
     1
290
     1
176
     1
290
     1
176
     1
290
     0
176
     1
290
     0
176
     1
290
     0
176
     1
290
     0
176
     1
290
     0
176
     1
290
     0
176
     1
 90
       50
176
     1
 40
0.0
176
     1
 40
1.0
176
     1
 90
        0
176
     1
 62
    18
420
        0
176
     1
 90
       50
176
     1
 90
        3
176
     1
 62
     5
420
      255
176
     1
290
     0
176
     1
 90
       50
176
     1
 90
       50
176
     1
 90
       50
176
     1
290
     0
176
     1
 90
       50
176
     1
 62
   256
176
     0
 40
1.0
176
     0
 90
        2
176
     1
  1
strokes_ogs.tif
176
     1
290
     0
176
     1
 40
1.0
176
     1
 40
1.0
176
     1
1001
ACAD
1000
AcDbSavedByObjectVersion
1070
     0
  0
VISUALSTYLE
  5
3C
102
{ACAD_REACTORS
330
29
102
}
330
29
100
AcDbVisualStyle
  2

 70
    25
177
     3
291
     0
 70
    58
 90
        2
176
     1
 90
        2
176
     1
 90
        1
176
     1
 90
        1
176
     1
 40
0.5
176
     1
 40
30.0
176
     1
 62
     7
176
     1
 90
        1
176
     1
 90
        0
176
     1
 62
     7
176
     1
 62
   257
176
     1
 90
        1
176
     1
 90
        1
176
     1
 40
1.0
176
     1
 90
        8
176
     1
 62
     7
176
     1
 40
1.0
176
     1
 90
        1
176
     1
 90
        6
176
     1
 90
        2
176
     1
 62
     7
176
     1
 90
        3
176
     1
 90
        0
176
     1
 90
        0
176
     1
290
     0
176
     1
 90
       13
176
     1
 40
0.0
176
     1
 90
        0
176
     1
290
     0
176
     1
290
     1
176
     1
290
     1
176
     1
290
     0
176
     1
290
     0
176
     1
290
     0
176
     1
290
     0
176
     1
290
     0
176
     1
290
     0
176
     1
 90
       50
176
     1
 40
0.0
176
     1
 40
1.0
176
     1
 90
        0
176
     1
 62
    18
420
        0
176
     1
 90
       50
176
     1
 90
        3
176
     1
 62
     5
420
      255
176
     1
290
     0
176
     1
 90
       50
176
     1
 90
       50
176
     1
 90
       50
176
     1
290
     0
176
     1
 90
       50
176
     1
 62
   256
176
     0
 40
1.0
176
     0
 90
        2
176
     1
  1
strokes_ogs.tif
176
     1
290
     0
176
     1
 40
1.0
176
     1
 40
1.0
176
     1
1001
ACAD
1000
AcDbSavedByObjectVersion
1070
     0
  0
DICTIONARYVAR
  5
397
102
{ACAD_REACTORS
330
392
102
}
330
392
100
DictionaryVariables
280
     0
  1
1:1
  0
DICTIONARYVAR
  5
394
102
{ACAD_REACTORS
330
392
102
}
330
392
100
DictionaryVariables
280
     0
  1
STANDARD
  0
DICTIONARYVAR
  5
393
102
{ACAD_REACTORS
330
392
102
}
330
392
100
DictionaryVariables
280
     0
  1
STANDARD
  0
DICTIONARYVAR
  5
395
102
{ACAD_REACTORS
330
392
102
}
330
392
100
DictionaryVariables
280
     0
  1
Imperial24
  0
DICTIONARYVAR
  5
396
102
{ACAD_REACTORS
330
392
102
}
330
392
100
DictionaryVariables
280
     0
  1
Imperial24
  0
DICTIONARYVAR
  5
39A
102
{ACAD_REACTORS
330
392
102
}
330
392
100
DictionaryVariables
280
     0
  1
1
  0
DICTIONARYVAR
  5
399
102
{ACAD_REACTORS
330
392
102
}
330
392
100
DictionaryVariables
280
     0
  1
0
  0
DICTIONARYVAR
  5
43A
102
{ACAD_REACTORS
330
392
102
}
330
392
100
DictionaryVariables
280
     0
  1
1
  0
DICTIONARYVAR
  5
43B
102
{ACAD_REACTORS
330
392
102
}
330
392
100
DictionaryVariables
280
     0
  1
15
  0
DICTIONARYVAR
  5
439
102
{ACAD_REACTORS
330
392
102
}
330
392
100
DictionaryVariables
280
     0
  1
0
  0
DICTIONARYVAR
  5
438
102
{ACAD_REACTORS
330
392
102
}
330
392
100
DictionaryVariables
280
     0
  1
0
  0
DICTIONARYVAR
  5
398
102
{ACAD_REACTORS
330
392
102
}
330
392
100
DictionaryVariables
280
     0
  1
127
  0
DICTIONARY
  5
1A
330
19
100
AcDbDictionary
280
     1
281
     1
  3
ACAD_XREC_ROUNDTRIP
360
3A2
  3
BUMPTILE
360
1C
  3
DIFFUSETILE
360
1B
  3
OPACITYTILE
360
1F
  3
REFLECTIONTILE
360
1E
  3
REFRACTIONTILE
360
20
  3
SPECULARTILE
360
1D
  0
DICTIONARY
  5
12
330
11
100
AcDbDictionary
280
     1
281
     1
  3
ACAD_XREC_ROUNDTRIP
360
3A1
  3
BUMPTILE
360
14
  3
DIFFUSETILE
360
13
  3
OPACITYTILE
360
17
  3
REFLECTIONTILE
360
16
  3
REFRACTIONTILE
360
18
  3
SPECULARTILE
360
15
  0
DICTIONARY
  5
22
330
21
100
AcDbDictionary
280
     1
281
     1
  3
ACAD_XREC_ROUNDTRIP
360
3A3
  3
BUMPTILE
360
24
  3
DIFFUSETILE
360
23
  3
OPACITYTILE
360
27
  3
REFLECTIONTILE
360
26
  3
REFRACTIONTILE
360
28
  3
SPECULARTILE
360
25
  0
DICTIONARY
  5
39D
330
64
100
AcDbDictionary
280
     1
281
     1
  3
ACAD_ROUNDTRIP_2008_TABLESTYLE_CELLSTYLEMAP
360
43C
  0
XRECORD
  5
3A2
102
{ACAD_REACTORS
330
1A
102
}
330
1A
100
AcDbXrecord
280
     1
102
MATERIAL
148
0.0
149
0.0
149
0.0
 93
        0
 94
      127
282
     0
 72
     0
 77
     0
171
     0
175
     0
179
     0
273
     0
  0
XRECORD
  5
1C
102
{ACAD_REACTORS
330
1A
102
}
330
1A
100
AcDbXrecord
280
     1
270
     1
271
     1
  0
XRECORD
  5
1B
102
{ACAD_REACTORS
330
1A
102
}
330
1A
100
AcDbXrecord
280
     1
270
     1
271
     1
  0
XRECORD
  5
1F
102
{ACAD_REACTORS
330
1A
102
}
330
1A
100
AcDbXrecord
280
     1
270
     1
271
     1
  0
XRECORD
  5
1E
102
{ACAD_REACTORS
330
1A
102
}
330
1A
100
AcDbXrecord
280
     1
270
     1
271
     1
  0
XRECORD
  5
20
102
{ACAD_REACTORS
330
1A
102
}
330
1A
100
AcDbXrecord
280
     1
270
     1
271
     1
  0
XRECORD
  5
1D
102
{ACAD_REACTORS
330
1A
102
}
330
1A
100
AcDbXrecord
280
     1
270
     1
271
     1
  0
XRECORD
  5
3A1
102
{ACAD_REACTORS
330
12
102
}
330
12
100
AcDbXrecord
280
     1
102
MATERIAL
148
0.0
149
0.0
149
0.0
 93
        0
 94
      127
282
     0
 72
     0
 77
     0
171
     0
175
     0
179
     0
273
     0
  0
XRECORD
  5
14
102
{ACAD_REACTORS
330
12
102
}
330
12
100
AcDbXrecord
280
     1
270
     1
271
     1
  0
XRECORD
  5
13
102
{ACAD_REACTORS
330
12
102
}
330
12
100
AcDbXrecord
280
     1
270
     1
271
     1
  0
XRECORD
  5
17
102
{ACAD_REACTORS
330
12
102
}
330
12
100
AcDbXrecord
280
     1
270
     1
271
     1
  0
XRECORD
  5
16
102
{ACAD_REACTORS
330
12
102
}
330
12
100
AcDbXrecord
280
     1
270
     1
271
     1
  0
XRECORD
  5
18
102
{ACAD_REACTORS
330
12
102
}
330
12
100
AcDbXrecord
280
     1
270
     1
271
     1
  0
XRECORD
  5
15
102
{ACAD_REACTORS
330
12
102
}
330
12
100
AcDbXrecord
280
     1
270
     1
271
     1
  0
XRECORD
  5
3A3
102
{ACAD_REACTORS
330
22
102
}
330
22
100
AcDbXrecord
280
     1
102
MATERIAL
148
0.0
149
0.0
149
0.0
 93
        0
 94
      127
282
     0
 72
     0
 77
     0
171
     0
175
     0
179
     0
273
     0
  0
XRECORD
  5
24
102
{ACAD_REACTORS
330
22
102
}
330
22
100
AcDbXrecord
280
     1
270
     1
271
     1
  0
XRECORD
  5
23
102
{ACAD_REACTORS
330
22
102
}
330
22
100
AcDbXrecord
280
     1
270
     1
271
     1
  0
XRECORD
  5
27
102
{ACAD_REACTORS
330
22
102
}
330
22
100
AcDbXrecord
280
     1
270
     1
271
     1
  0
XRECORD
  5
26
102
{ACAD_REACTORS
330
22
102
}
330
22
100
AcDbXrecord
280
     1
270
     1
271
     1
  0
XRECORD
  5
28
102
{ACAD_REACTORS
330
22
102
}
330
22
100
AcDbXrecord
280
     1
270
     1
271
     1
  0
XRECORD
  5
25
102
{ACAD_REACTORS
330
22
102
}
330
22
100
AcDbXrecord
280
     1
270
     1
271
     1
  0
CELLSTYLEMAP
  5
43C
102
{ACAD_REACTORS
330
39D
102
}
330
39D
100
AcDbCellStyleMap
 90
        3
300
CELLSTYLE
  1
TABLEFORMAT_BEGIN
 90
        5
170
     1
 91
        0
 92
    32768
 62
   257
 93
        1
300
CONTENTFORMAT
  1
CONTENTFORMAT_BEGIN
 90
        0
 91
        0
 92
      512
 93
        0
300

 40
0.0
140
1.0
 94
        5
 62
     0
340
55
144
0.25
309
CONTENTFORMAT_END
171
     1
301
MARGIN
  1
CELLMARGIN_BEGIN
 40
0.06
 40
0.06
 40
0.06
 40
0.06
 40
0.18
 40
0.18
309
CELLMARGIN_END
 94
        6
 95
        1
302
GRIDFORMAT
  1
GRIDFORMAT_BEGIN
 90
        0
 91
        1
 62
     0
 92
       -2
340
0
 93
        0
 40
0.045
309
GRIDFORMAT_END
 95
        2
302
GRIDFORMAT
  1
GRIDFORMAT_BEGIN
 90
        0
 91
        1
 62
     0
 92
       -2
340
0
 93
        0
 40
0.045
309
GRIDFORMAT_END
 95
        4
302
GRIDFORMAT
  1
GRIDFORMAT_BEGIN
 90
        0
 91
        1
 62
     0
 92
       -2
340
0
 93
        0
 40
0.045
309
GRIDFORMAT_END
 95
        8
302
GRIDFORMAT
  1
GRIDFORMAT_BEGIN
 90
        0
 91
        1
 62
     0
 92
       -2
340
0
 93
        0
 40
0.045
309
GRIDFORMAT_END
 95
       16
302
GRIDFORMAT
  1
GRIDFORMAT_BEGIN
 90
        0
 91
        1
 62
     0
 92
       -2
340
0
 93
        0
 40
0.045
309
GRIDFORMAT_END
 95
       32
302
GRIDFORMAT
  1
GRIDFORMAT_BEGIN
 90
        0
 91
        1
 62
     0
 92
       -2
340
0
 93
        0
 40
0.045
309
GRIDFORMAT_END
309
TABLEFORMAT_END
  1
CELLSTYLE_BEGIN
 90
        1
 91
        1
300
_TITLE
309
CELLSTYLE_END
300
CELLSTYLE
  1
TABLEFORMAT_BEGIN
 90
        5
170
     1
 91
        0
 92
        0
 62
   257
 93
        1
300
CONTENTFORMAT
  1
CONTENTFORMAT_BEGIN
 90
        0
 91
        0
 92
      512
 93
        0
300

 40
0.0
140
1.0
 94
        5
 62
     0
340
55
144
0.18
309
CONTENTFORMAT_END
171
     1
301
MARGIN
  1
CELLMARGIN_BEGIN
 40
0.06
 40
0.06
 40
0.06
 40
0.06
 40
0.18
 40
0.18
309
CELLMARGIN_END
 94
        6
 95
        1
302
GRIDFORMAT
  1
GRIDFORMAT_BEGIN
 90
        0
 91
        1
 62
     0
 92
       -2
340
0
 93
        0
 40
0.045
309
GRIDFORMAT_END
 95
        2
302
GRIDFORMAT
  1
GRIDFORMAT_BEGIN
 90
        0
 91
        1
 62
     0
 92
       -2
340
0
 93
        0
 40
0.045
309
GRIDFORMAT_END
 95
        4
302
GRIDFORMAT
  1
GRIDFORMAT_BEGIN
 90
        0
 91
        1
 62
     0
 92
       -2
340
0
 93
        0
 40
0.045
309
GRIDFORMAT_END
 95
        8
302
GRIDFORMAT
  1
GRIDFORMAT_BEGIN
 90
        0
 91
        1
 62
     0
 92
       -2
340
0
 93
        0
 40
0.045
309
GRIDFORMAT_END
 95
       16
302
GRIDFORMAT
  1
GRIDFORMAT_BEGIN
 90
        0
 91
        1
 62
     0
 92
       -2
340
0
 93
        0
 40
0.045
309
GRIDFORMAT_END
 95
       32
302
GRIDFORMAT
  1
GRIDFORMAT_BEGIN
 90
        0
 91
        1
 62
     0
 92
       -2
340
0
 93
        0
 40
0.045
309
GRIDFORMAT_END
309
TABLEFORMAT_END
  1
CELLSTYLE_BEGIN
 90
        2
 91
        1
300
_HEADER
309
CELLSTYLE_END
300
CELLSTYLE
  1
TABLEFORMAT_BEGIN
 90
        5
170
     1
 91
        0
 92
        0
 62
   257
 93
        1
300
CONTENTFORMAT
  1
CONTENTFORMAT_BEGIN
 90
        0
 91
        0
 92
      512
 93
        0
300

 40
0.0
140
1.0
 94
        2
 62
     0
340
55
144
0.18
309
CONTENTFORMAT_END
171
     1
301
MARGIN
  1
CELLMARGIN_BEGIN
 40
0.06
 40
0.06
 40
0.06
 40
0.06
 40
0.18
 40
0.18
309
CELLMARGIN_END
 94
        6
 95
        1
302
GRIDFORMAT
  1
GRIDFORMAT_BEGIN
 90
        0
 91
        1
 62
     0
 92
       -2
340
0
 93
        0
 40
0.045
309
GRIDFORMAT_END
 95
        2
302
GRIDFORMAT
  1
GRIDFORMAT_BEGIN
 90
        0
 91
        1
 62
     0
 92
       -2
340
0
 93
        0
 40
0.045
309
GRIDFORMAT_END
 95
        4
302
GRIDFORMAT
  1
GRIDFORMAT_BEGIN
 90
        0
 91
        1
 62
     0
 92
       -2
340
0
 93
        0
 40
0.045
309
GRIDFORMAT_END
 95
        8
302
GRIDFORMAT
  1
GRIDFORMAT_BEGIN
 90
        0
 91
        1
 62
     0
 92
       -2
340
0
 93
        0
 40
0.045
309
GRIDFORMAT_END
 95
       16
302
GRIDFORMAT
  1
GRIDFORMAT_BEGIN
 90
        0
 91
        1
 62
     0
 92
       -2
340
0
 93
        0
 40
0.045
309
GRIDFORMAT_END
 95
       32
302
GRIDFORMAT
  1
GRIDFORMAT_BEGIN
 90
        0
 91
        1
 62
     0
 92
       -2
340
0
 93
        0
 40
0.045
309
GRIDFORMAT_END
309
TABLEFORMAT_END
  1
CELLSTYLE_BEGIN
 90
        3
 91
        2
300
_DATA
309
CELLSTYLE_END
  0
ENDSEC
  0
EOF
