  0
SECTION
  2
HEADER
  9
$ACADVER
  1
AC1006
  9
$INSBASE
 10
0.0
 20
0.0
 30
0.0
  9
$EXTMIN
 10
0.0
 20
0.0
  9
$EXTMAX
 10
570.0
 20
396.0
  9
$LIMMIN
 10
0.0
 20
0.0
  9
$LIMMAX
 10
570.0
 20
396.0
  9
$VIEWCTR
 10
6.591288
 20
4.579184
  9
$VIEWSIZE
 40
9.158369
  9
$SNAPMODE
 70
     0
  9
$SNAPUNIT
 10
1.0
 20
1.0
  9
$SNAPBASE
 10
0.0
 20
0.0
  9
$SNAPANG
 50
0.0
  9
$SNAPSTYLE
 70
     0
  9
$SNAPISOPAIR
 70
     0
  9
$GRIDMODE
 70
     0
  9
$GRIDUNIT
 10
0.0
 20
0.0
  9
$ORTHOMODE
 70
     0
  9
$REGENMODE
 70
     1
  9
$FILLMODE
 70
     1
  9
$QTEXTMODE
 70
     0
  9
$MIRRTEXT
 70
     1
  9
$DRAGMODE
 70
     2
  9
$LTSCALE
 40
1.333333
  9
$OSMODE
 70
    43
  9
$ATTMODE
 70
     1
  9
$TEXTSIZE
 40
5.0
  9
$TRACEWID
 40
1.0
  9
$TEXTSTYLE
  7
STANDARD
  9
$CLAYER
  8
SUNPOU
  9
$CELTYPE
  6
ByLayer
  9
$CECOLOR
 62
   256
  9
$DIMSCALE
 40
1.0
  9
$DIMASZ
 40
2.5
  9
$DIMEXO
 40
0.625
  9
$DIMDLI
 40
3.75
  9
$DIMRND
 40
0.0
  9
$DIMDLE
 40
0.0
  9
$DIMEXE
 40
1.25
  9
$DIMTP
 40
0.0
  9
$DIMTM
 40
0.0
  9
$DIMTXT
 40
6.0
  9
$DIMCEN
 40
2.5
  9
$DIMTSZ
 40
0.0
  9
$DIMTOL
 70
     0
  9
$DIMLIM
 70
     0
  9
$DIMTIH
 70
     0
  9
$DIMTOH
 70
     0
  9
$DIMSE1
 70
     0
  9
$DIMSE2
 70
     0
  9
$DIMTAD
 70
     1
  9
$DIMZIN
 70
     8
  9
$DIMBLK
  1

  9
$DIMASO
 70
     1
  9
$DIMSHO
 70
     1
  9
$DIMPOST
  1

  9
$DIMAPOST
  1

  9
$DIMALT
 70
     0
  9
$DIMALTD
 70
     4
  9
$DIMALTF
 40
0.0394
  9
$DIMLFAC
 40
1.0
  9
$DIMTOFL
 70
     1
  9
$DIMTVP
 40
0.0
  9
$DIMTIX
 70
     0
  9
$DIMSOXD
 70
     0
  9
$DIMSAH
 70
     1
  9
$DIMBLK1
  1
_NONE
  9
$DIMBLK2
  1
_NONE
  9
$LUNITS
 70
     2
  9
$LUPREC
 70
     4
  9
$AXISMODE
 70
     0
  9
$AXISUNIT
 10
0.0
 20
0.0
  9
$SKETCHINC
 40
1.0
  9
$FILLETRAD
 40
13.333333
  9
$AUNITS
 70
     0
  9
$AUPREC
 70
     0
  9
$MENU
  1
.
  9
$ELEVATION
 40
0.0
  9
$THICKNESS
 40
0.0
  9
$LIMCHECK
 70
     0
  9
$BLIPMODE
 70
     0
  9
$CHAMFERA
 40
13.333333
  9
$CHAMFERB
 40
13.333333
  9
$SKPOLY
 70
     1
  9
$TDCREATE
 40
2451654.610702639
  9
$TDUPDATE
 40
0.000000000
  9
$TDINDWG
 40
0.3059779630
  9
$TDUSRTIMER
 40
0.0000000000
  9
$USRTIMER
 70
     1
  9
$ANGBASE
 50
0.0
  9
$ANGDIR
 70
     0
  9
$PDMODE
 70
     0
  9
$PDSIZE
 40
0.0
  9
$PLINEWID
 40
0.0
  9
$COORDS
 70
     0
  9
$SPLFRAME
 70
     0
  9
$SPLINETYPE
 70
     6
  9
$SPLINESEGS
 70
     8
  9
$ATTDIA
 70
     0
  9
$ATTREQ
 70
     1
  9
$HANDLING
 70
 10241
  9
$HANDSEED
  5
6DE
  9
$SURFTAB1
 70
     6
  9
$SURFTAB2
 70
     6
  9
$SURFTYPE
 70
     6
  9
$SURFU
 70
     6
  9
$SURFV
 70
     6
  9
$FLATLAND
 70
     0
  9
$UCSNAME
  2

  9
$UCSORG
 10
0.0
 20
0.0
 30
0.0
  9
$UCSXDIR
 10
1.0
 20
0.0
 30
0.0
  9
$UCSYDIR
 10
0.0
 20
1.0
 30
0.0
  9
$USERI1
 70
     0
  9
$USERI2
 70
     0
  9
$USERI3
 70
     0
  9
$USERI4
 70
     0
  9
$USERI5
 70
     0
  9
$USERR1
 40
0.0
  9
$USERR2
 40
0.0
  9
$USERR3
 40
0.0
  9
$USERR4
 40
0.0
  9
$USERR5
 40
0.0
  9
$WORLDVIEW
 70
     1
  0
ENDSEC
  0
SECTION
  2
TABLES
  0
TABLE
  2
VPORT
 70
     1
  0
VPORT
  2
*ACTIVE
 70
     0
 10
0.0
 20
0.0
 11
1.0
 21
1.0
 12
285.000003
 22
198.802159
 13
0.0
 23
0.0
 14
13.0
 24
13.0
 15
13.0
 25
13.0
 16
0.0
 26
0.0
 36
1.0
 17
0.0
 27
0.0
 37
0.0
 40
401.463924
 41
1.595494
 42
50.0
 43
0.0
 44
0.0
 50
0.0
 51
0.0
 71
     0
 72
   100
 73
     1
 74
     0
 75
     0
 76
     0
 77
     0
 78
     0
  0
ENDTAB
  0
TABLE
  2
LTYPE
 70
     3
  0
LTYPE
  2
CONTINUOUS
 70
     0
  3
Solid line
 72
    65
 73
     0
 40
0.0
  0
LTYPE
  2
HIDDEN2
 70
     0
  3
Hidden (.5x) _ _ _ _ _ _ _ _ _ _ _ _ _ _ _ _ _
 72
    65
 73
     2
 40
4.7625
 49
3.175
 49
-1.5875
  0
LTYPE
  2
DASHED2
 70
     0
  3
Dashed (.5x) _ _ _ _ _ _ _ _ _ _ _ _ _ _ _ _ _
 72
    65
 73
     2
 40
9.525
 49
6.35
 49
-3.175
  0
ENDTAB
  0
TABLE
  2
LAYER
 70
     5
  0
LAYER
  2
0
 70
     0
 62
     7
  6
CONTINUOUS
  0
LAYER
  2
STRINGA
 70
     0
 62
     7
  6
CONTINUOUS
  0
LAYER
  2
WAKU
 70
     0
 62
     4
  6
CONTINUOUS
  0
LAYER
  2
PANEL
 70
     0
 62
     6
  6
CONTINUOUS
  0
LAYER
  2
SUNPOU
 70
     0
 62
     3
  6
CONTINUOUS
  0
ENDTAB
  0
TABLE
  2
STYLE
 70
     1
  0
STYLE
  2
STANDARD
 70
     0
 40
6.0
 41
1.0
 50
0.0
 71
     0
 42
5.0
  3
txt.shx
  4
bigfont.shx
  0
ENDTAB
  0
TABLE
  2
VIEW
 70
     0
  0
ENDTAB
  0
TABLE
  2
UCS
 70
     0
  0
ENDTAB
  0
ENDSEC
  0
SECTION
  2
BLOCKS
  0
BLOCK
  8
0
  2
$MODEL_SPACE
 70
     0
 10
0.0
 20
0.0
  0
ENDBLK
  8
0
  0
BLOCK
  8
0
  2
$PAPER_SPACE
 70
     0
 10
0.0
 20
0.0
  0
ENDBLK
  8
0
  0
BLOCK
  8
0
  2
_NONE
 70
     0
 10
0.0
 20
0.0
  0
CIRCLE
  8
0
  6
ByBlock
 62
     0
 10
0.0
 20
0.0
 30
0.0
 40
0.25
  0
ENDBLK
  8
0
  0
ENDSEC
  0
SECTION
  2
ENTITIES
  0
LINE
  8
WAKU
  6
CONTINUOUS
  5
1C3
 10
5.0
 20
25.0
 30
0.0
 11
565.0
 21
25.0
 31
0.0
  0
LINE
  8
WAKU
  6
CONTINUOUS
  5
1C4
 10
5.0
 20
5.0
 30
0.0
 11
565.0
 21
5.0
 31
0.0
  0
LINE
  8
WAKU
  6
CONTINUOUS
  5
1CB
 10
195.0
 20
5.0
 30
0.0
 11
195.0
 21
25.0
 31
0.0
  0
LINE
  8
STRINGA
  6
HIDDEN2
  5
229
 10
393.070674
 20
191.578138
 30
0.0
 11
397.058009
 21
218.57804
 31
0.0
  0
LINE
  8
STRINGA
  6
HIDDEN2
  5
22A
 10
394.059944
 20
191.432043
 30
0.0
 11
398.068855
 21
218.57804
 31
0.0
  0
LINE
  8
STRINGA
  6
HIDDEN2
  5
22B
 10
422.081403
 20
191.432043
 30
0.0
 11
418.072493
 21
218.57804
 31
0.0
  0
LINE
  8
STRINGA
  6
HIDDEN2
  5
22C
 10
423.070674
 20
191.578138
 30
0.0
 11
419.083339
 21
218.57804
 31
0.0
  0
LINE
  8
PANEL
  6
DASHED2
  5
22E
 10
458.070662
 20
191.578138
 30
0.0
 11
358.070685
 21
191.578138
 31
0.0
  0
LINE
  8
PANEL
  6
CONTINUOUS
  5
22F
 10
458.070662
 20
190.97804
 30
0.0
 11
358.070685
 21
190.97804
 31
0.0
  0
LINE
  8
STRINGA
  6
HIDDEN2
  5
239
 10
393.070674
 20
191.578138
 30
0.0
 11
394.059944
 21
191.432043
 31
0.0
  0
LINE
  8
STRINGA
  6
HIDDEN2
  5
23C
 10
423.070674
 20
191.578138
 30
0.0
 11
422.081403
 21
191.432043
 31
0.0
  0
LINE
  8
PANEL
  6
CONTINUOUS
  5
23D
 10
458.070662
 20
206.97804
 30
0.0
 11
358.070685
 21
206.97804
 31
0.0
  0
LINE
  8
STRINGA
  6
CONTINUOUS
  5
243
 10
403.091756
 20
238.978047
 30
0.0
 11
413.049592
 21
238.978047
 31
0.0
  0
LINE
  8
STRINGA
  6
CONTINUOUS
  5
244
 10
403.091756
 20
237.978047
 30
0.0
 11
413.049592
 21
237.978047
 31
0.0
  0
LINE
  8
STRINGA
  6
CONTINUOUS
  5
245
 10
399.629309
 20
235.98938
 30
0.0
 11
397.058009
 21
218.57804
 31
0.0
  0
LINE
  8
STRINGA
  6
CONTINUOUS
  5
246
 10
400.618579
 20
235.843285
 30
0.0
 11
398.068855
 21
218.57804
 31
0.0
  0
ARC
  8
STRINGA
  6
CONTINUOUS
  5
248
 10
403.091756
 20
235.478047
 30
0.0
 40
2.5
 50
90.0
 51
171.599302
  0
ARC
  8
STRINGA
  6
CONTINUOUS
  5
249
 10
403.091756
 20
235.478047
 30
0.0
 40
3.5
 50
90.0
 51
171.599302
  0
LINE
  8
STRINGA
  6
CONTINUOUS
  5
24B
 10
416.512039
 20
235.98938
 30
0.0
 11
419.083339
 21
218.57804
 31
0.0
  0
LINE
  8
STRINGA
  6
CONTINUOUS
  5
24C
 10
415.522768
 20
235.843285
 30
0.0
 11
418.072493
 21
218.57804
 31
0.0
  0
ARC
  8
STRINGA
  6
CONTINUOUS
  5
24E
 10
413.049592
 20
235.478047
 30
0.0
 40
2.5
 50
8.400698
 51
90.0
  0
ARC
  8
STRINGA
  6
CONTINUOUS
  5
24F
 10
413.049592
 20
235.478047
 30
0.0
 40
3.5
 50
8.400698
 51
90.0
  0
POLYLINE
  8
WAKU
  5
252
 66
     1
 10
0.0
 20
0.0
 30
0.0
 70
     1
  0
VERTEX
  8
WAKU
  5
6D8
 10
0.0
 20
0.0
 30
0.0
  0
VERTEX
  8
WAKU
  5
6D9
 10
570.0
 20
0.0
 30
0.0
  0
VERTEX
  8
WAKU
  5
6DA
 10
570.0
 20
396.0
 30
0.0
  0
VERTEX
  8
WAKU
  5
6DB
 10
0.0
 20
396.0
 30
0.0
  0
SEQEND
  8
WAKU
  5
6DC
  0
LINE
  8
WAKU
  5
255
 10
5.0
 20
5.0
 30
0.0
 11
5.0
 21
391.0
 31
0.0
  0
LINE
  8
WAKU
  5
256
 10
5.0
 20
391.0
 30
0.0
 11
565.0
 21
391.0
 31
0.0
  0
LINE
  8
WAKU
  5
257
 10
565.0
 20
391.0
 30
0.0
 11
565.0
 21
5.0
 31
0.0
  0
LINE
  8
SUNPOU
  5
2E9
 10
399.445674
 20
238.978047
 30
0.0
 11
341.820685
 21
238.978047
 31
0.0
  0
LINE
  8
SUNPOU
  5
2EA
 10
357.445685
 20
190.97804
 30
0.0
 11
341.820685
 21
190.97804
 31
0.0
  0
LINE
  8
SUNPOU
  5
2EB
 10
343.070685
 20
238.978047
 30
0.0
 11
343.070685
 21
190.97804
 31
0.0
  0
POINT
  8
SUNPOU
  5
2EF
 10
343.070685
 20
190.97804
 30
0.0
  0
LINE
  8
SUNPOU
  5
2F0
 10
400.070674
 20
239.603047
 30
0.0
 11
400.070674
 21
255.228047
 31
0.0
  0
LINE
  8
SUNPOU
  5
2F1
 10
416.070674
 20
239.603047
 30
0.0
 11
416.070674
 21
255.228047
 31
0.0
  0
LINE
  8
SUNPOU
  5
2F2
 10
400.070674
 20
253.978047
 30
0.0
 11
416.070674
 21
253.978047
 31
0.0
  0
POINT
  8
SUNPOU
  5
2F6
 10
416.070674
 20
253.978047
 30
0.0
  0
LINE
  8
SUNPOU
  5
2F7
 10
393.070674
 20
190.953138
 30
0.0
 11
393.070674
 21
174.72804
 31
0.0
  0
LINE
  8
SUNPOU
  5
2F8
 10
423.070674
 20
190.953138
 30
0.0
 11
423.070674
 21
174.72804
 31
0.0
  0
LINE
  8
SUNPOU
  5
2F9
 10
393.070674
 20
175.97804
 30
0.0
 11
423.070674
 21
175.97804
 31
0.0
  0
POINT
  8
SUNPOU
  5
2FD
 10
423.070674
 20
175.97804
 30
0.0
  0
LINE
  8
SUNPOU
  5
354
 10
153.223197
 20
323.441237
 30
0.0
 11
129.598197
 21
323.441237
 31
0.0
  0
LINE
  8
SUNPOU
  5
356
 10
130.848197
 20
323.441237
 30
0.0
 11
130.848197
 21
239.441205
 31
0.0
  0
LINE
  8
PANEL
  6
CONTINUOUS
  5
3CD
 10
145.848197
 20
89.441205
 30
0.0
 11
145.848197
 21
157.441235
 31
0.0
  0
LINE
  8
PANEL
  6
CONTINUOUS
  5
3CE
 10
146.448294
 20
89.441205
 30
0.0
 11
146.448294
 21
157.441235
 31
0.0
  0
ARC
  8
PANEL
  6
CONTINUOUS
  5
3E1
 10
153.848197
 20
89.441205
 30
0.0
 40
7.399994
 50
180.0
 51
299.99982
  0
ARC
  8
PANEL
  6
CONTINUOUS
  5
3E2
 10
153.848197
 20
89.441205
 30
0.0
 40
8.0
 50
180.0
 51
300.000121
  0
LINE
  8
PANEL
  6
CONTINUOUS
  5
3EC
 10
157.548148
 20
83.032727
 30
0.0
 11
162.048148
 21
85.63078
 31
0.0
  0
LINE
  8
PANEL
  6
CONTINUOUS
  5
3EE
 10
157.848197
 20
82.513074
 30
0.0
 11
162.348197
 21
85.111157
 31
0.0
  0
LINE
  8
PANEL
  6
CONTINUOUS
  5
3F0
 10
162.048148
 20
85.630811
 30
0.0
 11
162.348197
 21
85.111157
 31
0.0
  0
LINE
  8
PANEL
  6
CONTINUOUS
  5
3F2
 10
145.848197
 20
247.441205
 30
0.0
 11
145.848197
 21
315.441235
 31
0.0
  0
LINE
  8
PANEL
  6
CONTINUOUS
  5
3F3
 10
146.448294
 20
247.441205
 30
0.0
 11
146.448294
 21
315.441235
 31
0.0
  0
ARC
  8
PANEL
  6
CONTINUOUS
  5
3F5
 10
153.848197
 20
247.441205
 30
0.0
 40
8.0
 50
180.0
 51
300.000121
  0
LINE
  8
PANEL
  6
CONTINUOUS
  5
3F6
 10
162.048148
 20
243.630811
 30
0.0
 11
162.348197
 21
243.111157
 31
0.0
  0
LINE
  8
PANEL
  6
CONTINUOUS
  5
3F8
 10
157.548148
 20
241.032727
 30
0.0
 11
162.048148
 21
243.63078
 31
0.0
  0
ARC
  8
PANEL
  6
CONTINUOUS
  5
3F9
 10
153.848197
 20
247.441205
 30
0.0
 40
7.399994
 50
180.0
 51
299.99982
  0
ARC
  8
PANEL
  6
CONTINUOUS
  5
3FB
 10
153.848197
 20
157.441235
 30
0.0
 40
7.400005
 50
60.000594
 51
180.0
  0
ARC
  8
PANEL
  6
CONTINUOUS
  5
3FC
 10
153.848197
 20
157.441235
 30
0.0
 40
8.000002
 50
60.000259
 51
180.0
  0
LINE
  8
PANEL
  6
CONTINUOUS
  5
400
 10
157.848197
 20
164.369458
 30
0.0
 11
162.348197
 21
161.771375
 31
0.0
  0
LINE
  8
PANEL
  6
CONTINUOUS
  5
401
 10
157.848197
 20
240.513074
 30
0.0
 11
162.348197
 21
243.111157
 31
0.0
  0
LINE
  8
PANEL
  6
CONTINUOUS
  5
402
 10
157.548148
 20
163.849805
 30
0.0
 11
162.048148
 21
161.251721
 31
0.0
  0
LINE
  8
PANEL
  6
CONTINUOUS
  5
405
 10
162.048148
 20
161.251721
 30
0.0
 11
162.348197
 21
161.771375
 31
0.0
  0
ARC
  8
PANEL
  6
CONTINUOUS
  5
409
 10
153.848197
 20
315.441235
 30
0.0
 40
7.400005
 50
60.000594
 51
180.0
  0
ARC
  8
PANEL
  6
CONTINUOUS
  5
40B
 10
153.848197
 20
315.441235
 30
0.0
 40
8.000002
 50
60.000259
 51
180.0
  0
LINE
  8
PANEL
  6
CONTINUOUS
  5
40E
 10
157.548148
 20
321.849805
 30
0.0
 11
162.048148
 21
319.251721
 31
0.0
  0
LINE
  8
PANEL
  6
CONTINUOUS
  5
40F
 10
157.848197
 20
322.369458
 30
0.0
 11
162.348197
 21
319.771375
 31
0.0
  0
LINE
  8
PANEL
  6
CONTINUOUS
  5
411
 10
162.048148
 20
319.251721
 30
0.0
 11
162.348197
 21
319.771375
 31
0.0
  0
LINE
  8
SUNPOU
  5
4C5
 10
153.223197
 20
239.441205
 30
0.0
 11
129.598197
 21
239.441205
 31
0.0
  0
TEXT
  8
WAKU
  5
4CC
 10
15.0
 20
8.0
 30
0.0
 40
12.0
  1
ビルパネ　BW-158
  0
LINE
  8
STRINGA
  6
CONTINUOUS
  5
59B
 10
193.848197
 20
44.44122
 30
0.0
 11
193.848197
 21
360.441342
 31
0.0
  0
LINE
  8
STRINGA
  6
CONTINUOUS
  5
59C
 10
146.448296
 20
155.037013
 30
0.0
 11
146.448293
 21
91.845515
 31
0.0
  0
ARC
  8
STRINGA
  6
CONTINUOUS
  5
59D
 10
155.948293
 20
91.845515
 30
0.0
 40
9.5
 50
180.0
 51
269.290263
  0
ARC
  8
STRINGA
  6
CONTINUOUS
  5
59E
 10
164.448294
 20
84.94122
 30
0.0
 40
9.0
 50
0.0
 51
196.758212
  0
LINE
  8
STRINGA
  6
CONTINUOUS
  5
59F
 10
173.448294
 20
44.44122
 30
0.0
 11
173.448294
 21
84.94122
 31
0.0
  0
LINE
  8
STRINGA
  6
CONTINUOUS
  5
5A0
 10
146.448296
 20
313.037013
 30
0.0
 11
146.448293
 21
249.845515
 31
0.0
  0
LINE
  8
STRINGA
  6
CONTINUOUS
  5
5A1
 10
173.448294
 20
202.44122
 30
0.0
 11
173.448294
 21
242.94122
 31
0.0
  0
ARC
  8
STRINGA
  6
CONTINUOUS
  5
5A2
 10
164.448294
 20
161.94122
 30
0.0
 40
8.999994
 50
163.241167
 51
0.0
  0
LINE
  8
STRINGA
  6
CONTINUOUS
  5
5A3
 10
173.448294
 20
161.94122
 30
0.0
 11
173.448294
 21
202.441342
 31
0.0
  0
ARC
  8
STRINGA
  6
CONTINUOUS
  5
5A4
 10
155.948293
 20
155.037013
 30
0.0
 40
9.499996
 50
90.709737
 51
180.0
  0
ARC
  8
STRINGA
  6
CONTINUOUS
  5
5A5
 10
164.448294
 20
242.94122
 30
0.0
 40
9.0
 50
0.0
 51
196.758212
  0
ARC
  8
STRINGA
  6
CONTINUOUS
  5
5A6
 10
155.948293
 20
249.845515
 30
0.0
 40
9.5
 50
180.0
 51
269.290263
  0
LINE
  8
STRINGA
  6
CONTINUOUS
  5
5A7
 10
173.448294
 20
319.94122
 30
0.0
 11
173.448294
 21
360.441342
 31
0.0
  0
ARC
  8
STRINGA
  6
CONTINUOUS
  5
5A8
 10
164.448294
 20
319.94122
 30
0.0
 40
8.999994
 50
163.241167
 51
0.0
  0
ARC
  8
STRINGA
  6
CONTINUOUS
  5
5A9
 10
155.948293
 20
313.037013
 30
0.0
 40
9.499996
 50
90.709737
 51
180.0
  0
LINE
  8
SUNPOU
  5
5CD
 10
193.848197
 20
361.066342
 30
0.0
 11
193.848197
 21
376.69122
 31
0.0
  0
LINE
  8
SUNPOU
  5
5CE
 10
145.848195
 20
316.066235
 30
0.0
 11
145.848195
 21
376.69122
 31
0.0
  0
LINE
  8
SUNPOU
  5
5CF
 10
193.848197
 20
375.44122
 30
0.0
 11
145.848195
 21
375.44122
 31
0.0
  0
POINT
  8
SUNPOU
  5
5D3
 10
145.848195
 20
375.44122
 30
0.0
  0
LINE
  8
SUNPOU
  5
5D4
 10
145.223197
 20
281.44122
 30
0.0
 11
114.598197
 21
281.44122
 31
0.0
  0
LINE
  8
SUNPOU
  5
5D5
 10
145.223197
 20
123.44122
 30
0.0
 11
114.598197
 21
123.44122
 31
0.0
  0
LINE
  8
SUNPOU
  5
5D6
 10
115.848197
 20
281.44122
 30
0.0
 11
115.848197
 21
123.44122
 31
0.0
  0
POINT
  8
SUNPOU
  5
5DA
 10
115.848197
 20
123.44122
 30
0.0
  0
LINE
  8
SUNPOU
  5
5DB
 10
153.223197
 20
239.441205
 30
0.0
 11
129.598197
 21
239.441205
 31
0.0
  0
LINE
  8
SUNPOU
  5
5DC
 10
153.223197
 20
165.441237
 30
0.0
 11
129.598197
 21
165.441237
 31
0.0
  0
LINE
  8
SUNPOU
  5
5DD
 10
130.848197
 20
239.441205
 30
0.0
 11
130.848197
 21
165.441237
 31
0.0
  0
POINT
  8
SUNPOU
  5
5E1
 10
130.848197
 20
165.441237
 30
0.0
  0
ARC
  8
PANEL
  6
CONTINUOUS
  5
629
 10
165.448292
 20
79.049039
 30
0.0
 40
7.4
 50
0.0
 51
119.999729
  0
ARC
  8
PANEL
  6
CONTINUOUS
  5
62A
 10
165.448292
 20
79.049039
 30
0.0
 40
8.0
 50
0.0
 51
120.000229
  0
LINE
  8
PANEL
  6
CONTINUOUS
  5
62B
 10
172.848195
 20
79.049039
 30
0.0
 11
172.848195
 21
44.44119
 31
0.0
  0
LINE
  8
PANEL
  6
CONTINUOUS
  5
62C
 10
173.448292
 20
79.049039
 30
0.0
 11
173.448292
 21
44.44119
 31
0.0
  0
LINE
  8
PANEL
  6
CONTINUOUS
  5
62D
 10
161.448292
 20
85.977261
 30
0.0
 11
156.948292
 21
83.379117
 31
0.0
  0
LINE
  8
PANEL
  6
CONTINUOUS
  5
62F
 10
161.748341
 20
85.45773
 30
0.0
 11
157.248341
 21
82.859586
 31
0.0
  0
LINE
  8
PANEL
  6
CONTINUOUS
  5
631
 10
157.248341
 20
82.859586
 30
0.0
 11
156.948292
 21
83.379117
 31
0.0
  0
LINE
  8
PANEL
  6
CONTINUOUS
  5
635
 10
173.448292
 20
237.049039
 30
0.0
 11
173.448292
 21
167.833249
 31
0.0
  0
LINE
  8
PANEL
  6
CONTINUOUS
  5
636
 10
172.848195
 20
237.011096
 30
0.0
 11
172.848195
 21
167.833249
 31
0.0
  0
ARC
  8
PANEL
  6
CONTINUOUS
  5
637
 10
165.448292
 20
167.833249
 30
0.0
 40
8.0
 50
240.000259
 51
0.0
  0
ARC
  8
PANEL
  6
CONTINUOUS
  5
638
 10
165.448292
 20
167.833249
 30
0.0
 40
7.4
 50
240.000535
 51
0.0
  0
LINE
  8
PANEL
  6
CONTINUOUS
  5
63B
 10
157.248341
 20
164.022946
 30
0.0
 11
156.948292
 21
163.503171
 31
0.0
  0
LINE
  8
PANEL
  6
CONTINUOUS
  5
63F
 10
161.448292
 20
160.905026
 30
0.0
 11
156.948292
 21
163.503171
 31
0.0
  0
LINE
  8
PANEL
  6
CONTINUOUS
  5
640
 10
161.748341
 20
161.424802
 30
0.0
 11
157.248341
 21
164.022946
 31
0.0
  0
ARC
  8
PANEL
  6
CONTINUOUS
  5
641
 10
165.448292
 20
237.049039
 30
0.0
 40
7.4
 50
359.706202
 51
119.999729
  0
ARC
  8
PANEL
  6
CONTINUOUS
  5
642
 10
165.448292
 20
237.049039
 30
0.0
 40
8.0
 50
0.0
 51
120.000229
  0
LINE
  8
PANEL
  6
CONTINUOUS
  5
645
 10
157.248341
 20
240.859586
 30
0.0
 11
156.948292
 21
241.379117
 31
0.0
  0
LINE
  8
PANEL
  6
CONTINUOUS
  5
646
 10
161.748341
 20
243.45773
 30
0.0
 11
157.248341
 21
240.859586
 31
0.0
  0
LINE
  8
PANEL
  6
CONTINUOUS
  5
647
 10
161.448292
 20
243.977261
 30
0.0
 11
156.948292
 21
241.379117
 31
0.0
  0
LINE
  8
PANEL
  6
CONTINUOUS
  5
64B
 10
173.448292
 20
360.441312
 30
0.0
 11
173.448292
 21
325.833249
 31
0.0
  0
LINE
  8
PANEL
  6
CONTINUOUS
  5
64C
 10
172.848195
 20
360.441312
 30
0.0
 11
172.848195
 21
325.833249
 31
0.0
  0
ARC
  8
PANEL
  6
CONTINUOUS
  5
64D
 10
165.448292
 20
325.833249
 30
0.0
 40
8.0
 50
240.000259
 51
0.0
  0
ARC
  8
PANEL
  6
CONTINUOUS
  5
64E
 10
165.448292
 20
325.833249
 30
0.0
 40
7.4
 50
240.000535
 51
0.0
  0
LINE
  8
PANEL
  6
CONTINUOUS
  5
651
 10
157.248341
 20
322.022946
 30
0.0
 11
156.948292
 21
321.503171
 31
0.0
  0
LINE
  8
PANEL
  6
CONTINUOUS
  5
652
 10
161.448292
 20
318.905026
 30
0.0
 11
156.948292
 21
321.503171
 31
0.0
  0
LINE
  8
PANEL
  6
CONTINUOUS
  5
653
 10
161.748341
 20
319.424802
 30
0.0
 11
157.248341
 21
322.022946
 31
0.0
  0
LINE
  8
PANEL
  6
CONTINUOUS
  5
65A
 10
458.070662
 20
218.57804
 30
0.0
 11
358.070685
 21
218.57804
 31
0.0
  0
LINE
  8
PANEL
  6
DASHED2
  5
65B
 10
458.070662
 20
217.97804
 30
0.0
 11
358.070685
 21
217.97804
 31
0.0
  0
TEXT
  8
SUNPOU
  5
694
 10
130.223197
 20
197.441221
 30
0.0
 40
6.0
  1
74
 50
90.0
  0
TEXT
  8
SUNPOU
  5
695
 10
115.223197
 20
195.44122
 30
0.0
 40
6.0
  1
158
 50
90.0
  0
TEXT
  8
SUNPOU
  5
696
 10
130.223197
 20
276.441221
 30
0.0
 40
6.0
  1
84
 50
90.0
  0
TEXT
  8
SUNPOU
  5
697
 10
164.848196
 20
376.06622
 30
0.0
 40
6.0
  1
48
  0
TEXT
  8
SUNPOU
  5
698
 10
403.570674
 20
176.60304
 30
0.0
 40
6.0
  1
30
  0
TEXT
  8
SUNPOU
  5
699
 10
342.445685
 20
209.978044
 30
0.0
 40
6.0
  1
48
 50
90.0
  0
TEXT
  8
SUNPOU
  5
69A
 10
404.070674
 20
254.603047
 30
0.0
 40
6.0
  1
16
  0
ENDSEC
  0
EOF
