  0
SECTION
  2
HEADER
  9
$ACADVER
  1
AC1006
  9
$INSBASE
 10
0.0
 20
0.0
 30
0.0
  9
$EXTMIN
 10
0.0
 20
0.0
  9
$EXTMAX
 10
570.0
 20
396.0
  9
$LIMMIN
 10
0.0
 20
0.0
  9
$LIMMAX
 10
570.0
 20
396.0
  9
$VIEWCTR
 10
6.591288
 20
4.579184
  9
$VIEWSIZE
 40
9.158369
  9
$SNAPMODE
 70
     0
  9
$SNAPUNIT
 10
1.0
 20
1.0
  9
$SNAPBASE
 10
0.0
 20
0.0
  9
$SNAPANG
 50
0.0
  9
$SNAPSTYLE
 70
     0
  9
$SNAPISOPAIR
 70
     0
  9
$GRIDMODE
 70
     0
  9
$GRIDUNIT
 10
0.0
 20
0.0
  9
$ORTHOMODE
 70
     1
  9
$REGENMODE
 70
     1
  9
$FILLMODE
 70
     1
  9
$QTEXTMODE
 70
     0
  9
$MIRRTEXT
 70
     1
  9
$DRAGMODE
 70
     2
  9
$LTSCALE
 40
1.333333
  9
$OSMODE
 70
    43
  9
$ATTMODE
 70
     1
  9
$TEXTSIZE
 40
5.0
  9
$TRACEWID
 40
1.0
  9
$TEXTSTYLE
  7
STANDARD
  9
$CLAYER
  8
SUNPOU
  9
$CELTYPE
  6
ByLayer
  9
$CECOLOR
 62
   256
  9
$DIMSCALE
 40
1.0
  9
$DIMASZ
 40
2.5
  9
$DIMEXO
 40
0.625
  9
$DIMDLI
 40
3.75
  9
$DIMRND
 40
0.0
  9
$DIMDLE
 40
0.0
  9
$DIMEXE
 40
1.25
  9
$DIMTP
 40
0.0
  9
$DIMTM
 40
0.0
  9
$DIMTXT
 40
6.0
  9
$DIMCEN
 40
2.5
  9
$DIMTSZ
 40
0.0
  9
$DIMTOL
 70
     0
  9
$DIMLIM
 70
     0
  9
$DIMTIH
 70
     0
  9
$DIMTOH
 70
     0
  9
$DIMSE1
 70
     0
  9
$DIMSE2
 70
     0
  9
$DIMTAD
 70
     1
  9
$DIMZIN
 70
     8
  9
$DIMBLK
  1

  9
$DIMASO
 70
     1
  9
$DIMSHO
 70
     1
  9
$DIMPOST
  1

  9
$DIMAPOST
  1

  9
$DIMALT
 70
     0
  9
$DIMALTD
 70
     4
  9
$DIMALTF
 40
0.0394
  9
$DIMLFAC
 40
1.0
  9
$DIMTOFL
 70
     1
  9
$DIMTVP
 40
0.0
  9
$DIMTIX
 70
     0
  9
$DIMSOXD
 70
     0
  9
$DIMSAH
 70
     1
  9
$DIMBLK1
  1
_NONE
  9
$DIMBLK2
  1
_NONE
  9
$LUNITS
 70
     2
  9
$LUPREC
 70
     4
  9
$AXISMODE
 70
     0
  9
$AXISUNIT
 10
0.0
 20
0.0
  9
$SKETCHINC
 40
1.0
  9
$FILLETRAD
 40
13.333333
  9
$AUNITS
 70
     0
  9
$AUPREC
 70
     0
  9
$MENU
  1
.
  9
$ELEVATION
 40
0.0
  9
$THICKNESS
 40
0.0
  9
$LIMCHECK
 70
     0
  9
$BLIPMODE
 70
     0
  9
$CHAMFERA
 40
13.333333
  9
$CHAMFERB
 40
13.333333
  9
$SKPOLY
 70
     1
  9
$TDCREATE
 40
2451654.610702639
  9
$TDUPDATE
 40
0.000000000
  9
$TDINDWG
 40
0.3078764931
  9
$TDUSRTIMER
 40
0.0000000000
  9
$USRTIMER
 70
     1
  9
$ANGBASE
 50
0.0
  9
$ANGDIR
 70
     0
  9
$PDMODE
 70
     0
  9
$PDSIZE
 40
0.0
  9
$PLINEWID
 40
0.0
  9
$COORDS
 70
     0
  9
$SPLFRAME
 70
     0
  9
$SPLINETYPE
 70
     6
  9
$SPLINESEGS
 70
     8
  9
$ATTDIA
 70
     0
  9
$ATTREQ
 70
     1
  9
$HANDLING
 70
 10241
  9
$HANDSEED
  5
9D3
  9
$SURFTAB1
 70
     6
  9
$SURFTAB2
 70
     6
  9
$SURFTYPE
 70
     6
  9
$SURFU
 70
     6
  9
$SURFV
 70
     6
  9
$FLATLAND
 70
     0
  9
$UCSNAME
  2

  9
$UCSORG
 10
0.0
 20
0.0
 30
0.0
  9
$UCSXDIR
 10
1.0
 20
0.0
 30
0.0
  9
$UCSYDIR
 10
0.0
 20
1.0
 30
0.0
  9
$USERI1
 70
     0
  9
$USERI2
 70
     0
  9
$USERI3
 70
     0
  9
$USERI4
 70
     0
  9
$USERI5
 70
     0
  9
$USERR1
 40
0.0
  9
$USERR2
 40
0.0
  9
$USERR3
 40
0.0
  9
$USERR4
 40
0.0
  9
$USERR5
 40
0.0
  9
$WORLDVIEW
 70
     1
  0
ENDSEC
  0
SECTION
  2
TABLES
  0
TABLE
  2
VPORT
 70
     1
  0
VPORT
  2
*ACTIVE
 70
     0
 10
0.0
 20
0.0
 11
1.0
 21
1.0
 12
285.000004
 22
198.802086
 13
0.0
 23
0.0
 14
13.0
 24
13.0
 15
13.0
 25
13.0
 16
0.0
 26
0.0
 36
1.0
 17
0.0
 27
0.0
 37
0.0
 40
401.408313
 41
1.595494
 42
50.0
 43
0.0
 44
0.0
 50
0.0
 51
0.0
 71
     0
 72
   100
 73
     1
 74
     0
 75
     0
 76
     0
 77
     0
 78
     0
  0
ENDTAB
  0
TABLE
  2
LTYPE
 70
     3
  0
LTYPE
  2
CONTINUOUS
 70
     0
  3
Solid line
 72
    65
 73
     0
 40
0.0
  0
LTYPE
  2
HIDDEN2
 70
     0
  3
Hidden (.5x) _ _ _ _ _ _ _ _ _ _ _ _ _ _ _ _ _
 72
    65
 73
     2
 40
4.7625
 49
3.175
 49
-1.5875
  0
LTYPE
  2
DASHED2
 70
     0
  3
Dashed (.5x) _ _ _ _ _ _ _ _ _ _ _ _ _ _ _ _ _
 72
    65
 73
     2
 40
9.525
 49
6.35
 49
-3.175
  0
ENDTAB
  0
TABLE
  2
LAYER
 70
     6
  0
LAYER
  2
0
 70
     0
 62
     7
  6
CONTINUOUS
  0
LAYER
  2
STRINGA
 70
     0
 62
     7
  6
CONTINUOUS
  0
LAYER
  2
WAKU
 70
     0
 62
     4
  6
CONTINUOUS
  0
LAYER
  2
PANEL
 70
     0
 62
     6
  6
CONTINUOUS
  0
LAYER
  2
SUNPOU
 70
     0
 62
     3
  6
CONTINUOUS
  0
LAYER
  2
DEFPOINTS
 70
     0
 62
     7
  6
CONTINUOUS
  0
ENDTAB
  0
TABLE
  2
STYLE
 70
     1
  0
STYLE
  2
STANDARD
 70
     0
 40
6.0
 41
1.0
 50
0.0
 71
     0
 42
5.0
  3
txt.shx
  4
bigfont.shx
  0
ENDTAB
  0
TABLE
  2
VIEW
 70
     0
  0
ENDTAB
  0
TABLE
  2
UCS
 70
     0
  0
ENDTAB
  0
ENDSEC
  0
SECTION
  2
BLOCKS
  0
BLOCK
  8
0
  2
$MODEL_SPACE
 70
     0
 10
0.0
 20
0.0
  0
ENDBLK
  8
0
  0
BLOCK
  8
0
  2
$PAPER_SPACE
 70
     0
 10
0.0
 20
0.0
  0
ENDBLK
  8
0
  0
BLOCK
  8
0
  2
_NONE
 70
     0
 10
0.0
 20
0.0
  0
CIRCLE
  8
0
  6
ByBlock
 62
     0
 10
0.0
 20
0.0
 30
0.0
 40
0.25
  0
ENDBLK
  8
0
  0
ENDSEC
  0
SECTION
  2
ENTITIES
  0
POLYLINE
  8
WAKU
  5
252
 66
     1
 10
0.0
 20
0.0
 30
0.0
 70
     1
  0
VERTEX
  8
WAKU
  5
9CD
 10
0.0
 20
0.0
 30
0.0
  0
VERTEX
  8
WAKU
  5
9CE
 10
570.0
 20
0.0
 30
0.0
  0
VERTEX
  8
WAKU
  5
9CF
 10
570.0
 20
396.0
 30
0.0
  0
VERTEX
  8
WAKU
  5
9D0
 10
0.0
 20
396.0
 30
0.0
  0
SEQEND
  8
WAKU
  5
9D1
  0
LINE
  8
WAKU
  5
4F9
 10
5.0
 20
391.0
 30
0.0
 11
565.0
 21
391.0
 31
0.0
  0
LINE
  8
WAKU
  6
CONTINUOUS
  5
4FA
 10
5.0
 20
5.0
 30
0.0
 11
565.0
 21
5.0
 31
0.0
  0
LINE
  8
WAKU
  6
CONTINUOUS
  5
4FB
 10
5.0
 20
25.0
 30
0.0
 11
565.0
 21
25.0
 31
0.0
  0
LINE
  8
WAKU
  5
500
 10
5.0
 20
5.0
 30
0.0
 11
5.0
 21
391.0
 31
0.0
  0
TEXT
  8
WAKU
  5
501
 10
15.0
 20
8.0
 30
0.0
 40
12.0
  1
ビルパネ　B-8645
  0
LINE
  8
WAKU
  6
CONTINUOUS
  5
502
 10
195.0
 20
5.0
 30
0.0
 11
195.0
 21
25.0
 31
0.0
  0
LINE
  8
WAKU
  5
543
 10
565.0
 20
391.0
 30
0.0
 11
565.0
 21
5.0
 31
0.0
  0
LINE
  8
SUNPOU
  5
5D7
 10
400.070689
 20
256.60301
 30
0.0
 11
400.070689
 21
272.22801
 31
0.0
  0
LINE
  8
SUNPOU
  5
5D8
 10
416.070689
 20
256.60301
 30
0.0
 11
416.070689
 21
272.22801
 31
0.0
  0
LINE
  8
SUNPOU
  5
5D9
 10
400.070689
 20
270.97801
 30
0.0
 11
416.070689
 21
270.97801
 31
0.0
  0
POINT
  8
SUNPOU
  5
5DD
 10
416.070689
 20
270.97801
 30
0.0
  0
LINE
  8
STRINGA
  6
HIDDEN2
  5
80D
 10
427.080642
 20
171.437251
 30
0.0
 11
418.188591
 21
233.97801
 31
0.0
  0
LINE
  8
STRINGA
  6
HIDDEN2
  5
80E
 10
428.070685
 20
171.578016
 30
0.0
 11
419.198648
 21
233.97801
 31
0.0
  0
LINE
  8
STRINGA
  6
HIDDEN2
  5
80F
 10
389.060729
 20
171.437251
 30
0.0
 11
397.95278
 21
233.97801
 31
0.0
  0
LINE
  8
STRINGA
  6
HIDDEN2
  5
810
 10
388.070685
 20
171.578016
 30
0.0
 11
396.942723
 21
233.97801
 31
0.0
  0
LINE
  8
PANEL
  6
DASHED2
  5
811
 10
458.070678
 20
171.578016
 30
0.0
 11
358.070678
 21
171.578016
 31
0.0
  0
LINE
  8
PANEL
  6
CONTINUOUS
  5
812
 10
458.070678
 20
170.97801
 30
0.0
 11
358.070678
 21
170.97801
 31
0.0
  0
LINE
  8
STRINGA
  6
HIDDEN2
  5
813
 10
388.070685
 20
171.578016
 30
0.0
 11
389.060729
 21
171.437251
 31
0.0
  0
LINE
  8
STRINGA
  6
HIDDEN2
  5
814
 10
428.070685
 20
171.578016
 30
0.0
 11
427.080642
 21
171.437251
 31
0.0
  0
LINE
  8
PANEL
  6
DASHED2
  5
815
 10
358.070678
 20
233.378004
 30
0.0
 11
458.070678
 21
233.378004
 31
0.0
  0
LINE
  8
PANEL
  6
CONTINUOUS
  5
816
 10
358.070678
 20
233.97801
 30
0.0
 11
458.070678
 21
233.97801
 31
0.0
  0
LINE
  8
STRINGA
  6
CONTINUOUS
  5
817
 10
399.643104
 20
252.970685
 30
0.0
 11
396.942723
 21
233.97801
 31
0.0
  0
LINE
  8
STRINGA
  6
CONTINUOUS
  5
818
 10
400.633147
 20
252.829921
 30
0.0
 11
397.95278
 21
233.97801
 31
0.0
  0
LINE
  8
STRINGA
  6
CONTINUOUS
  5
819
 10
415.508224
 20
252.829921
 30
0.0
 11
418.188591
 21
233.97801
 31
0.0
  0
LINE
  8
STRINGA
  6
CONTINUOUS
  5
81A
 10
416.498267
 20
252.970685
 30
0.0
 11
419.198648
 21
233.97801
 31
0.0
  0
ARC
  8
STRINGA
  6
CONTINUOUS
  5
81B
 10
403.108255
 20
252.47801
 30
0.0
 40
2.5
 50
90.0
 51
171.907917
  0
ARC
  8
STRINGA
  6
CONTINUOUS
  5
81C
 10
403.108255
 20
252.47801
 30
0.0
 40
3.5
 50
90.0
 51
171.907917
  0
ARC
  8
STRINGA
  6
CONTINUOUS
  5
81D
 10
413.033116
 20
252.47801
 30
0.0
 40
3.5
 50
8.092083
 51
90.0
  0
LINE
  8
STRINGA
  6
CONTINUOUS
  5
81E
 10
403.108255
 20
254.97801
 30
0.0
 11
413.033116
 21
254.97801
 31
0.0
  0
LINE
  8
STRINGA
  6
CONTINUOUS
  5
81F
 10
403.108255
 20
255.97801
 30
0.0
 11
413.033116
 21
255.97801
 31
0.0
  0
ARC
  8
STRINGA
  6
CONTINUOUS
  5
820
 10
413.033116
 20
252.47801
 30
0.0
 40
2.5
 50
8.092083
 51
90.0
  0
LINE
  8
SUNPOU
  5
83C
 10
402.483255
 20
255.97801
 30
0.0
 11
341.820685
 21
255.97801
 31
0.0
  0
LINE
  8
SUNPOU
  5
83D
 10
357.445678
 20
170.97801
 30
0.0
 11
341.820685
 21
170.97801
 31
0.0
  0
LINE
  8
SUNPOU
  5
83E
 10
343.070685
 20
255.97801
 30
0.0
 11
343.070685
 21
170.97801
 31
0.0
  0
POINT
  8
SUNPOU
  5
842
 10
343.070685
 20
170.97801
 30
0.0
  0
LINE
  8
SUNPOU
  5
843
 10
388.070685
 20
170.953016
 30
0.0
 11
388.070685
 21
154.72801
 31
0.0
  0
LINE
  8
SUNPOU
  5
844
 10
428.070685
 20
170.953016
 30
0.0
 11
428.070685
 21
154.72801
 31
0.0
  0
LINE
  8
SUNPOU
  5
845
 10
388.070685
 20
155.97801
 30
0.0
 11
428.070685
 21
155.97801
 31
0.0
  0
POINT
  8
SUNPOU
  5
849
 10
428.070685
 20
155.97801
 30
0.0
  0
ARC
  8
PANEL
  6
CONTINUOUS
  5
877
 10
116.848198
 20
92.293775
 30
0.0
 40
7.399991
 50
134.999958
 51
254.999557
  0
ARC
  8
PANEL
  6
CONTINUOUS
  5
878
 10
116.848198
 20
92.293775
 30
0.0
 40
8.000005
 50
135.00001
 51
254.99975
  0
LINE
  8
PANEL
  6
CONTINUOUS
  5
879
 10
119.951958
 20
83.801099
 30
0.0
 11
119.796441
 21
83.221265
 31
0.0
  0
LINE
  8
PANEL
  6
CONTINUOUS
  5
87A
 10
114.777398
 20
84.565992
 30
0.0
 11
119.796441
 21
83.221265
 31
0.0
  0
LINE
  8
PANEL
  6
CONTINUOUS
  5
87B
 10
119.951958
 20
83.801099
 30
0.0
 11
114.598443
 21
85.235426
 31
0.0
  0
LINE
  8
PANEL
  6
CONTINUOUS
  5
87C
 10
159.698784
 20
318.009441
 30
0.0
 11
111.615532
 21
269.926197
 31
0.0
  0
LINE
  8
PANEL
  6
CONTINUOUS
  5
87D
 10
159.274468
 20
318.433758
 30
0.0
 11
111.191216
 21
270.350513
 31
0.0
  0
ARC
  8
PANEL
  6
CONTINUOUS
  5
87E
 10
164.931449
 20
140.37702
 30
0.0
 40
7.399989
 50
15.000156
 51
134.999927
  0
ARC
  8
PANEL
  6
CONTINUOUS
  5
87F
 10
164.931449
 20
140.37702
 30
0.0
 40
8.000009
 50
14.999789
 51
134.99999
  0
ARC
  8
PANEL
  6
CONTINUOUS
  5
880
 10
164.931449
 20
226.57702
 30
0.0
 40
8.000009
 50
14.999789
 51
134.99999
  0
ARC
  8
PANEL
  6
CONTINUOUS
  5
881
 10
164.931449
 20
226.57702
 30
0.0
 40
7.399989
 50
15.000156
 51
134.999927
  0
LINE
  8
PANEL
  6
CONTINUOUS
  5
882
 10
159.698784
 20
231.809441
 30
0.0
 11
111.615532
 21
183.726197
 31
0.0
  0
LINE
  8
PANEL
  6
CONTINUOUS
  5
883
 10
159.274468
 20
232.233758
 30
0.0
 11
111.191216
 21
184.150513
 31
0.0
  0
LINE
  8
PANEL
  6
CONTINUOUS
  5
884
 10
159.274468
 20
146.033758
 30
0.0
 11
111.191216
 21
97.950513
 31
0.0
  0
LINE
  8
PANEL
  6
CONTINUOUS
  5
885
 10
159.698784
 20
145.609441
 30
0.0
 11
111.615532
 21
97.526197
 31
0.0
  0
ARC
  8
PANEL
  6
CONTINUOUS
  5
886
 10
116.848198
 20
178.493775
 30
0.0
 40
8.000005
 50
135.00001
 51
254.99975
  0
ARC
  8
PANEL
  6
CONTINUOUS
  5
887
 10
116.848198
 20
178.493775
 30
0.0
 40
7.399991
 50
134.999958
 51
254.999557
  0
LINE
  8
PANEL
  6
CONTINUOUS
  5
888
 10
119.951958
 20
170.001099
 30
0.0
 11
114.598443
 21
171.435426
 31
0.0
  0
LINE
  8
PANEL
  6
CONTINUOUS
  5
889
 10
114.777398
 20
170.765992
 30
0.0
 11
119.796441
 21
169.421265
 31
0.0
  0
LINE
  8
PANEL
  6
CONTINUOUS
  5
88A
 10
119.951958
 20
170.001099
 30
0.0
 11
119.796441
 21
169.421265
 31
0.0
  0
ARC
  8
PANEL
  6
CONTINUOUS
  5
88B
 10
116.848198
 20
264.693775
 30
0.0
 40
8.000005
 50
135.00001
 51
254.99975
  0
ARC
  8
PANEL
  6
CONTINUOUS
  5
88C
 10
116.848198
 20
264.693775
 30
0.0
 40
7.399991
 50
134.999958
 51
254.999557
  0
LINE
  8
PANEL
  6
CONTINUOUS
  5
88D
 10
119.951958
 20
256.201099
 30
0.0
 11
119.796441
 21
255.621265
 31
0.0
  0
LINE
  8
PANEL
  6
CONTINUOUS
  5
88E
 10
119.951958
 20
256.201099
 30
0.0
 11
114.598443
 21
257.635426
 31
0.0
  0
LINE
  8
PANEL
  6
CONTINUOUS
  5
88F
 10
114.777398
 20
256.965992
 30
0.0
 11
119.796441
 21
255.621265
 31
0.0
  0
LINE
  8
PANEL
  6
CONTINUOUS
  5
890
 10
173.42388
 20
137.273016
 30
0.0
 11
171.989554
 21
142.626531
 31
0.0
  0
LINE
  8
PANEL
  6
CONTINUOUS
  5
891
 10
172.658743
 20
142.447332
 30
0.0
 11
174.00347
 21
137.428289
 31
0.0
  0
LINE
  8
PANEL
  6
CONTINUOUS
  5
892
 10
173.42388
 20
137.273016
 30
0.0
 11
174.00347
 21
137.428289
 31
0.0
  0
LINE
  8
PANEL
  6
CONTINUOUS
  5
895
 10
172.658743
 20
228.647332
 30
0.0
 11
174.00347
 21
223.628289
 31
0.0
  0
LINE
  8
PANEL
  6
CONTINUOUS
  5
896
 10
173.42388
 20
223.473016
 30
0.0
 11
174.00347
 21
223.628289
 31
0.0
  0
LINE
  8
PANEL
  6
CONTINUOUS
  5
897
 10
173.42388
 20
223.473016
 30
0.0
 11
171.989554
 21
228.826531
 31
0.0
  0
ARC
  8
PANEL
  6
CONTINUOUS
  5
898
 10
164.931449
 20
312.77702
 30
0.0
 40
7.399989
 50
15.000156
 51
134.999927
  0
ARC
  8
PANEL
  6
CONTINUOUS
  5
899
 10
164.931449
 20
312.77702
 30
0.0
 40
8.000009
 50
14.999789
 51
134.99999
  0
LINE
  8
PANEL
  6
CONTINUOUS
  5
89A
 10
173.42388
 20
309.673016
 30
0.0
 11
174.00347
 21
309.828289
 31
0.0
  0
LINE
  8
PANEL
  6
CONTINUOUS
  5
89B
 10
173.42388
 20
309.673016
 30
0.0
 11
171.989554
 21
315.026531
 31
0.0
  0
LINE
  8
PANEL
  6
CONTINUOUS
  5
89C
 10
172.658743
 20
314.847332
 30
0.0
 11
174.00347
 21
309.828289
 31
0.0
  0
LINE
  8
STRINGA
  6
CONTINUOUS
  5
8BF
 10
193.848197
 20
73.141187
 30
0.0
 11
193.848197
 21
331.741375
 31
0.0
  0
ARC
  8
STRINGA
  6
CONTINUOUS
  5
8C0
 10
120.033745
 20
92.509107
 30
0.0
 40
9.499989
 50
134.999935
 51
225.000065
  0
ARC
  8
STRINGA
  6
CONTINUOUS
  5
8C1
 10
137.348198
 20
57.003248
 30
0.0
 40
37.499992
 50
25.489505
 51
129.853087
  0
LINE
  8
STRINGA
  6
CONTINUOUS
  5
8C2
 10
157.998373
 20
316.308742
 30
0.0
 11
113.316247
 21
271.626621
 31
0.0
  0
ARC
  8
STRINGA
  6
CONTINUOUS
  5
8C3
 10
164.715872
 20
137.191229
 30
0.0
 40
9.499989
 50
45.952729
 51
134.999943
  0
ARC
  8
STRINGA
  6
CONTINUOUS
  5
8C4
 10
164.715872
 20
223.391229
 30
0.0
 40
9.499989
 50
45.952729
 51
134.999943
  0
ARC
  8
STRINGA
  6
CONTINUOUS
  5
8C5
 10
137.348198
 20
143.203248
 30
0.0
 40
37.499992
 50
25.489505
 51
129.853087
  0
ARC
  8
STRINGA
  6
CONTINUOUS
  5
8C6
 10
137.348198
 20
229.403248
 30
0.0
 40
37.499992
 50
25.489505
 51
129.853087
  0
LINE
  8
STRINGA
  6
CONTINUOUS
  5
8C7
 10
157.998373
 20
230.108742
 30
0.0
 11
113.316247
 21
185.426621
 31
0.0
  0
LINE
  8
STRINGA
  6
CONTINUOUS
  5
8C8
 10
157.998373
 20
143.908742
 30
0.0
 11
113.316247
 21
99.226621
 31
0.0
  0
ARC
  8
STRINGA
  6
CONTINUOUS
  5
8C9
 10
120.033745
 20
178.709107
 30
0.0
 40
9.499989
 50
134.999935
 51
225.000065
  0
ARC
  8
STRINGA
  6
CONTINUOUS
  5
8CA
 10
120.033745
 20
264.909107
 30
0.0
 40
9.499989
 50
134.999935
 51
225.000065
  0
LINE
  8
STRINGA
  6
CONTINUOUS
  5
8CB
 10
174.848197
 20
143.93952
 30
0.0
 11
174.848197
 21
136.769598
 31
0.0
  0
LINE
  8
STRINGA
  6
CONTINUOUS
  5
8CC
 10
169.348197
 20
142.039373
 30
0.0
 11
169.348197
 21
136.769598
 31
0.0
  0
ARC
  8
STRINGA
  6
CONTINUOUS
  5
8CD
 10
172.098197
 20
136.769598
 30
0.0
 40
2.75
 50
180.0
 51
0.0
  0
ARC
  8
STRINGA
  6
CONTINUOUS
  5
8CE
 10
137.348198
 20
143.93952
 30
0.0
 40
37.500004
 50
0.0
 51
24.249816
  0
LINE
  8
STRINGA
  6
CONTINUOUS
  5
8CF
 10
171.320853
 20
144.019598
 30
0.0
 11
169.348197
 21
142.039373
 31
0.0
  0
ARC
  8
STRINGA
  6
CONTINUOUS
  5
8D0
 10
137.348198
 20
230.13952
 30
0.0
 40
37.500004
 50
0.0
 51
24.249816
  0
LINE
  8
STRINGA
  6
CONTINUOUS
  5
8D2
 10
171.320853
 20
230.219598
 30
0.0
 11
169.348197
 21
228.239373
 31
0.0
  0
LINE
  8
STRINGA
  6
CONTINUOUS
  5
8D3
 10
169.348197
 20
228.239373
 30
0.0
 11
169.348197
 21
222.969598
 31
0.0
  0
LINE
  8
STRINGA
  6
CONTINUOUS
  5
8D4
 10
174.848197
 20
230.13952
 30
0.0
 11
174.848197
 21
222.969598
 31
0.0
  0
ARC
  8
STRINGA
  6
CONTINUOUS
  5
8D5
 10
172.098197
 20
222.969598
 30
0.0
 40
2.75
 50
180.0
 51
0.0
  0
ARC
  8
STRINGA
  6
CONTINUOUS
  5
8D6
 10
164.715872
 20
309.591229
 30
0.0
 40
9.499989
 50
45.952729
 51
134.999943
  0
ARC
  8
STRINGA
  6
CONTINUOUS
  5
8D7
 10
137.348198
 20
316.33952
 30
0.0
 40
37.500004
 50
0.0
 51
24.249816
  0
ARC
  8
STRINGA
  6
CONTINUOUS
  5
8D8
 10
172.098197
 20
309.169598
 30
0.0
 40
2.75
 50
180.0
 51
0.0
  0
LINE
  8
STRINGA
  6
CONTINUOUS
  5
8D9
 10
174.848197
 20
316.33952
 30
0.0
 11
174.848197
 21
309.169598
 31
0.0
  0
LINE
  8
STRINGA
  6
CONTINUOUS
  5
8DA
 10
169.348197
 20
314.439373
 30
0.0
 11
169.348197
 21
309.169598
 31
0.0
  0
LINE
  8
STRINGA
  6
CONTINUOUS
  5
8DB
 10
171.320853
 20
316.419598
 30
0.0
 11
169.348197
 21
314.439373
 31
0.0
  0
LINE
  8
SUNPOU
  5
920
 10
193.848197
 20
332.366375
 30
0.0
 11
193.848197
 21
347.991368
 31
0.0
  0
LINE
  8
SUNPOU
  5
921
 10
108.848194
 20
265.318775
 30
0.0
 11
108.848194
 21
347.991368
 31
0.0
  0
LINE
  8
SUNPOU
  5
922
 10
193.848197
 20
346.741368
 30
0.0
 11
108.848194
 21
346.741368
 31
0.0
  0
LINE
  8
SUNPOU
  5
927
 10
164.306449
 20
320.777028
 30
0.0
 11
77.598197
 21
320.777028
 31
0.0
  0
LINE
  8
SUNPOU
  5
928
 10
119.171441
 20
255.621265
 30
0.0
 11
77.598197
 21
255.621265
 31
0.0
  0
LINE
  8
SUNPOU
  5
929
 10
78.848197
 20
320.777028
 30
0.0
 11
78.848197
 21
255.621265
 31
0.0
  0
POINT
  8
SUNPOU
  5
92D
 10
78.848197
 20
255.621265
 30
0.0
  0
LINE
  8
SUNPOU
  5
92E
 10
118.546441
 20
255.621265
 30
0.0
 11
92.598197
 21
255.621265
 31
0.0
  0
LINE
  8
SUNPOU
  5
92F
 10
164.306449
 20
234.577028
 30
0.0
 11
92.598197
 21
234.577028
 31
0.0
  0
LINE
  8
SUNPOU
  5
930
 10
93.848197
 20
255.621265
 30
0.0
 11
93.848197
 21
234.577028
 31
0.0
  0
POINT
  8
SUNPOU
  5
934
 10
93.848197
 20
234.577028
 30
0.0
  0
LINE
  8
SUNPOU
  5
935
 10
119.171441
 20
255.621265
 30
0.0
 11
77.598197
 21
255.621265
 31
0.0
  0
LINE
  8
SUNPOU
  5
936
 10
119.171441
 20
169.421265
 30
0.0
 11
77.598197
 21
169.421265
 31
0.0
  0
LINE
  8
SUNPOU
  5
937
 10
78.848197
 20
255.621265
 30
0.0
 11
78.848197
 21
169.421265
 31
0.0
  0
POINT
  8
SUNPOU
  5
93B
 10
78.848197
 20
169.421265
 30
0.0
  0
ARC
  8
SUNPOU
  5
947
 10
108.848194
 20
268.007492
 30
0.0
 40
41.361617
 50
44.999995
 51
90.0
  0
POINT
  8
DEFPOINTS
  6
ByBlock
 62
     0
  5
94C
 10
111.191216
 20
270.350513
 30
0.0
  0
TEXT
  8
SUNPOU
  5
987
 10
78.223197
 20
203.521265
 30
0.0
 40
6.0
  1
86.2
 50
90.0
  0
TEXT
  8
SUNPOU
  5
988
 10
93.223197
 20
237.099147
 30
0.0
 40
6.0
  1
21.2
 50
90.0
  0
TEXT
  8
SUNPOU
  5
989
 10
78.223197
 20
283.199147
 30
0.0
 40
6.0
  1
65
 50
90.0
  0
TEXT
  8
SUNPOU
  5
98A
 10
116.046534
 20
310.471823
 30
0.0
 40
6.0
  1
45°
 50
337.500033
  0
TEXT
  8
SUNPOU
  5
98B
 10
146.348195
 20
347.366368
 30
0.0
 40
6.0
  1
85
  0
TEXT
  8
SUNPOU
  5
98C
 10
403.570685
 20
156.60301
 30
0.0
 40
6.0
  1
40
  0
TEXT
  8
SUNPOU
  5
98D
 10
342.445685
 20
208.47801
 30
0.0
 40
6.0
  1
85
 50
90.0
  0
TEXT
  8
SUNPOU
  5
98E
 10
404.070689
 20
271.60301
 30
0.0
 40
6.0
  1
16
  0
ENDSEC
  0
EOF
