  0
SECTION
  2
HEADER
  9
$ACADVER
  1
AC1006
  9
$INSBASE
 10
0.0
 20
0.0
 30
0.0
  9
$EXTMIN
 10
0.0
 20
0.0
  9
$EXTMAX
 10
570.0
 20
396.0
  9
$LIMMIN
 10
0.0
 20
0.0
  9
$LIMMAX
 10
570.0
 20
396.0
  9
$VIEWCTR
 10
6.591288
 20
4.579184
  9
$VIEWSIZE
 40
9.158369
  9
$SNAPMODE
 70
     0
  9
$SNAPUNIT
 10
1.0
 20
1.0
  9
$SNAPBASE
 10
0.0
 20
0.0
  9
$SNAPANG
 50
0.0
  9
$SNAPSTYLE
 70
     0
  9
$SNAPISOPAIR
 70
     0
  9
$GRIDMODE
 70
     0
  9
$GRIDUNIT
 10
0.0
 20
0.0
  9
$ORTHOMODE
 70
     1
  9
$REGENMODE
 70
     1
  9
$FILLMODE
 70
     1
  9
$QTEXTMODE
 70
     0
  9
$MIRRTEXT
 70
     1
  9
$DRAGMODE
 70
     2
  9
$LTSCALE
 40
1.333333
  9
$OSMODE
 70
    43
  9
$ATTMODE
 70
     1
  9
$TEXTSIZE
 40
5.0
  9
$TRACEWID
 40
1.0
  9
$TEXTSTYLE
  7
STANDARD
  9
$CLAYER
  8
SUNPOU
  9
$CELTYPE
  6
ByLayer
  9
$CECOLOR
 62
   256
  9
$DIMSCALE
 40
1.0
  9
$DIMASZ
 40
2.5
  9
$DIMEXO
 40
0.625
  9
$DIMDLI
 40
3.75
  9
$DIMRND
 40
0.0
  9
$DIMDLE
 40
0.0
  9
$DIMEXE
 40
1.25
  9
$DIMTP
 40
0.0
  9
$DIMTM
 40
0.0
  9
$DIMTXT
 40
6.0
  9
$DIMCEN
 40
2.5
  9
$DIMTSZ
 40
0.0
  9
$DIMTOL
 70
     0
  9
$DIMLIM
 70
     0
  9
$DIMTIH
 70
     0
  9
$DIMTOH
 70
     0
  9
$DIMSE1
 70
     0
  9
$DIMSE2
 70
     0
  9
$DIMTAD
 70
     1
  9
$DIMZIN
 70
     8
  9
$DIMBLK
  1

  9
$DIMASO
 70
     1
  9
$DIMSHO
 70
     1
  9
$DIMPOST
  1

  9
$DIMAPOST
  1

  9
$DIMALT
 70
     0
  9
$DIMALTD
 70
     4
  9
$DIMALTF
 40
0.0394
  9
$DIMLFAC
 40
1.0
  9
$DIMTOFL
 70
     1
  9
$DIMTVP
 40
0.0
  9
$DIMTIX
 70
     0
  9
$DIMSOXD
 70
     0
  9
$DIMSAH
 70
     1
  9
$DIMBLK1
  1
_NONE
  9
$DIMBLK2
  1
_NONE
  9
$LUNITS
 70
     2
  9
$LUPREC
 70
     4
  9
$AXISMODE
 70
     0
  9
$AXISUNIT
 10
0.0
 20
0.0
  9
$SKETCHINC
 40
1.0
  9
$FILLETRAD
 40
13.333333
  9
$AUNITS
 70
     0
  9
$AUPREC
 70
     0
  9
$MENU
  1
.
  9
$ELEVATION
 40
0.0
  9
$THICKNESS
 40
0.0
  9
$LIMCHECK
 70
     0
  9
$BLIPMODE
 70
     0
  9
$CHAMFERA
 40
13.333333
  9
$CHAMFERB
 40
13.333333
  9
$SKPOLY
 70
     1
  9
$TDCREATE
 40
2451654.610702639
  9
$TDUPDATE
 40
0.000000000
  9
$TDINDWG
 40
0.2982954745
  9
$TDUSRTIMER
 40
0.0000000000
  9
$USRTIMER
 70
     1
  9
$ANGBASE
 50
0.0
  9
$ANGDIR
 70
     0
  9
$PDMODE
 70
     0
  9
$PDSIZE
 40
0.0
  9
$PLINEWID
 40
0.0
  9
$COORDS
 70
     0
  9
$SPLFRAME
 70
     0
  9
$SPLINETYPE
 70
     6
  9
$SPLINESEGS
 70
     8
  9
$ATTDIA
 70
     0
  9
$ATTREQ
 70
     1
  9
$HANDLING
 70
 10241
  9
$HANDSEED
  5
863
  9
$SURFTAB1
 70
     6
  9
$SURFTAB2
 70
     6
  9
$SURFTYPE
 70
     6
  9
$SURFU
 70
     6
  9
$SURFV
 70
     6
  9
$FLATLAND
 70
     0
  9
$UCSNAME
  2

  9
$UCSORG
 10
0.0
 20
0.0
 30
0.0
  9
$UCSXDIR
 10
1.0
 20
0.0
 30
0.0
  9
$UCSYDIR
 10
0.0
 20
1.0
 30
0.0
  9
$USERI1
 70
     0
  9
$USERI2
 70
     0
  9
$USERI3
 70
     0
  9
$USERI4
 70
     0
  9
$USERI5
 70
     0
  9
$USERR1
 40
0.0
  9
$USERR2
 40
0.0
  9
$USERR3
 40
0.0
  9
$USERR4
 40
0.0
  9
$USERR5
 40
0.0
  9
$WORLDVIEW
 70
     1
  0
ENDSEC
  0
SECTION
  2
TABLES
  0
TABLE
  2
VPORT
 70
     1
  0
VPORT
  2
*ACTIVE
 70
     0
 10
0.0
 20
0.0
 11
1.0
 21
1.0
 12
285.000004
 22
198.802086
 13
0.0
 23
0.0
 14
13.0
 24
13.0
 15
13.0
 25
13.0
 16
0.0
 26
0.0
 36
1.0
 17
0.0
 27
0.0
 37
0.0
 40
401.399785
 41
1.595494
 42
50.0
 43
0.0
 44
0.0
 50
0.0
 51
0.0
 71
     0
 72
   100
 73
     1
 74
     0
 75
     0
 76
     0
 77
     0
 78
     0
  0
ENDTAB
  0
TABLE
  2
LTYPE
 70
     3
  0
LTYPE
  2
CONTINUOUS
 70
     0
  3
Solid line
 72
    65
 73
     0
 40
0.0
  0
LTYPE
  2
HIDDEN2
 70
     0
  3
Hidden (.5x) _ _ _ _ _ _ _ _ _ _ _ _ _ _ _ _ _
 72
    65
 73
     2
 40
4.7625
 49
3.175
 49
-1.5875
  0
LTYPE
  2
DASHED2
 70
     0
  3
Dashed (.5x) _ _ _ _ _ _ _ _ _ _ _ _ _ _ _ _ _
 72
    65
 73
     2
 40
9.525
 49
6.35
 49
-3.175
  0
ENDTAB
  0
TABLE
  2
LAYER
 70
     6
  0
LAYER
  2
0
 70
     0
 62
     7
  6
CONTINUOUS
  0
LAYER
  2
STRINGA
 70
     0
 62
     7
  6
CONTINUOUS
  0
LAYER
  2
WAKU
 70
     0
 62
     4
  6
CONTINUOUS
  0
LAYER
  2
PANEL
 70
     0
 62
     6
  6
CONTINUOUS
  0
LAYER
  2
SUNPOU
 70
     0
 62
     3
  6
CONTINUOUS
  0
LAYER
  2
DEFPOINTS
 70
     0
 62
     7
  6
CONTINUOUS
  0
ENDTAB
  0
TABLE
  2
STYLE
 70
     1
  0
STYLE
  2
STANDARD
 70
     0
 40
6.0
 41
1.0
 50
0.0
 71
     0
 42
5.0
  3
txt.shx
  4
bigfont.shx
  0
ENDTAB
  0
TABLE
  2
VIEW
 70
     0
  0
ENDTAB
  0
TABLE
  2
UCS
 70
     0
  0
ENDTAB
  0
ENDSEC
  0
SECTION
  2
BLOCKS
  0
BLOCK
  8
0
  2
$MODEL_SPACE
 70
     0
 10
0.0
 20
0.0
  0
ENDBLK
  8
0
  0
BLOCK
  8
0
  2
$PAPER_SPACE
 70
     0
 10
0.0
 20
0.0
  0
ENDBLK
  8
0
  0
BLOCK
  8
0
  2
_NONE
 70
     0
 10
0.0
 20
0.0
  0
CIRCLE
  8
0
  6
ByBlock
 62
     0
 10
0.0
 20
0.0
 30
0.0
 40
0.25
  0
ENDBLK
  8
0
  0
ENDSEC
  0
SECTION
  2
ENTITIES
  0
POLYLINE
  8
WAKU
  5
252
 66
     1
 10
0.0
 20
0.0
 30
0.0
 70
     1
  0
VERTEX
  8
WAKU
  5
85D
 10
0.0
 20
0.0
 30
0.0
  0
VERTEX
  8
WAKU
  5
85E
 10
570.0
 20
0.0
 30
0.0
  0
VERTEX
  8
WAKU
  5
85F
 10
570.0
 20
396.0
 30
0.0
  0
VERTEX
  8
WAKU
  5
860
 10
0.0
 20
396.0
 30
0.0
  0
SEQEND
  8
WAKU
  5
861
  0
LINE
  8
WAKU
  5
4F9
 10
5.0
 20
391.0
 30
0.0
 11
565.0
 21
391.0
 31
0.0
  0
LINE
  8
WAKU
  6
CONTINUOUS
  5
4FA
 10
5.0
 20
5.0
 30
0.0
 11
565.0
 21
5.0
 31
0.0
  0
LINE
  8
WAKU
  6
CONTINUOUS
  5
4FB
 10
5.0
 20
25.0
 30
0.0
 11
565.0
 21
25.0
 31
0.0
  0
LINE
  8
WAKU
  5
500
 10
5.0
 20
5.0
 30
0.0
 11
5.0
 21
391.0
 31
0.0
  0
TEXT
  8
WAKU
  5
501
 10
15.0
 20
8.0
 30
0.0
 40
12.0
  1
ビルパネ　B-8630
  0
LINE
  8
WAKU
  6
CONTINUOUS
  5
502
 10
195.0
 20
5.0
 30
0.0
 11
195.0
 21
25.0
 31
0.0
  0
LINE
  8
WAKU
  5
543
 10
565.0
 20
391.0
 30
0.0
 11
565.0
 21
5.0
 31
0.0
  0
LINE
  8
SUNPOU
  5
5D7
 10
400.070689
 20
256.60301
 30
0.0
 11
400.070689
 21
272.22801
 31
0.0
  0
LINE
  8
SUNPOU
  5
5D8
 10
416.070689
 20
256.60301
 30
0.0
 11
416.070689
 21
272.22801
 31
0.0
  0
LINE
  8
SUNPOU
  5
5D9
 10
400.070689
 20
270.97801
 30
0.0
 11
416.070689
 21
270.97801
 31
0.0
  0
POINT
  8
SUNPOU
  5
5DD
 10
416.070689
 20
270.97801
 30
0.0
  0
LINE
  8
STRINGA
  6
HIDDEN2
  5
610
 10
426.08142
 20
181.431848
 30
0.0
 11
418.312489
 21
233.978006
 31
0.0
  0
LINE
  8
STRINGA
  6
HIDDEN2
  5
611
 10
427.070666
 20
181.578107
 30
0.0
 11
419.323359
 21
233.978006
 31
0.0
  0
LINE
  8
STRINGA
  6
HIDDEN2
  5
612
 10
390.059913
 20
181.431848
 30
0.0
 11
397.828844
 21
233.978006
 31
0.0
  0
LINE
  8
STRINGA
  6
HIDDEN2
  5
613
 10
389.070666
 20
181.578107
 30
0.0
 11
396.817973
 21
233.978006
 31
0.0
  0
LINE
  8
PANEL
  6
DASHED2
  5
614
 10
458.070678
 20
181.578107
 30
0.0
 11
358.070663
 21
181.578107
 31
0.0
  0
LINE
  8
PANEL
  6
CONTINUOUS
  5
615
 10
458.070678
 20
180.97801
 30
0.0
 11
358.070663
 21
180.97801
 31
0.0
  0
LINE
  8
STRINGA
  6
HIDDEN2
  5
616
 10
389.070666
 20
181.578107
 30
0.0
 11
390.059913
 21
181.431848
 31
0.0
  0
LINE
  8
STRINGA
  6
HIDDEN2
  5
617
 10
427.070666
 20
181.578107
 30
0.0
 11
426.08142
 21
181.431848
 31
0.0
  0
LINE
  8
PANEL
  6
DASHED2
  5
618
 10
358.070663
 20
233.377908
 30
0.0
 11
458.070678
 21
233.377908
 31
0.0
  0
LINE
  8
PANEL
  6
CONTINUOUS
  5
619
 10
358.070663
 20
233.978006
 30
0.0
 11
458.070678
 21
233.978006
 31
0.0
  0
LINE
  8
STRINGA
  6
CONTINUOUS
  5
61A
 10
399.628878
 20
252.989919
 30
0.0
 11
396.817973
 21
233.978006
 31
0.0
  0
LINE
  8
STRINGA
  6
CONTINUOUS
  5
61B
 10
400.618124
 20
252.843659
 30
0.0
 11
397.828844
 21
233.978006
 31
0.0
  0
LINE
  8
STRINGA
  6
CONTINUOUS
  5
61C
 10
415.523208
 20
252.843659
 30
0.0
 11
418.312489
 21
233.978006
 31
0.0
  0
LINE
  8
STRINGA
  6
CONTINUOUS
  5
61D
 10
416.512455
 20
252.989919
 30
0.0
 11
419.323359
 21
233.978006
 31
0.0
  0
ARC
  8
STRINGA
  6
CONTINUOUS
  5
61E
 10
413.050093
 20
252.47801
 30
0.0
 40
2.5
 50
8.410233
 51
90.0
  0
ARC
  8
STRINGA
  6
CONTINUOUS
  5
61F
 10
413.050093
 20
252.47801
 30
0.0
 40
3.5
 50
8.410233
 51
90.0
  0
LINE
  8
STRINGA
  6
CONTINUOUS
  5
620
 10
403.09124
 20
254.97801
 30
0.0
 11
413.050093
 21
254.97801
 31
0.0
  0
LINE
  8
STRINGA
  6
CONTINUOUS
  5
621
 10
403.09124
 20
255.97801
 30
0.0
 11
413.050093
 21
255.97801
 31
0.0
  0
ARC
  8
STRINGA
  6
CONTINUOUS
  5
622
 10
403.09124
 20
252.47801
 30
0.0
 40
2.5
 50
90.0
 51
171.589767
  0
ARC
  8
STRINGA
  6
CONTINUOUS
  5
623
 10
403.09124
 20
252.47801
 30
0.0
 40
3.5
 50
90.0
 51
171.589767
  0
LINE
  8
SUNPOU
  5
64A
 10
402.46624
 20
255.97801
 30
0.0
 11
341.820685
 21
255.97801
 31
0.0
  0
LINE
  8
SUNPOU
  5
64B
 10
357.445663
 20
180.97801
 30
0.0
 11
341.820685
 21
180.97801
 31
0.0
  0
LINE
  8
SUNPOU
  5
64C
 10
343.070685
 20
255.97801
 30
0.0
 11
343.070685
 21
180.97801
 31
0.0
  0
POINT
  8
SUNPOU
  5
650
 10
343.070685
 20
180.97801
 30
0.0
  0
LINE
  8
SUNPOU
  5
651
 10
389.070666
 20
180.953107
 30
0.0
 11
389.070666
 21
164.72801
 31
0.0
  0
LINE
  8
SUNPOU
  5
652
 10
427.070666
 20
180.953107
 30
0.0
 11
427.070666
 21
164.72801
 31
0.0
  0
LINE
  8
SUNPOU
  5
653
 10
389.070666
 20
165.97801
 30
0.0
 11
427.070666
 21
165.97801
 31
0.0
  0
POINT
  8
SUNPOU
  5
657
 10
427.070666
 20
165.97801
 30
0.0
  0
LINE
  8
PANEL
  6
CONTINUOUS
  5
708
 10
153.91973
 20
150.126539
 30
0.0
 11
119.919733
 21
91.236639
 31
0.0
  0
LINE
  8
PANEL
  6
CONTINUOUS
  5
709
 10
154.439505
 20
149.82649
 30
0.0
 11
120.439509
 21
90.936834
 31
0.0
  0
ARC
  8
PANEL
  6
CONTINUOUS
  5
70A
 10
126.8482
 20
87.236883
 30
0.0
 40
8.0
 50
150.000027
 51
269.999727
  0
ARC
  8
PANEL
  6
CONTINUOUS
  5
70B
 10
126.8482
 20
87.236883
 30
0.0
 40
7.399994
 50
150.000007
 51
269.999527
  0
LINE
  8
PANEL
  6
CONTINUOUS
  5
70C
 10
132.044241
 20
79.83698
 30
0.0
 11
132.043997
 21
79.236639
 31
0.0
  0
LINE
  8
PANEL
  6
CONTINUOUS
  5
70D
 10
132.044241
 20
79.83698
 30
0.0
 11
126.501765
 21
79.836736
 31
0.0
  0
LINE
  8
PANEL
  6
CONTINUOUS
  5
70E
 10
126.847956
 20
79.236395
 30
0.0
 11
132.043997
 21
79.236639
 31
0.0
  0
LINE
  8
PANEL
  6
CONTINUOUS
  5
70F
 10
154.439505
 20
322.22649
 30
0.0
 11
120.439509
 21
263.336834
 31
0.0
  0
LINE
  8
PANEL
  6
CONTINUOUS
  5
710
 10
153.91973
 20
322.526539
 30
0.0
 11
119.919733
 21
263.636639
 31
0.0
  0
ARC
  8
PANEL
  6
CONTINUOUS
  5
711
 10
126.8482
 20
173.436883
 30
0.0
 40
8.0
 50
150.000027
 51
269.999727
  0
ARC
  8
PANEL
  6
CONTINUOUS
  5
712
 10
126.8482
 20
259.636883
 30
0.0
 40
8.0
 50
150.000027
 51
269.999727
  0
LINE
  8
PANEL
  6
CONTINUOUS
  5
713
 10
154.439505
 20
236.02649
 30
0.0
 11
120.439509
 21
177.136834
 31
0.0
  0
LINE
  8
PANEL
  6
CONTINUOUS
  5
714
 10
153.91973
 20
236.326539
 30
0.0
 11
119.919733
 21
177.436639
 31
0.0
  0
ARC
  8
PANEL
  6
CONTINUOUS
  5
715
 10
126.8482
 20
173.436883
 30
0.0
 40
7.399994
 50
150.000007
 51
269.999527
  0
LINE
  8
PANEL
  6
CONTINUOUS
  5
716
 10
126.847956
 20
165.436395
 30
0.0
 11
132.043997
 21
165.436639
 31
0.0
  0
LINE
  8
PANEL
  6
CONTINUOUS
  5
717
 10
132.044241
 20
166.03698
 30
0.0
 11
126.501765
 21
166.036736
 31
0.0
  0
LINE
  8
PANEL
  6
CONTINUOUS
  5
718
 10
132.044241
 20
166.03698
 30
0.0
 11
132.043997
 21
165.436639
 31
0.0
  0
ARC
  8
PANEL
  6
CONTINUOUS
  5
719
 10
160.848196
 20
146.126539
 30
0.0
 40
8.000004
 50
29.999833
 51
150.000015
  0
ARC
  8
PANEL
  6
CONTINUOUS
  5
71A
 10
160.848196
 20
146.126539
 30
0.0
 40
7.399995
 50
30.000132
 51
150.000007
  0
LINE
  8
PANEL
  6
CONTINUOUS
  5
71B
 10
169.854544
 20
145.32649
 30
0.0
 11
167.083548
 21
150.126295
 31
0.0
  0
LINE
  8
PANEL
  6
CONTINUOUS
  5
71C
 10
167.776175
 20
150.126295
 30
0.0
 11
170.374319
 21
145.626295
 31
0.0
  0
LINE
  8
PANEL
  6
CONTINUOUS
  5
71D
 10
169.854544
 20
145.32649
 30
0.0
 11
170.374319
 21
145.626295
 31
0.0
  0
ARC
  8
PANEL
  6
CONTINUOUS
  5
71F
 10
126.8482
 20
259.636883
 30
0.0
 40
7.399994
 50
150.000007
 51
269.999527
  0
LINE
  8
PANEL
  6
CONTINUOUS
  5
720
 10
132.044241
 20
252.23698
 30
0.0
 11
132.043997
 21
251.636639
 31
0.0
  0
LINE
  8
PANEL
  6
CONTINUOUS
  5
721
 10
132.044241
 20
252.23698
 30
0.0
 11
126.501765
 21
252.236736
 31
0.0
  0
LINE
  8
PANEL
  6
CONTINUOUS
  5
722
 10
126.847956
 20
251.636395
 30
0.0
 11
132.043997
 21
251.636639
 31
0.0
  0
ARC
  8
PANEL
  6
CONTINUOUS
  5
723
 10
160.848196
 20
232.326539
 30
0.0
 40
7.399995
 50
30.000132
 51
150.000007
  0
ARC
  8
PANEL
  6
CONTINUOUS
  5
724
 10
160.848196
 20
232.326539
 30
0.0
 40
8.000004
 50
29.999833
 51
150.000015
  0
LINE
  8
PANEL
  6
CONTINUOUS
  5
725
 10
169.854544
 20
231.52649
 30
0.0
 11
170.374319
 21
231.826295
 31
0.0
  0
LINE
  8
PANEL
  6
CONTINUOUS
  5
726
 10
167.776175
 20
236.326295
 30
0.0
 11
170.374319
 21
231.826295
 31
0.0
  0
LINE
  8
PANEL
  6
CONTINUOUS
  5
727
 10
169.854544
 20
231.52649
 30
0.0
 11
167.083548
 21
236.326295
 31
0.0
  0
LINE
  8
PANEL
  6
CONTINUOUS
  5
729
 10
169.854544
 20
317.72649
 30
0.0
 11
167.083548
 21
322.526295
 31
0.0
  0
LINE
  8
PANEL
  6
CONTINUOUS
  5
72A
 10
167.776175
 20
322.526295
 30
0.0
 11
170.374319
 21
318.026295
 31
0.0
  0
LINE
  8
PANEL
  6
CONTINUOUS
  5
72B
 10
169.854544
 20
317.72649
 30
0.0
 11
170.374319
 21
318.026295
 31
0.0
  0
ARC
  8
PANEL
  6
CONTINUOUS
  5
72C
 10
160.848196
 20
318.526539
 30
0.0
 40
7.399995
 50
30.000132
 51
150.000007
  0
ARC
  8
PANEL
  6
CONTINUOUS
  5
72D
 10
160.848196
 20
318.526539
 30
0.0
 40
8.000004
 50
29.999833
 51
150.000015
  0
LINE
  8
STRINGA
  6
CONTINUOUS
  5
74E
 10
153.237173
 20
147.743481
 30
0.0
 11
121.642193
 21
93.019355
 31
0.0
  0
LINE
  8
STRINGA
  6
CONTINUOUS
  5
74F
 10
193.848197
 20
159.341383
 30
0.0
 11
193.848197
 21
73.14118
 31
0.0
  0
ARC
  8
STRINGA
  6
CONTINUOUS
  5
750
 10
144.348196
 20
56.365057
 30
0.0
 40
30.5
 50
33.369626
 51
129.079754
  0
ARC
  8
STRINGA
  6
CONTINUOUS
  5
751
 10
129.869437
 20
88.269354
 30
0.0
 40
9.500003
 50
150.000002
 51
240.01002
  0
LINE
  8
STRINGA
  6
CONTINUOUS
  5
752
 10
153.237173
 20
320.143481
 30
0.0
 11
121.642193
 21
265.419355
 31
0.0
  0
LINE
  8
STRINGA
  6
CONTINUOUS
  5
753
 10
193.848197
 20
331.741383
 30
0.0
 11
193.848197
 21
245.54118
 31
0.0
  0
LINE
  8
STRINGA
  6
CONTINUOUS
  5
754
 10
193.848197
 20
245.541383
 30
0.0
 11
193.848197
 21
159.34118
 31
0.0
  0
LINE
  8
STRINGA
  6
CONTINUOUS
  5
755
 10
153.237173
 20
233.943481
 30
0.0
 11
121.642193
 21
179.219355
 31
0.0
  0
ARC
  8
STRINGA
  6
CONTINUOUS
  5
756
 10
172.098196
 20
143.891431
 30
0.0
 40
2.750002
 50
213.499535
 51
11.859726
  0
ARC
  8
STRINGA
  6
CONTINUOUS
  5
757
 10
144.348196
 20
142.565057
 30
0.0
 40
30.5
 50
33.369626
 51
129.079754
  0
ARC
  8
STRINGA
  6
CONTINUOUS
  5
758
 10
129.869437
 20
174.469354
 30
0.0
 40
9.500003
 50
150.000002
 51
240.01002
  0
ARC
  8
STRINGA
  6
CONTINUOUS
  5
759
 10
161.464407
 20
142.993482
 30
0.0
 40
9.499993
 50
60.952695
 51
149.999987
  0
ARC
  8
STRINGA
  6
CONTINUOUS
  5
75A
 10
144.348196
 20
142.56526
 30
0.0
 40
30.500004
 50
3.555143
 51
33.369628
  0
LINE
  8
STRINGA
  6
CONTINUOUS
  5
75B
 10
166.076956
 20
151.298902
 30
0.0
 11
165.064017
 21
149.536695
 31
0.0
  0
LINE
  8
STRINGA
  6
CONTINUOUS
  5
75C
 10
165.064017
 20
149.536695
 30
0.0
 11
169.804984
 21
142.373609
 31
0.0
  0
ARC
  8
STRINGA
  6
CONTINUOUS
  5
75D
 10
172.098196
 20
230.091431
 30
0.0
 40
2.750002
 50
213.499535
 51
11.859726
  0
LINE
  8
STRINGA
  6
CONTINUOUS
  5
75E
 10
165.064017
 20
235.736695
 30
0.0
 11
169.804984
 21
228.573609
 31
0.0
  0
ARC
  8
STRINGA
  6
CONTINUOUS
  5
75F
 10
144.348196
 20
228.765057
 30
0.0
 40
30.5
 50
33.369626
 51
129.079754
  0
ARC
  8
STRINGA
  6
CONTINUOUS
  5
760
 10
129.869437
 20
260.669354
 30
0.0
 40
9.500003
 50
150.000002
 51
240.01002
  0
ARC
  8
STRINGA
  6
CONTINUOUS
  5
761
 10
161.464407
 20
229.193482
 30
0.0
 40
9.499993
 50
60.952695
 51
149.999987
  0
ARC
  8
STRINGA
  6
CONTINUOUS
  5
762
 10
144.348196
 20
228.76526
 30
0.0
 40
30.500004
 50
3.555143
 51
33.369628
  0
LINE
  8
STRINGA
  6
CONTINUOUS
  5
763
 10
166.076956
 20
237.498902
 30
0.0
 11
165.064017
 21
235.736695
 31
0.0
  0
LINE
  8
STRINGA
  6
CONTINUOUS
  5
764
 10
165.064017
 20
321.936695
 30
0.0
 11
169.804984
 21
314.773609
 31
0.0
  0
ARC
  8
STRINGA
  6
CONTINUOUS
  5
765
 10
144.348196
 20
314.96526
 30
0.0
 40
30.500004
 50
3.555143
 51
33.369628
  0
ARC
  8
STRINGA
  6
CONTINUOUS
  5
766
 10
172.098196
 20
316.291431
 30
0.0
 40
2.750002
 50
213.499535
 51
11.859726
  0
ARC
  8
STRINGA
  6
CONTINUOUS
  5
767
 10
161.464407
 20
315.393482
 30
0.0
 40
9.499993
 50
60.952695
 51
149.999987
  0
LINE
  8
STRINGA
  6
CONTINUOUS
  5
768
 10
166.076956
 20
323.698902
 30
0.0
 11
165.064017
 21
321.936695
 31
0.0
  0
LINE
  8
SUNPOU
  5
7AE
 10
193.848197
 20
332.366383
 30
0.0
 11
193.848197
 21
347.991424
 31
0.0
  0
LINE
  8
SUNPOU
  5
7AF
 10
118.8482
 20
260.261883
 30
0.0
 11
118.8482
 21
347.991424
 31
0.0
  0
LINE
  8
SUNPOU
  5
7B0
 10
193.848197
 20
346.741424
 30
0.0
 11
118.8482
 21
346.741424
 31
0.0
  0
LINE
  8
SUNPOU
  5
7B5
 10
160.223207
 20
326.526543
 30
0.0
 11
87.598197
 21
326.526543
 31
0.0
  0
LINE
  8
SUNPOU
  5
7B6
 10
131.418997
 20
251.636639
 30
0.0
 11
87.598197
 21
251.636639
 31
0.0
  0
LINE
  8
SUNPOU
  5
7B7
 10
88.848197
 20
326.526543
 30
0.0
 11
88.848197
 21
251.636639
 31
0.0
  0
POINT
  8
SUNPOU
  5
7BB
 10
88.848197
 20
251.636639
 30
0.0
  0
LINE
  8
SUNPOU
  5
7BC
 10
103.223197
 20
251.636639
 30
0.0
 11
102.598197
 21
251.636639
 31
0.0
  0
LINE
  8
SUNPOU
  5
7BD
 10
160.223207
 20
240.326543
 30
0.0
 11
102.598197
 21
240.326543
 31
0.0
  0
LINE
  8
SUNPOU
  5
7BE
 10
103.848197
 20
251.636639
 30
0.0
 11
103.848197
 21
240.326543
 31
0.0
  0
LINE
  8
SUNPOU
  5
7BF
 10
103.848197
 20
240.326543
 30
0.0
 11
103.848197
 21
221.576543
 31
0.0
  0
POINT
  8
SUNPOU
  5
7C1
 10
103.848197
 20
251.636639
 30
0.0
  0
POINT
  8
SUNPOU
  5
7C3
 10
103.848197
 20
240.326543
 30
0.0
  0
LINE
  8
SUNPOU
  5
7C4
 10
131.418997
 20
251.636639
 30
0.0
 11
87.598197
 21
251.636639
 31
0.0
  0
LINE
  8
SUNPOU
  5
7C5
 10
131.418997
 20
165.436639
 30
0.0
 11
87.598197
 21
165.436639
 31
0.0
  0
LINE
  8
SUNPOU
  5
7C6
 10
88.848197
 20
251.636639
 30
0.0
 11
88.848197
 21
165.436639
 31
0.0
  0
POINT
  8
SUNPOU
  5
7CA
 10
88.848197
 20
165.436639
 30
0.0
  0
ARC
  8
SUNPOU
  5
7D6
 10
118.8482
 20
261.780683
 30
0.0
 40
48.810621
 50
60.000076
 51
90.0
  0
TEXT
  8
SUNPOU
  5
817
 10
103.223197
 20
222.201543
 30
0.0
 40
6.0
  1
10.2
 50
90.0
  0
TEXT
  8
SUNPOU
  5
818
 10
88.223197
 20
199.536639
 30
0.0
 40
6.0
  1
86.2
 50
90.0
  0
TEXT
  8
SUNPOU
  5
819
 10
88.223197
 20
284.081591
 30
0.0
 40
6.0
  1
76
 50
90.0
  0
TEXT
  8
SUNPOU
  5
81A
 10
122.853122
 20
311.887078
 30
0.0
 40
6.0
  1
30°
 50
345.00006
  0
TEXT
  8
SUNPOU
  5
81B
 10
151.348198
 20
347.366424
 30
0.0
 40
6.0
  1
75
  0
TEXT
  8
SUNPOU
  5
81C
 10
403.070666
 20
166.60301
 30
0.0
 40
6.0
  1
38
  0
TEXT
  8
SUNPOU
  5
81D
 10
342.445685
 20
213.47801
 30
0.0
 40
6.0
  1
75
 50
90.0
  0
TEXT
  8
SUNPOU
  5
81E
 10
404.070689
 20
271.60301
 30
0.0
 40
6.0
  1
16
  0
ENDSEC
  0
EOF
