  0
SECTION
  2
HEADER
  9
$ACADVER
  1
AC1006
  9
$INSBASE
 10
0.0
 20
0.0
 30
0.0
  9
$EXTMIN
 10
0.0
 20
0.0
  9
$EXTMAX
 10
570.0
 20
396.0
  9
$LIMMIN
 10
0.0
 20
0.0
  9
$LIMMAX
 10
570.0
 20
396.0
  9
$VIEWCTR
 10
6.591288
 20
4.579184
  9
$VIEWSIZE
 40
9.158369
  9
$SNAPMODE
 70
     0
  9
$SNAPUNIT
 10
1.0
 20
1.0
  9
$SNAPBASE
 10
0.0
 20
0.0
  9
$SNAPANG
 50
0.0
  9
$SNAPSTYLE
 70
     0
  9
$SNAPISOPAIR
 70
     0
  9
$GRIDMODE
 70
     0
  9
$GRIDUNIT
 10
0.0
 20
0.0
  9
$ORTHOMODE
 70
     0
  9
$REGENMODE
 70
     1
  9
$FILLMODE
 70
     1
  9
$QTEXTMODE
 70
     0
  9
$MIRRTEXT
 70
     1
  9
$DRAGMODE
 70
     2
  9
$LTSCALE
 40
1.333333
  9
$OSMODE
 70
    43
  9
$ATTMODE
 70
     1
  9
$TEXTSIZE
 40
5.0
  9
$TRACEWID
 40
1.0
  9
$TEXTSTYLE
  7
STANDARD
  9
$CLAYER
  8
SUNPOU
  9
$CELTYPE
  6
ByLayer
  9
$CECOLOR
 62
   256
  9
$DIMSCALE
 40
1.0
  9
$DIMASZ
 40
2.5
  9
$DIMEXO
 40
0.625
  9
$DIMDLI
 40
3.75
  9
$DIMRND
 40
0.0
  9
$DIMDLE
 40
0.0
  9
$DIMEXE
 40
1.25
  9
$DIMTP
 40
0.0
  9
$DIMTM
 40
0.0
  9
$DIMTXT
 40
6.0
  9
$DIMCEN
 40
2.5
  9
$DIMTSZ
 40
0.0
  9
$DIMTOL
 70
     0
  9
$DIMLIM
 70
     0
  9
$DIMTIH
 70
     0
  9
$DIMTOH
 70
     0
  9
$DIMSE1
 70
     0
  9
$DIMSE2
 70
     0
  9
$DIMTAD
 70
     1
  9
$DIMZIN
 70
     8
  9
$DIMBLK
  1

  9
$DIMASO
 70
     1
  9
$DIMSHO
 70
     1
  9
$DIMPOST
  1

  9
$DIMAPOST
  1

  9
$DIMALT
 70
     0
  9
$DIMALTD
 70
     4
  9
$DIMALTF
 40
0.0394
  9
$DIMLFAC
 40
1.0
  9
$DIMTOFL
 70
     1
  9
$DIMTVP
 40
0.0
  9
$DIMTIX
 70
     0
  9
$DIMSOXD
 70
     0
  9
$DIMSAH
 70
     1
  9
$DIMBLK1
  1
_NONE
  9
$DIMBLK2
  1
_NONE
  9
$LUNITS
 70
     2
  9
$LUPREC
 70
     4
  9
$AXISMODE
 70
     0
  9
$AXISUNIT
 10
0.0
 20
0.0
  9
$SKETCHINC
 40
1.0
  9
$FILLETRAD
 40
13.333333
  9
$AUNITS
 70
     0
  9
$AUPREC
 70
     0
  9
$MENU
  1
.
  9
$ELEVATION
 40
0.0
  9
$THICKNESS
 40
0.0
  9
$LIMCHECK
 70
     0
  9
$BLIPMODE
 70
     0
  9
$CHAMFERA
 40
13.333333
  9
$CHAMFERB
 40
13.333333
  9
$SKPOLY
 70
     1
  9
$TDCREATE
 40
2451654.610702639
  9
$TDUPDATE
 40
0.000000000
  9
$TDINDWG
 40
0.2816867477
  9
$TDUSRTIMER
 40
0.0000000000
  9
$USRTIMER
 70
     1
  9
$ANGBASE
 50
0.0
  9
$ANGDIR
 70
     0
  9
$PDMODE
 70
     0
  9
$PDSIZE
 40
0.0
  9
$PLINEWID
 40
0.0
  9
$COORDS
 70
     0
  9
$SPLFRAME
 70
     0
  9
$SPLINETYPE
 70
     6
  9
$SPLINESEGS
 70
     8
  9
$ATTDIA
 70
     0
  9
$ATTREQ
 70
     1
  9
$HANDLING
 70
 10241
  9
$HANDSEED
  5
669
  9
$SURFTAB1
 70
     6
  9
$SURFTAB2
 70
     6
  9
$SURFTYPE
 70
     6
  9
$SURFU
 70
     6
  9
$SURFV
 70
     6
  9
$FLATLAND
 70
     0
  9
$UCSNAME
  2

  9
$UCSORG
 10
0.0
 20
0.0
 30
0.0
  9
$UCSXDIR
 10
1.0
 20
0.0
 30
0.0
  9
$UCSYDIR
 10
0.0
 20
1.0
 30
0.0
  9
$USERI1
 70
     0
  9
$USERI2
 70
     0
  9
$USERI3
 70
     0
  9
$USERI4
 70
     0
  9
$USERI5
 70
     0
  9
$USERR1
 40
0.0
  9
$USERR2
 40
0.0
  9
$USERR3
 40
0.0
  9
$USERR4
 40
0.0
  9
$USERR5
 40
0.0
  9
$WORLDVIEW
 70
     1
  0
ENDSEC
  0
SECTION
  2
TABLES
  0
TABLE
  2
VPORT
 70
     1
  0
VPORT
  2
*ACTIVE
 70
     0
 10
0.0
 20
0.0
 11
1.0
 21
1.0
 12
285.000003
 22
198.802159
 13
0.0
 23
0.0
 14
13.0
 24
13.0
 15
13.0
 25
13.0
 16
0.0
 26
0.0
 36
1.0
 17
0.0
 27
0.0
 37
0.0
 40
401.414599
 41
1.595494
 42
50.0
 43
0.0
 44
0.0
 50
0.0
 51
0.0
 71
     0
 72
   100
 73
     1
 74
     0
 75
     0
 76
     0
 77
     0
 78
     0
  0
ENDTAB
  0
TABLE
  2
LTYPE
 70
     3
  0
LTYPE
  2
CONTINUOUS
 70
     0
  3
Solid line
 72
    65
 73
     0
 40
0.0
  0
LTYPE
  2
HIDDEN2
 70
     0
  3
Hidden (.5x) _ _ _ _ _ _ _ _ _ _ _ _ _ _ _ _ _
 72
    65
 73
     2
 40
4.7625
 49
3.175
 49
-1.5875
  0
LTYPE
  2
DASHED2
 70
     0
  3
Dashed (.5x) _ _ _ _ _ _ _ _ _ _ _ _ _ _ _ _ _
 72
    65
 73
     2
 40
9.525
 49
6.35
 49
-3.175
  0
ENDTAB
  0
TABLE
  2
LAYER
 70
     6
  0
LAYER
  2
0
 70
     0
 62
     7
  6
CONTINUOUS
  0
LAYER
  2
STRINGA
 70
     0
 62
     7
  6
CONTINUOUS
  0
LAYER
  2
WAKU
 70
     0
 62
     4
  6
CONTINUOUS
  0
LAYER
  2
PANEL
 70
     0
 62
     6
  6
CONTINUOUS
  0
LAYER
  2
SUNPOU
 70
     0
 62
     3
  6
CONTINUOUS
  0
LAYER
  2
DEFPOINTS
 70
     0
 62
     7
  6
CONTINUOUS
  0
ENDTAB
  0
TABLE
  2
STYLE
 70
     1
  0
STYLE
  2
STANDARD
 70
     0
 40
6.0
 41
1.0
 50
0.0
 71
     0
 42
5.0
  3
txt.shx
  4
bigfont.shx
  0
ENDTAB
  0
TABLE
  2
VIEW
 70
     0
  0
ENDTAB
  0
TABLE
  2
UCS
 70
     0
  0
ENDTAB
  0
ENDSEC
  0
SECTION
  2
BLOCKS
  0
BLOCK
  8
0
  2
$MODEL_SPACE
 70
     0
 10
0.0
 20
0.0
  0
ENDBLK
  8
0
  0
BLOCK
  8
0
  2
$PAPER_SPACE
 70
     0
 10
0.0
 20
0.0
  0
ENDBLK
  8
0
  0
BLOCK
  8
0
  2
_NONE
 70
     0
 10
0.0
 20
0.0
  0
CIRCLE
  8
0
  6
ByBlock
 62
     0
 10
0.0
 20
0.0
 30
0.0
 40
0.25
  0
ENDBLK
  8
0
  0
ENDSEC
  0
SECTION
  2
ENTITIES
  0
POLYLINE
  8
WAKU
  5
252
 66
     1
 10
0.0
 20
0.0
 30
0.0
 70
     1
  0
VERTEX
  8
WAKU
  5
663
 10
0.0
 20
0.0
 30
0.0
  0
VERTEX
  8
WAKU
  5
664
 10
570.0
 20
0.0
 30
0.0
  0
VERTEX
  8
WAKU
  5
665
 10
570.0
 20
396.0
 30
0.0
  0
VERTEX
  8
WAKU
  5
666
 10
0.0
 20
396.0
 30
0.0
  0
SEQEND
  8
WAKU
  5
667
  0
LINE
  8
WAKU
  5
4F9
 10
5.0
 20
391.0
 30
0.0
 11
565.0
 21
391.0
 31
0.0
  0
LINE
  8
WAKU
  6
CONTINUOUS
  5
4FA
 10
5.0
 20
5.0
 30
0.0
 11
565.0
 21
5.0
 31
0.0
  0
LINE
  8
WAKU
  6
CONTINUOUS
  5
4FB
 10
5.0
 20
25.0
 30
0.0
 11
565.0
 21
25.0
 31
0.0
  0
LINE
  8
STRINGA
  6
CONTINUOUS
  5
4FC
 10
193.848197
 20
95.34133
 30
0.0
 11
193.848197
 21
309.541232
 31
0.0
  0
LINE
  8
STRINGA
  6
CONTINUOUS
  5
4FD
 10
157.863272
 20
234.646101
 30
0.0
 11
131.1582
 21
177.376565
 31
0.0
  0
LINE
  8
PANEL
  6
CONTINUOUS
  5
4FE
 10
158.335503
 20
237.079709
 30
0.0
 11
129.597466
 21
175.450559
 31
0.0
  0
LINE
  8
PANEL
  6
CONTINUOUS
  5
4FF
 10
158.879448
 20
236.826047
 30
0.0
 11
130.141411
 21
175.197141
 31
0.0
  0
LINE
  8
WAKU
  5
500
 10
5.0
 20
5.0
 30
0.0
 11
5.0
 21
391.0
 31
0.0
  0
TEXT
  8
WAKU
  5
501
 10
15.0
 20
8.0
 30
0.0
 40
12.0
  1
ビルパネ　B-7125
  0
LINE
  8
WAKU
  6
CONTINUOUS
  5
502
 10
195.0
 20
5.0
 30
0.0
 11
195.0
 21
25.0
 31
0.0
  0
LINE
  8
STRINGA
  6
CONTINUOUS
  5
503
 10
157.863272
 20
163.246101
 30
0.0
 11
131.1582
 21
105.976565
 31
0.0
  0
LINE
  8
PANEL
  6
CONTINUOUS
  5
504
 10
158.879448
 20
165.426047
 30
0.0
 11
130.141411
 21
103.797141
 31
0.0
  0
LINE
  8
PANEL
  6
CONTINUOUS
  5
505
 10
158.335503
 20
165.679709
 30
0.0
 11
129.597466
 21
104.050559
 31
0.0
  0
ARC
  8
STRINGA
  6
CONTINUOUS
  5
506
 10
158.848442
 20
95.35134
 30
0.0
 40
18.999998
 50
0.0
 51
150.000103
  0
ARC
  8
STRINGA
  6
CONTINUOUS
  5
507
 10
139.76812
 20
101.961691
 30
0.0
 40
9.499996
 50
154.999991
 51
245.00768
  0
ARC
  8
PANEL
  6
CONTINUOUS
  5
508
 10
136.848198
 20
100.669943
 30
0.0
 40
7.999998
 50
154.999955
 51
274.999704
  0
ARC
  8
PANEL
  6
CONTINUOUS
  5
509
 10
136.848198
 20
100.669943
 30
0.0
 40
7.399994
 50
154.999974
 51
274.999457
  0
LINE
  8
STRINGA
  6
CONTINUOUS
  5
50A
 10
142.393852
 20
104.85134
 30
0.0
 11
135.754448
 21
93.35134
 31
0.0
  0
LINE
  8
PANEL
  6
CONTINUOUS
  5
50B
 10
142.669487
 20
93.750998
 30
0.0
 11
137.148003
 21
93.267844
 31
0.0
  0
LINE
  8
PANEL
  6
CONTINUOUS
  5
50C
 10
137.54522
 20
92.699728
 30
0.0
 11
142.721489
 21
93.152853
 31
0.0
  0
LINE
  8
PANEL
  6
CONTINUOUS
  5
50D
 10
142.669487
 20
93.750998
 30
0.0
 11
142.721489
 21
93.152853
 31
0.0
  0
ARC
  8
STRINGA
  6
CONTINUOUS
  5
50E
 10
158.848442
 20
166.75134
 30
0.0
 40
18.999998
 50
0.0
 51
150.000103
  0
LINE
  8
STRINGA
  6
CONTINUOUS
  5
50F
 10
142.393852
 20
176.25134
 30
0.0
 11
135.754448
 21
164.75134
 31
0.0
  0
ARC
  8
STRINGA
  6
CONTINUOUS
  5
510
 10
139.76812
 20
173.361691
 30
0.0
 40
9.499996
 50
154.999991
 51
245.00768
  0
ARC
  8
PANEL
  6
CONTINUOUS
  5
511
 10
136.848198
 20
172.069943
 30
0.0
 40
7.999998
 50
154.999955
 51
274.999704
  0
ARC
  8
PANEL
  6
CONTINUOUS
  5
512
 10
136.848198
 20
172.069943
 30
0.0
 40
7.399994
 50
154.999974
 51
274.999457
  0
LINE
  8
PANEL
  6
CONTINUOUS
  5
513
 10
137.54522
 20
164.099728
 30
0.0
 11
142.721489
 21
164.552853
 31
0.0
  0
LINE
  8
PANEL
  6
CONTINUOUS
  5
514
 10
142.669487
 20
165.150998
 30
0.0
 11
137.148003
 21
164.667844
 31
0.0
  0
LINE
  8
PANEL
  6
CONTINUOUS
  5
515
 10
142.669487
 20
165.150998
 30
0.0
 11
142.721489
 21
164.552853
 31
0.0
  0
LINE
  8
STRINGA
  6
CONTINUOUS
  5
516
 10
170.34429
 20
167.907248
 30
0.0
 11
169.488821
 21
166.063254
 31
0.0
  0
ARC
  8
STRINGA
  6
CONTINUOUS
  5
517
 10
166.473196
 20
159.231223
 30
0.0
 40
9.500002
 50
65.952659
 51
154.999975
  0
ARC
  8
PANEL
  6
CONTINUOUS
  5
518
 10
165.586233
 20
162.29885
 30
0.0
 40
7.999998
 50
34.999779
 51
154.999949
  0
ARC
  8
PANEL
  6
CONTINUOUS
  5
519
 10
165.586233
 20
162.29885
 30
0.0
 40
7.400005
 50
35.000246
 51
154.999966
  0
ARC
  8
STRINGA
  6
CONTINUOUS
  5
51A
 10
175.09844
 20
162.751242
 30
0.0
 40
2.75
 50
214.47035
 51
0.0
  0
LINE
  8
PANEL
  6
CONTINUOUS
  5
51B
 10
174.628226
 20
162.286642
 30
0.0
 11
171.44927
 21
166.826682
 31
0.0
  0
LINE
  8
PANEL
  6
CONTINUOUS
  5
51C
 10
172.139212
 20
166.886984
 30
0.0
 11
175.119681
 21
162.630637
 31
0.0
  0
LINE
  8
STRINGA
  6
CONTINUOUS
  5
51D
 10
169.488821
 20
166.063254
 30
0.0
 11
172.831351
 21
161.194846
 31
0.0
  0
LINE
  8
STRINGA
  6
CONTINUOUS
  5
51E
 10
177.848441
 20
162.751242
 30
0.0
 11
177.848441
 21
166.741232
 31
0.0
  0
LINE
  8
PANEL
  6
CONTINUOUS
  5
51F
 10
174.628226
 20
162.286642
 30
0.0
 11
175.119681
 21
162.630637
 31
0.0
  0
LINE
  8
STRINGA
  6
CONTINUOUS
  5
520
 10
157.863272
 20
306.046101
 30
0.0
 11
131.1582
 21
248.776565
 31
0.0
  0
ARC
  8
STRINGA
  6
CONTINUOUS
  5
521
 10
158.848442
 20
238.15134
 30
0.0
 40
18.999998
 50
0.0
 51
150.000103
  0
LINE
  8
PANEL
  6
CONTINUOUS
  5
522
 10
158.335503
 20
308.479709
 30
0.0
 11
129.597466
 21
246.850559
 31
0.0
  0
LINE
  8
PANEL
  6
CONTINUOUS
  5
523
 10
158.879448
 20
308.226047
 30
0.0
 11
130.141411
 21
246.597141
 31
0.0
  0
ARC
  8
STRINGA
  6
CONTINUOUS
  5
524
 10
139.76812
 20
244.761691
 30
0.0
 40
9.499996
 50
154.999991
 51
245.00768
  0
ARC
  8
PANEL
  6
CONTINUOUS
  5
525
 10
136.848198
 20
243.469943
 30
0.0
 40
7.399994
 50
154.999974
 51
274.999457
  0
ARC
  8
PANEL
  6
CONTINUOUS
  5
526
 10
136.848198
 20
243.469943
 30
0.0
 40
7.999998
 50
154.999955
 51
274.999704
  0
LINE
  8
STRINGA
  6
CONTINUOUS
  5
527
 10
142.393852
 20
247.65134
 30
0.0
 11
135.754448
 21
236.15134
 31
0.0
  0
LINE
  8
PANEL
  6
CONTINUOUS
  5
528
 10
137.54522
 20
235.499728
 30
0.0
 11
142.721489
 21
235.952853
 31
0.0
  0
LINE
  8
PANEL
  6
CONTINUOUS
  5
529
 10
142.669487
 20
236.550998
 30
0.0
 11
137.148003
 21
236.067844
 31
0.0
  0
LINE
  8
PANEL
  6
CONTINUOUS
  5
52A
 10
142.669487
 20
236.550998
 30
0.0
 11
142.721489
 21
235.952853
 31
0.0
  0
ARC
  8
STRINGA
  6
CONTINUOUS
  5
52B
 10
175.09844
 20
234.151242
 30
0.0
 40
2.75
 50
214.47035
 51
0.0
  0
LINE
  8
PANEL
  6
CONTINUOUS
  5
52C
 10
172.139212
 20
238.286984
 30
0.0
 11
175.119681
 21
234.030637
 31
0.0
  0
LINE
  8
PANEL
  6
CONTINUOUS
  5
52D
 10
174.628226
 20
233.686642
 30
0.0
 11
171.44927
 21
238.226682
 31
0.0
  0
ARC
  8
STRINGA
  6
CONTINUOUS
  5
52E
 10
166.473196
 20
230.631223
 30
0.0
 40
9.500002
 50
65.952659
 51
154.999975
  0
ARC
  8
PANEL
  6
CONTINUOUS
  5
52F
 10
165.586233
 20
233.69885
 30
0.0
 40
7.400005
 50
35.000246
 51
154.999966
  0
ARC
  8
PANEL
  6
CONTINUOUS
  5
530
 10
165.586233
 20
233.69885
 30
0.0
 40
7.999998
 50
34.999779
 51
154.999949
  0
LINE
  8
STRINGA
  6
CONTINUOUS
  5
531
 10
169.488821
 20
237.463254
 30
0.0
 11
172.831351
 21
232.594846
 31
0.0
  0
LINE
  8
STRINGA
  6
CONTINUOUS
  5
532
 10
170.34429
 20
239.307248
 30
0.0
 11
169.488821
 21
237.463254
 31
0.0
  0
LINE
  8
STRINGA
  6
CONTINUOUS
  5
533
 10
177.848441
 20
234.151242
 30
0.0
 11
177.848441
 21
238.141232
 31
0.0
  0
LINE
  8
PANEL
  6
CONTINUOUS
  5
534
 10
174.628226
 20
233.686642
 30
0.0
 11
175.119681
 21
234.030637
 31
0.0
  0
ARC
  8
STRINGA
  6
CONTINUOUS
  5
535
 10
175.09844
 20
305.551242
 30
0.0
 40
2.75
 50
214.47035
 51
0.0
  0
LINE
  8
PANEL
  6
CONTINUOUS
  5
536
 10
172.139212
 20
309.686984
 30
0.0
 11
175.119681
 21
305.430637
 31
0.0
  0
LINE
  8
PANEL
  6
CONTINUOUS
  5
537
 10
174.628226
 20
305.086642
 30
0.0
 11
171.44927
 21
309.626682
 31
0.0
  0
LINE
  8
STRINGA
  6
CONTINUOUS
  5
538
 10
169.488821
 20
308.863254
 30
0.0
 11
172.831351
 21
303.994846
 31
0.0
  0
ARC
  8
STRINGA
  6
CONTINUOUS
  5
539
 10
166.473196
 20
302.031223
 30
0.0
 40
9.500002
 50
65.952659
 51
154.999975
  0
ARC
  8
PANEL
  6
CONTINUOUS
  5
53A
 10
165.586233
 20
305.09885
 30
0.0
 40
7.999998
 50
34.999779
 51
154.999949
  0
ARC
  8
PANEL
  6
CONTINUOUS
  5
53B
 10
165.586233
 20
305.09885
 30
0.0
 40
7.400005
 50
35.000246
 51
154.999966
  0
LINE
  8
STRINGA
  6
CONTINUOUS
  5
53C
 10
170.34429
 20
310.707248
 30
0.0
 11
169.488821
 21
308.863254
 31
0.0
  0
LINE
  8
STRINGA
  6
CONTINUOUS
  5
53D
 10
177.848441
 20
305.551242
 30
0.0
 11
177.848441
 21
309.541232
 31
0.0
  0
LINE
  8
PANEL
  6
CONTINUOUS
  5
53E
 10
174.628226
 20
305.086642
 30
0.0
 11
175.119681
 21
305.430637
 31
0.0
  0
LINE
  8
STRINGA
  6
HIDDEN2
  5
53F
 10
390.570689
 20
191.578046
 30
0.0
 11
397.120381
 21
235.978038
 31
0.0
  0
LINE
  8
STRINGA
  6
HIDDEN2
  5
540
 10
391.559983
 20
191.43211
 30
0.0
 11
398.131203
 21
235.978038
 31
0.0
  0
LINE
  8
STRINGA
  6
HIDDEN2
  5
541
 10
425.570689
 20
191.578046
 30
0.0
 11
419.020997
 21
235.978038
 31
0.0
  0
LINE
  8
STRINGA
  6
HIDDEN2
  5
542
 10
424.581395
 20
191.43211
 30
0.0
 11
418.010175
 21
235.978038
 31
0.0
  0
LINE
  8
WAKU
  5
543
 10
565.0
 20
391.0
 30
0.0
 11
565.0
 21
5.0
 31
0.0
  0
LINE
  8
PANEL
  6
DASHED2
  5
544
 10
458.070678
 20
191.578046
 30
0.0
 11
358.070685
 21
191.578046
 31
0.0
  0
LINE
  8
PANEL
  6
CONTINUOUS
  5
545
 10
458.070678
 20
190.97804
 30
0.0
 11
358.070685
 21
190.97804
 31
0.0
  0
LINE
  8
STRINGA
  6
HIDDEN2
  5
546
 10
390.570689
 20
191.578046
 30
0.0
 11
391.559983
 21
191.43211
 31
0.0
  0
LINE
  8
STRINGA
  6
HIDDEN2
  5
547
 10
425.570689
 20
191.578046
 30
0.0
 11
424.581395
 21
191.43211
 31
0.0
  0
LINE
  8
PANEL
  6
DASHED2
  5
548
 10
358.070685
 20
235.378032
 30
0.0
 11
458.070678
 21
235.378032
 31
0.0
  0
LINE
  8
PANEL
  6
CONTINUOUS
  5
549
 10
358.070685
 20
235.978038
 30
0.0
 11
458.070678
 21
235.978038
 31
0.0
  0
LINE
  8
STRINGA
  6
CONTINUOUS
  5
54A
 10
416.511646
 20
252.988787
 30
0.0
 11
419.020997
 21
235.978038
 31
0.0
  0
LINE
  8
STRINGA
  6
CONTINUOUS
  5
54B
 10
415.522352
 20
252.84285
 30
0.0
 11
418.010175
 21
235.978038
 31
0.0
  0
LINE
  8
STRINGA
  6
CONTINUOUS
  5
54C
 10
400.619026
 20
252.84285
 30
0.0
 11
398.131203
 21
235.978038
 31
0.0
  0
LINE
  8
STRINGA
  6
CONTINUOUS
  5
54D
 10
399.629732
 20
252.988787
 30
0.0
 11
397.120381
 21
235.978038
 31
0.0
  0
LINE
  8
STRINGA
  6
CONTINUOUS
  5
54E
 10
403.092261
 20
255.97801
 30
0.0
 11
413.049117
 21
255.97801
 31
0.0
  0
LINE
  8
STRINGA
  6
CONTINUOUS
  5
54F
 10
403.092261
 20
254.97801
 30
0.0
 11
413.049117
 21
254.97801
 31
0.0
  0
ARC
  8
STRINGA
  6
CONTINUOUS
  5
550
 10
403.092261
 20
252.47801
 30
0.0
 40
3.5
 50
90.0
 51
171.608498
  0
ARC
  8
STRINGA
  6
CONTINUOUS
  5
551
 10
403.092261
 20
252.47801
 30
0.0
 40
2.5
 50
90.0
 51
171.608498
  0
ARC
  8
STRINGA
  6
CONTINUOUS
  5
552
 10
413.049117
 20
252.47801
 30
0.0
 40
3.5
 50
8.391502
 51
90.0
  0
ARC
  8
STRINGA
  6
CONTINUOUS
  5
553
 10
413.049117
 20
252.47801
 30
0.0
 40
2.5
 50
8.391502
 51
90.0
  0
LINE
  8
SUNPOU
  5
57F
 10
193.848197
 20
310.166232
 30
0.0
 11
193.848197
 21
325.791232
 31
0.0
  0
LINE
  8
SUNPOU
  5
580
 10
128.848201
 20
244.094943
 30
0.0
 11
128.848201
 21
325.791232
 31
0.0
  0
LINE
  8
SUNPOU
  5
581
 10
193.848197
 20
324.541232
 30
0.0
 11
128.848201
 21
324.541232
 31
0.0
  0
LINE
  8
SUNPOU
  5
586
 10
164.961233
 20
313.098848
 30
0.0
 11
97.598197
 21
313.098848
 31
0.0
  0
LINE
  8
SUNPOU
  5
587
 10
136.223198
 20
235.469946
 30
0.0
 11
97.598197
 21
235.469946
 31
0.0
  0
LINE
  8
SUNPOU
  5
588
 10
98.848197
 20
313.098848
 30
0.0
 11
98.848197
 21
235.469946
 31
0.0
  0
POINT
  8
SUNPOU
  5
58C
 10
98.848197
 20
235.469946
 30
0.0
  0
LINE
  8
SUNPOU
  5
58D
 10
136.223198
 20
235.469946
 30
0.0
 11
97.598197
 21
235.469946
 31
0.0
  0
LINE
  8
SUNPOU
  5
58E
 10
136.223198
 20
164.069946
 30
0.0
 11
97.598197
 21
164.069946
 31
0.0
  0
LINE
  8
SUNPOU
  5
58F
 10
98.848197
 20
235.469946
 30
0.0
 11
98.848197
 21
164.069946
 31
0.0
  0
POINT
  8
SUNPOU
  5
593
 10
98.848197
 20
164.069946
 30
0.0
  0
ARC
  8
SUNPOU
  5
59F
 10
128.848201
 20
245.243748
 30
0.0
 40
50.546727
 50
65.000082
 51
90.0
  0
POINT
  8
SUNPOU
  5
5A1
 10
143.345119
 20
293.666997
 30
0.0
  0
POINT
  8
DEFPOINTS
  6
ByBlock
 62
     0
  5
5A3
 10
128.848201
 20
244.094943
 30
0.0
  0
POINT
  8
DEFPOINTS
  6
ByBlock
 62
     0
  5
5A5
 10
129.597466
 20
246.850559
 30
0.0
  0
LINE
  8
SUNPOU
  5
5D0
 10
402.467261
 20
255.97801
 30
0.0
 11
341.820685
 21
255.97801
 31
0.0
  0
LINE
  8
SUNPOU
  5
5D1
 10
357.445685
 20
190.97804
 30
0.0
 11
341.820685
 21
190.97804
 31
0.0
  0
LINE
  8
SUNPOU
  5
5D2
 10
343.070685
 20
255.97801
 30
0.0
 11
343.070685
 21
190.97804
 31
0.0
  0
POINT
  8
SUNPOU
  5
5D6
 10
343.070685
 20
190.97804
 30
0.0
  0
LINE
  8
SUNPOU
  5
5D7
 10
400.070689
 20
256.60301
 30
0.0
 11
400.070689
 21
272.22801
 31
0.0
  0
LINE
  8
SUNPOU
  5
5D8
 10
416.070689
 20
256.60301
 30
0.0
 11
416.070689
 21
272.22801
 31
0.0
  0
LINE
  8
SUNPOU
  5
5D9
 10
400.070689
 20
270.97801
 30
0.0
 11
416.070689
 21
270.97801
 31
0.0
  0
POINT
  8
SUNPOU
  5
5DD
 10
416.070689
 20
270.97801
 30
0.0
  0
LINE
  8
SUNPOU
  5
5DE
 10
390.570689
 20
190.953046
 30
0.0
 11
390.570689
 21
174.72804
 31
0.0
  0
LINE
  8
SUNPOU
  5
5DF
 10
425.570689
 20
190.953046
 30
0.0
 11
425.570689
 21
174.72804
 31
0.0
  0
LINE
  8
SUNPOU
  5
5E0
 10
390.570689
 20
175.97804
 30
0.0
 11
425.570689
 21
175.97804
 31
0.0
  0
POINT
  8
SUNPOU
  5
5E4
 10
425.570689
 20
175.97804
 30
0.0
  0
TEXT
  8
SUNPOU
  5
61E
 10
98.223197
 20
191.769946
 30
0.0
 40
6.0
  1
71.4
 50
90.0
  0
TEXT
  8
SUNPOU
  5
61F
 10
98.223197
 20
269.284397
 30
0.0
 40
6.0
  1
78
 50
90.0
  0
TEXT
  8
SUNPOU
  5
620
 10
130.55131
 20
297.280324
 30
0.0
 40
6.0
  1
25°
 50
347.500034
  0
TEXT
  8
SUNPOU
  5
621
 10
156.348199
 20
325.166232
 30
0.0
 40
6.0
  1
65
  0
TEXT
  8
SUNPOU
  5
622
 10
403.070689
 20
176.60304
 30
0.0
 40
6.0
  1
35
  0
TEXT
  8
SUNPOU
  5
623
 10
342.445685
 20
218.478025
 30
0.0
 40
6.0
  1
65
 50
90.0
  0
TEXT
  8
SUNPOU
  5
624
 10
404.070689
 20
271.60301
 30
0.0
 40
6.0
  1
16
  0
ENDSEC
  0
EOF
