  0
SECTION
  2
HEADER
  9
$ACADVER
  1
AC1006
  9
$INSBASE
 10
0.0
 20
0.0
 30
0.0
  9
$EXTMIN
 10
0.0
 20
0.0
  9
$EXTMAX
 10
570.0
 20
396.0
  9
$LIMMIN
 10
0.0
 20
0.0
  9
$LIMMAX
 10
570.0
 20
396.0
  9
$VIEWCTR
 10
6.591288
 20
4.579184
  9
$VIEWSIZE
 40
9.158369
  9
$SNAPMODE
 70
     0
  9
$SNAPUNIT
 10
1.0
 20
1.0
  9
$SNAPBASE
 10
0.0
 20
0.0
  9
$SNAPANG
 50
0.0
  9
$SNAPSTYLE
 70
     0
  9
$SNAPISOPAIR
 70
     0
  9
$GRIDMODE
 70
     0
  9
$GRIDUNIT
 10
0.0
 20
0.0
  9
$ORTHOMODE
 70
     1
  9
$REGENMODE
 70
     1
  9
$FILLMODE
 70
     1
  9
$QTEXTMODE
 70
     0
  9
$MIRRTEXT
 70
     1
  9
$DRAGMODE
 70
     2
  9
$LTSCALE
 40
1.333333
  9
$OSMODE
 70
    43
  9
$ATTMODE
 70
     1
  9
$TEXTSIZE
 40
5.0
  9
$TRACEWID
 40
1.0
  9
$TEXTSTYLE
  7
STANDARD
  9
$CLAYER
  8
SUNPOU
  9
$CELTYPE
  6
ByLayer
  9
$CECOLOR
 62
   256
  9
$DIMSCALE
 40
1.0
  9
$DIMASZ
 40
2.5
  9
$DIMEXO
 40
0.625
  9
$DIMDLI
 40
3.75
  9
$DIMRND
 40
0.0
  9
$DIMDLE
 40
0.0
  9
$DIMEXE
 40
1.25
  9
$DIMTP
 40
0.0
  9
$DIMTM
 40
0.0
  9
$DIMTXT
 40
6.0
  9
$DIMCEN
 40
2.5
  9
$DIMTSZ
 40
0.0
  9
$DIMTOL
 70
     0
  9
$DIMLIM
 70
     0
  9
$DIMTIH
 70
     0
  9
$DIMTOH
 70
     0
  9
$DIMSE1
 70
     0
  9
$DIMSE2
 70
     0
  9
$DIMTAD
 70
     1
  9
$DIMZIN
 70
     8
  9
$DIMBLK
  1

  9
$DIMASO
 70
     1
  9
$DIMSHO
 70
     1
  9
$DIMPOST
  1

  9
$DIMAPOST
  1

  9
$DIMALT
 70
     0
  9
$DIMALTD
 70
     4
  9
$DIMALTF
 40
0.0394
  9
$DIMLFAC
 40
1.0
  9
$DIMTOFL
 70
     1
  9
$DIMTVP
 40
0.0
  9
$DIMTIX
 70
     0
  9
$DIMSOXD
 70
     0
  9
$DIMSAH
 70
     1
  9
$DIMBLK1
  1
_NONE
  9
$DIMBLK2
  1
_NONE
  9
$LUNITS
 70
     2
  9
$LUPREC
 70
     4
  9
$AXISMODE
 70
     0
  9
$AXISUNIT
 10
0.0
 20
0.0
  9
$SKETCHINC
 40
1.0
  9
$FILLETRAD
 40
13.333333
  9
$AUNITS
 70
     0
  9
$AUPREC
 70
     0
  9
$MENU
  1
.
  9
$ELEVATION
 40
0.0
  9
$THICKNESS
 40
0.0
  9
$LIMCHECK
 70
     0
  9
$BLIPMODE
 70
     0
  9
$CHAMFERA
 40
13.333333
  9
$CHAMFERB
 40
13.333333
  9
$SKPOLY
 70
     1
  9
$TDCREATE
 40
2451654.610702639
  9
$TDUPDATE
 40
0.000000000
  9
$TDINDWG
 40
0.3159435417
  9
$TDUSRTIMER
 40
0.0000000000
  9
$USRTIMER
 70
     1
  9
$ANGBASE
 50
0.0
  9
$ANGDIR
 70
     0
  9
$PDMODE
 70
     0
  9
$PDSIZE
 40
0.0
  9
$PLINEWID
 40
0.0
  9
$COORDS
 70
     0
  9
$SPLFRAME
 70
     0
  9
$SPLINETYPE
 70
     6
  9
$SPLINESEGS
 70
     8
  9
$ATTDIA
 70
     0
  9
$ATTREQ
 70
     1
  9
$HANDLING
 70
 10241
  9
$HANDSEED
  5
AD4
  9
$SURFTAB1
 70
     6
  9
$SURFTAB2
 70
     6
  9
$SURFTYPE
 70
     6
  9
$SURFU
 70
     6
  9
$SURFV
 70
     6
  9
$FLATLAND
 70
     0
  9
$UCSNAME
  2

  9
$UCSORG
 10
0.0
 20
0.0
 30
0.0
  9
$UCSXDIR
 10
1.0
 20
0.0
 30
0.0
  9
$UCSYDIR
 10
0.0
 20
1.0
 30
0.0
  9
$USERI1
 70
     0
  9
$USERI2
 70
     0
  9
$USERI3
 70
     0
  9
$USERI4
 70
     0
  9
$USERI5
 70
     0
  9
$USERR1
 40
0.0
  9
$USERR2
 40
0.0
  9
$USERR3
 40
0.0
  9
$USERR4
 40
0.0
  9
$USERR5
 40
0.0
  9
$WORLDVIEW
 70
     1
  0
ENDSEC
  0
SECTION
  2
TABLES
  0
TABLE
  2
VPORT
 70
     1
  0
VPORT
  2
*ACTIVE
 70
     0
 10
0.0
 20
0.0
 11
1.0
 21
1.0
 12
285.000005
 22
198.802136
 13
0.0
 23
0.0
 14
13.0
 24
13.0
 15
13.0
 25
13.0
 16
0.0
 26
0.0
 36
1.0
 17
0.0
 27
0.0
 37
0.0
 40
401.562132
 41
1.595494
 42
50.0
 43
0.0
 44
0.0
 50
0.0
 51
0.0
 71
     0
 72
   100
 73
     1
 74
     0
 75
     0
 76
     0
 77
     0
 78
     0
  0
ENDTAB
  0
TABLE
  2
LTYPE
 70
     3
  0
LTYPE
  2
CONTINUOUS
 70
     0
  3
Solid line
 72
    65
 73
     0
 40
0.0
  0
LTYPE
  2
HIDDEN2
 70
     0
  3
Hidden (.5x) _ _ _ _ _ _ _ _ _ _ _ _ _ _ _ _ _
 72
    65
 73
     2
 40
4.7625
 49
3.175
 49
-1.5875
  0
LTYPE
  2
DASHED2
 70
     0
  3
Dashed (.5x) _ _ _ _ _ _ _ _ _ _ _ _ _ _ _ _ _
 72
    65
 73
     2
 40
9.525
 49
6.35
 49
-3.175
  0
ENDTAB
  0
TABLE
  2
LAYER
 70
     6
  0
LAYER
  2
0
 70
     0
 62
     7
  6
CONTINUOUS
  0
LAYER
  2
STRINGA
 70
     0
 62
     7
  6
CONTINUOUS
  0
LAYER
  2
WAKU
 70
     0
 62
     4
  6
CONTINUOUS
  0
LAYER
  2
PANEL
 70
     0
 62
     6
  6
CONTINUOUS
  0
LAYER
  2
SUNPOU
 70
     0
 62
     3
  6
CONTINUOUS
  0
LAYER
  2
DEFPOINTS
 70
     0
 62
     7
  6
CONTINUOUS
  0
ENDTAB
  0
TABLE
  2
STYLE
 70
     1
  0
STYLE
  2
STANDARD
 70
     0
 40
6.0
 41
1.0
 50
0.0
 71
     0
 42
5.0
  3
txt.shx
  4
bigfont.shx
  0
ENDTAB
  0
TABLE
  2
VIEW
 70
     0
  0
ENDTAB
  0
TABLE
  2
UCS
 70
     0
  0
ENDTAB
  0
ENDSEC
  0
SECTION
  2
BLOCKS
  0
BLOCK
  8
0
  2
$MODEL_SPACE
 70
     0
 10
0.0
 20
0.0
  0
ENDBLK
  8
0
  0
BLOCK
  8
0
  2
$PAPER_SPACE
 70
     0
 10
0.0
 20
0.0
  0
ENDBLK
  8
0
  0
BLOCK
  8
0
  2
_NONE
 70
     0
 10
0.0
 20
0.0
  0
CIRCLE
  8
0
  6
ByBlock
 62
     0
 10
0.0
 20
0.0
 30
0.0
 40
0.25
  0
ENDBLK
  8
0
  0
ENDSEC
  0
SECTION
  2
ENTITIES
  0
POLYLINE
  8
WAKU
  5
252
 66
     1
 10
0.0
 20
0.0
 30
0.0
 70
     1
  0
VERTEX
  8
WAKU
  5
ACE
 10
0.0
 20
0.0
 30
0.0
  0
VERTEX
  8
WAKU
  5
ACF
 10
570.0
 20
0.0
 30
0.0
  0
VERTEX
  8
WAKU
  5
AD0
 10
570.0
 20
396.0
 30
0.0
  0
VERTEX
  8
WAKU
  5
AD1
 10
0.0
 20
396.0
 30
0.0
  0
SEQEND
  8
WAKU
  5
AD2
  0
LINE
  8
WAKU
  5
4F9
 10
5.0
 20
391.0
 30
0.0
 11
565.0
 21
391.0
 31
0.0
  0
LINE
  8
WAKU
  6
CONTINUOUS
  5
4FA
 10
5.0
 20
5.0
 30
0.0
 11
565.0
 21
5.0
 31
0.0
  0
LINE
  8
WAKU
  6
CONTINUOUS
  5
4FB
 10
5.0
 20
25.0
 30
0.0
 11
565.0
 21
25.0
 31
0.0
  0
LINE
  8
WAKU
  5
500
 10
5.0
 20
5.0
 30
0.0
 11
5.0
 21
391.0
 31
0.0
  0
TEXT
  8
WAKU
  5
501
 10
15.0
 20
8.0
 30
0.0
 40
12.0
  1
ビルパネ　B-1745
  0
LINE
  8
WAKU
  6
CONTINUOUS
  5
502
 10
195.0
 20
5.0
 30
0.0
 11
195.0
 21
25.0
 31
0.0
  0
LINE
  8
WAKU
  5
543
 10
565.0
 20
391.0
 30
0.0
 11
565.0
 21
5.0
 31
0.0
  0
LINE
  8
SUNPOU
  5
5D7
 10
400.070689
 20
256.60301
 30
0.0
 11
400.070689
 21
272.22801
 31
0.0
  0
LINE
  8
SUNPOU
  5
5D8
 10
416.070689
 20
256.60301
 30
0.0
 11
416.070689
 21
272.22801
 31
0.0
  0
LINE
  8
SUNPOU
  5
5D9
 10
400.070689
 20
270.97801
 30
0.0
 11
416.070689
 21
270.97801
 31
0.0
  0
POINT
  8
SUNPOU
  5
5DD
 10
416.070689
 20
270.97801
 30
0.0
  0
LINE
  8
STRINGA
  6
HIDDEN2
  5
80D
 10
427.080642
 20
171.437251
 30
0.0
 11
418.188591
 21
233.97801
 31
0.0
  0
LINE
  8
STRINGA
  6
HIDDEN2
  5
80E
 10
428.070685
 20
171.578016
 30
0.0
 11
419.198648
 21
233.97801
 31
0.0
  0
LINE
  8
STRINGA
  6
HIDDEN2
  5
80F
 10
389.060729
 20
171.437251
 30
0.0
 11
397.95278
 21
233.97801
 31
0.0
  0
LINE
  8
STRINGA
  6
HIDDEN2
  5
810
 10
388.070685
 20
171.578016
 30
0.0
 11
396.942723
 21
233.97801
 31
0.0
  0
LINE
  8
PANEL
  6
DASHED2
  5
811
 10
458.070678
 20
171.578016
 30
0.0
 11
358.070678
 21
171.578016
 31
0.0
  0
LINE
  8
PANEL
  6
CONTINUOUS
  5
812
 10
458.070678
 20
170.97801
 30
0.0
 11
358.070678
 21
170.97801
 31
0.0
  0
LINE
  8
STRINGA
  6
HIDDEN2
  5
813
 10
388.070685
 20
171.578016
 30
0.0
 11
389.060729
 21
171.437251
 31
0.0
  0
LINE
  8
STRINGA
  6
HIDDEN2
  5
814
 10
428.070685
 20
171.578016
 30
0.0
 11
427.080642
 21
171.437251
 31
0.0
  0
LINE
  8
PANEL
  6
DASHED2
  5
815
 10
358.070678
 20
233.378004
 30
0.0
 11
458.070678
 21
233.378004
 31
0.0
  0
LINE
  8
PANEL
  6
CONTINUOUS
  5
816
 10
358.070678
 20
233.97801
 30
0.0
 11
458.070678
 21
233.97801
 31
0.0
  0
LINE
  8
STRINGA
  6
CONTINUOUS
  5
817
 10
399.643104
 20
252.970685
 30
0.0
 11
396.942723
 21
233.97801
 31
0.0
  0
LINE
  8
STRINGA
  6
CONTINUOUS
  5
818
 10
400.633147
 20
252.829921
 30
0.0
 11
397.95278
 21
233.97801
 31
0.0
  0
LINE
  8
STRINGA
  6
CONTINUOUS
  5
819
 10
415.508224
 20
252.829921
 30
0.0
 11
418.188591
 21
233.97801
 31
0.0
  0
LINE
  8
STRINGA
  6
CONTINUOUS
  5
81A
 10
416.498267
 20
252.970685
 30
0.0
 11
419.198648
 21
233.97801
 31
0.0
  0
ARC
  8
STRINGA
  6
CONTINUOUS
  5
81B
 10
403.108255
 20
252.47801
 30
0.0
 40
2.5
 50
90.0
 51
171.907917
  0
ARC
  8
STRINGA
  6
CONTINUOUS
  5
81C
 10
403.108255
 20
252.47801
 30
0.0
 40
3.5
 50
90.0
 51
171.907917
  0
ARC
  8
STRINGA
  6
CONTINUOUS
  5
81D
 10
413.033116
 20
252.47801
 30
0.0
 40
3.5
 50
8.092083
 51
90.0
  0
LINE
  8
STRINGA
  6
CONTINUOUS
  5
81E
 10
403.108255
 20
254.97801
 30
0.0
 11
413.033116
 21
254.97801
 31
0.0
  0
LINE
  8
STRINGA
  6
CONTINUOUS
  5
81F
 10
403.108255
 20
255.97801
 30
0.0
 11
413.033116
 21
255.97801
 31
0.0
  0
ARC
  8
STRINGA
  6
CONTINUOUS
  5
820
 10
413.033116
 20
252.47801
 30
0.0
 40
2.5
 50
8.092083
 51
90.0
  0
LINE
  8
SUNPOU
  5
83C
 10
402.483255
 20
255.97801
 30
0.0
 11
341.820685
 21
255.97801
 31
0.0
  0
LINE
  8
SUNPOU
  5
83D
 10
357.445678
 20
170.97801
 30
0.0
 11
341.820685
 21
170.97801
 31
0.0
  0
LINE
  8
SUNPOU
  5
83E
 10
343.070685
 20
255.97801
 30
0.0
 11
343.070685
 21
170.97801
 31
0.0
  0
POINT
  8
SUNPOU
  5
842
 10
343.070685
 20
170.97801
 30
0.0
  0
LINE
  8
SUNPOU
  5
843
 10
388.070685
 20
170.953016
 30
0.0
 11
388.070685
 21
154.72801
 31
0.0
  0
LINE
  8
SUNPOU
  5
844
 10
428.070685
 20
170.953016
 30
0.0
 11
428.070685
 21
154.72801
 31
0.0
  0
LINE
  8
SUNPOU
  5
845
 10
388.070685
 20
155.97801
 30
0.0
 11
428.070685
 21
155.97801
 31
0.0
  0
POINT
  8
SUNPOU
  5
849
 10
428.070685
 20
155.97801
 30
0.0
  0
LINE
  8
PANEL
  6
CONTINUOUS
  5
981
 10
159.274466
 20
146.033762
 30
0.0
 11
111.191214
 21
97.95051
 31
0.0
  0
LINE
  8
PANEL
  6
CONTINUOUS
  5
982
 10
159.698783
 20
145.609445
 30
0.0
 11
111.615531
 21
97.526193
 31
0.0
  0
LINE
  8
PANEL
  6
CONTINUOUS
  5
983
 10
114.777396
 20
84.565988
 30
0.0
 11
119.796439
 21
83.221262
 31
0.0
  0
LINE
  8
PANEL
  6
CONTINUOUS
  5
984
 10
119.951956
 20
83.801096
 30
0.0
 11
114.598441
 21
85.235422
 31
0.0
  0
ARC
  8
PANEL
  6
CONTINUOUS
  5
985
 10
116.848197
 20
92.293771
 30
0.0
 40
7.999902
 50
135.000618
 51
254.999552
  0
ARC
  8
PANEL
  6
CONTINUOUS
  5
986
 10
116.848197
 20
92.293771
 30
0.0
 40
7.400109
 50
134.999582
 51
254.999802
  0
LINE
  8
PANEL
  6
CONTINUOUS
  5
987
 10
119.951956
 20
83.801096
 30
0.0
 11
119.796439
 21
83.221262
 31
0.0
  0
LINE
  8
PANEL
  6
CONTINUOUS
  5
988
 10
159.698783
 20
318.009445
 30
0.0
 11
111.615531
 21
269.926193
 31
0.0
  0
LINE
  8
PANEL
  6
CONTINUOUS
  5
989
 10
159.274466
 20
318.433762
 30
0.0
 11
111.191214
 21
270.35051
 31
0.0
  0
LINE
  8
PANEL
  6
CONTINUOUS
  5
98A
 10
119.951956
 20
256.201096
 30
0.0
 11
114.598441
 21
257.635422
 31
0.0
  0
LINE
  8
PANEL
  6
CONTINUOUS
  5
98B
 10
114.777396
 20
256.965988
 30
0.0
 11
119.796439
 21
255.621262
 31
0.0
  0
ARC
  8
PANEL
  6
CONTINUOUS
  5
98C
 10
116.848197
 20
264.693771
 30
0.0
 40
7.999902
 50
135.000618
 51
254.999552
  0
ARC
  8
PANEL
  6
CONTINUOUS
  5
98D
 10
116.848197
 20
264.693771
 30
0.0
 40
7.400109
 50
134.999582
 51
254.999802
  0
LINE
  8
PANEL
  6
CONTINUOUS
  5
98F
 10
172.658744
 20
142.447336
 30
0.0
 11
174.00347
 21
137.428293
 31
0.0
  0
LINE
  8
PANEL
  6
CONTINUOUS
  5
990
 10
173.42388
 20
137.273019
 30
0.0
 11
171.989554
 21
142.626535
 31
0.0
  0
LINE
  8
PANEL
  6
CONTINUOUS
  5
991
 10
173.42388
 20
137.273019
 30
0.0
 11
174.00347
 21
137.428293
 31
0.0
  0
ARC
  8
PANEL
  6
CONTINUOUS
  5
992
 10
164.931449
 20
140.377023
 30
0.0
 40
7.400053
 50
15.000176
 51
134.999582
  0
ARC
  8
PANEL
  6
CONTINUOUS
  5
993
 10
164.931449
 20
140.377023
 30
0.0
 40
8.000095
 50
15.00008
 51
134.999382
  0
LINE
  8
PANEL
  6
CONTINUOUS
  5
995
 10
119.951956
 20
256.201096
 30
0.0
 11
119.796439
 21
255.621262
 31
0.0
  0
ARC
  8
PANEL
  6
CONTINUOUS
  5
996
 10
164.931449
 20
312.777023
 30
0.0
 40
7.400053
 50
15.000176
 51
134.999582
  0
ARC
  8
PANEL
  6
CONTINUOUS
  5
997
 10
164.931449
 20
312.777023
 30
0.0
 40
8.000095
 50
15.00008
 51
134.999382
  0
LINE
  8
PANEL
  6
CONTINUOUS
  5
998
 10
173.42388
 20
309.673019
 30
0.0
 11
174.00347
 21
309.828293
 31
0.0
  0
LINE
  8
PANEL
  6
CONTINUOUS
  5
999
 10
173.42388
 20
309.673019
 30
0.0
 11
171.989554
 21
315.026535
 31
0.0
  0
LINE
  8
PANEL
  6
CONTINUOUS
  5
99A
 10
172.658744
 20
314.847336
 30
0.0
 11
174.00347
 21
309.828293
 31
0.0
  0
LINE
  8
0
  6
CONTINUOUS
  5
9B3
 10
157.998358
 20
143.908762
 30
0.0
 11
113.316229
 21
99.226633
 31
0.0
  0
LINE
  8
0
  6
CONTINUOUS
  5
9B4
 10
193.848295
 20
30.04133
 30
0.0
 11
193.848295
 21
374.841232
 31
0.0
  0
ARC
  8
0
  6
CONTINUOUS
  5
9B5
 10
137.348197
 20
57.003244
 30
0.0
 40
37.499969
 50
0.0
 51
129.853146
  0
ARC
  8
0
  6
CONTINUOUS
  5
9B6
 10
120.033744
 20
92.509103
 30
0.0
 40
9.50001
 50
134.999935
 51
225.000065
  0
LINE
  8
0
  6
CONTINUOUS
  5
9B7
 10
174.848197
 20
57.003244
 30
0.0
 11
174.848197
 21
30.04133
 31
0.0
  0
LINE
  8
0
  6
CONTINUOUS
  5
9B8
 10
157.998358
 20
316.308762
 30
0.0
 11
113.316229
 21
271.626633
 31
0.0
  0
ARC
  8
0
  6
CONTINUOUS
  5
9B9
 10
137.348197
 20
229.403244
 30
0.0
 40
37.499969
 50
0.0
 51
129.853146
  0
ARC
  8
0
  6
CONTINUOUS
  5
9BA
 10
120.033744
 20
264.909103
 30
0.0
 40
9.50001
 50
134.999935
 51
225.000065
  0
LINE
  8
0
  6
CONTINUOUS
  5
9BB
 10
174.848197
 20
229.403244
 30
0.0
 11
174.848197
 21
202.44133
 31
0.0
  0
LINE
  8
0
  6
CONTINUOUS
  5
9BC
 10
174.848197
 20
202.441232
 30
0.0
 11
174.848197
 21
136.769601
 31
0.0
  0
LINE
  8
0
  6
CONTINUOUS
  5
9BD
 10
171.320853
 20
144.019601
 30
0.0
 11
169.348197
 21
142.039377
 31
0.0
  0
ARC
  8
0
  6
CONTINUOUS
  5
9BE
 10
172.098197
 20
136.769601
 30
0.0
 40
2.75
 50
180.0
 51
0.0
  0
LINE
  8
0
  6
CONTINUOUS
  5
9BF
 10
169.348197
 20
142.039377
 30
0.0
 11
169.348197
 21
136.769601
 31
0.0
  0
ARC
  8
0
  6
CONTINUOUS
  5
9C0
 10
164.715872
 20
137.191232
 30
0.0
 40
9.50001
 50
45.953044
 51
134.999935
  0
LINE
  8
0
  6
CONTINUOUS
  5
9C2
 10
174.848197
 20
374.841232
 30
0.0
 11
174.848197
 21
309.169601
 31
0.0
  0
ARC
  8
0
  6
CONTINUOUS
  5
9C3
 10
164.715872
 20
309.591232
 30
0.0
 40
9.50001
 50
45.953044
 51
134.999935
  0
ARC
  8
0
  6
CONTINUOUS
  5
9C4
 10
172.098197
 20
309.169601
 30
0.0
 40
2.75
 50
180.0
 51
0.0
  0
LINE
  8
0
  6
CONTINUOUS
  5
9C5
 10
169.348197
 20
314.439377
 30
0.0
 11
169.348197
 21
309.169601
 31
0.0
  0
LINE
  8
0
  6
CONTINUOUS
  5
9C6
 10
171.320853
 20
316.419601
 30
0.0
 11
169.348197
 21
314.439377
 31
0.0
  0
LINE
  8
SUNPOU
  5
A21
 10
164.306449
 20
320.777119
 30
0.0
 11
77.598197
 21
320.777119
 31
0.0
  0
LINE
  8
SUNPOU
  5
A22
 10
119.171439
 20
255.621262
 30
0.0
 11
77.598197
 21
255.621262
 31
0.0
  0
LINE
  8
SUNPOU
  5
A23
 10
78.848197
 20
320.777119
 30
0.0
 11
78.848197
 21
255.621262
 31
0.0
  0
POINT
  8
SUNPOU
  5
A27
 10
78.848197
 20
255.621262
 30
0.0
  0
LINE
  8
SUNPOU
  5
A28
 10
108.848295
 20
265.318771
 30
0.0
 11
108.848295
 21
343.365646
 31
0.0
  0
LINE
  8
SUNPOU
  5
A2A
 10
108.848295
 20
342.115646
 30
0.0
 11
193.848295
 21
342.115646
 31
0.0
  0
LINE
  8
SUNPOU
  5
A2F
 10
119.171439
 20
255.621262
 30
0.0
 11
92.598197
 21
255.621262
 31
0.0
  0
LINE
  8
SUNPOU
  5
A30
 10
164.306449
 20
148.377119
 30
0.0
 11
92.598197
 21
148.377119
 31
0.0
  0
LINE
  8
SUNPOU
  5
A31
 10
93.848197
 20
255.621262
 30
0.0
 11
93.848197
 21
148.377119
 31
0.0
  0
POINT
  8
SUNPOU
  5
A35
 10
93.848197
 20
148.377119
 30
0.0
  0
LINE
  8
SUNPOU
  5
A36
 10
118.546439
 20
255.621262
 30
0.0
 11
77.598197
 21
255.621262
 31
0.0
  0
LINE
  8
SUNPOU
  5
A37
 10
119.171439
 20
83.221262
 30
0.0
 11
77.598197
 21
83.221262
 31
0.0
  0
LINE
  8
SUNPOU
  5
A38
 10
78.848197
 20
255.621262
 30
0.0
 11
78.848197
 21
83.221262
 31
0.0
  0
POINT
  8
DEFPOINTS
  6
ByBlock
 62
     0
  5
A3C
 10
78.848197
 20
83.221262
 30
0.0
  0
ARC
  8
SUNPOU
  5
A48
 10
108.848295
 20
268.00759
 30
0.0
 40
42.191234
 50
45.0
 51
90.0
  0
TEXT
  8
SUNPOU
  5
A88
 10
93.223197
 20
191.49919
 30
0.0
 40
6.0
  1
107.4
 50
90.0
  0
TEXT
  8
SUNPOU
  5
A89
 10
78.223197
 20
158.421262
 30
0.0
 40
6.0
  1
172.4
 50
90.0
  0
TEXT
  8
SUNPOU
  5
A8A
 10
78.223197
 20
283.19919
 30
0.0
 40
6.0
  1
65
 50
90.0
  0
TEXT
  8
SUNPOU
  5
A8B
 10
116.364115
 20
311.238388
 30
0.0
 40
6.0
  1
45°
 50
337.500033
  0
TEXT
  8
SUNPOU
  5
A8C
 10
403.570685
 20
156.60301
 30
0.0
 40
6.0
  1
40
  0
TEXT
  8
SUNPOU
  5
A8D
 10
342.445685
 20
208.47801
 30
0.0
 40
6.0
  1
85
 50
90.0
  0
TEXT
  8
SUNPOU
  5
A8E
 10
404.070689
 20
271.60301
 30
0.0
 40
6.0
  1
16
  0
TEXT
  8
SUNPOU
  5
A8F
 10
146.348295
 20
342.740646
 30
0.0
 40
6.0
  1
85
  0
ENDSEC
  0
EOF
