  0
SECTION
  2
HEADER
  9
$ACADVER
  1
AC1006
  9
$INSBASE
 10
0.0
 20
0.0
 30
0.0
  9
$EXTMIN
 10
0.0
 20
0.0
  9
$EXTMAX
 10
570.0
 20
396.0
  9
$LIMMIN
 10
0.0
 20
0.0
  9
$LIMMAX
 10
570.0
 20
396.0
  9
$VIEWCTR
 10
6.591288
 20
4.579184
  9
$VIEWSIZE
 40
9.158369
  9
$SNAPMODE
 70
     0
  9
$SNAPUNIT
 10
1.0
 20
1.0
  9
$SNAPBASE
 10
0.0
 20
0.0
  9
$SNAPANG
 50
0.0
  9
$SNAPSTYLE
 70
     0
  9
$SNAPISOPAIR
 70
     0
  9
$GRIDMODE
 70
     0
  9
$GRIDUNIT
 10
0.0
 20
0.0
  9
$ORTHOMODE
 70
     1
  9
$REGENMODE
 70
     1
  9
$FILLMODE
 70
     1
  9
$QTEXTMODE
 70
     0
  9
$MIRRTEXT
 70
     1
  9
$DRAGMODE
 70
     2
  9
$LTSCALE
 40
1.333333
  9
$OSMODE
 70
    43
  9
$ATTMODE
 70
     1
  9
$TEXTSIZE
 40
5.0
  9
$TRACEWID
 40
1.0
  9
$TEXTSTYLE
  7
STANDARD
  9
$CLAYER
  8
SUNPOU
  9
$CELTYPE
  6
ByLayer
  9
$CECOLOR
 62
   256
  9
$DIMSCALE
 40
1.0
  9
$DIMASZ
 40
2.5
  9
$DIMEXO
 40
0.625
  9
$DIMDLI
 40
3.75
  9
$DIMRND
 40
0.0
  9
$DIMDLE
 40
0.0
  9
$DIMEXE
 40
1.25
  9
$DIMTP
 40
0.0
  9
$DIMTM
 40
0.0
  9
$DIMTXT
 40
6.0
  9
$DIMCEN
 40
2.5
  9
$DIMTSZ
 40
0.0
  9
$DIMTOL
 70
     0
  9
$DIMLIM
 70
     0
  9
$DIMTIH
 70
     0
  9
$DIMTOH
 70
     0
  9
$DIMSE1
 70
     0
  9
$DIMSE2
 70
     0
  9
$DIMTAD
 70
     1
  9
$DIMZIN
 70
     8
  9
$DIMBLK
  1

  9
$DIMASO
 70
     1
  9
$DIMSHO
 70
     1
  9
$DIMPOST
  1

  9
$DIMAPOST
  1

  9
$DIMALT
 70
     0
  9
$DIMALTD
 70
     4
  9
$DIMALTF
 40
0.0394
  9
$DIMLFAC
 40
1.0
  9
$DIMTOFL
 70
     1
  9
$DIMTVP
 40
0.0
  9
$DIMTIX
 70
     0
  9
$DIMSOXD
 70
     0
  9
$DIMSAH
 70
     1
  9
$DIMBLK1
  1
_NONE
  9
$DIMBLK2
  1
_NONE
  9
$LUNITS
 70
     2
  9
$LUPREC
 70
     4
  9
$AXISMODE
 70
     0
  9
$AXISUNIT
 10
0.0
 20
0.0
  9
$SKETCHINC
 40
1.0
  9
$FILLETRAD
 40
13.333333
  9
$AUNITS
 70
     0
  9
$AUPREC
 70
     0
  9
$MENU
  1
.
  9
$ELEVATION
 40
0.0
  9
$THICKNESS
 40
0.0
  9
$LIMCHECK
 70
     0
  9
$BLIPMODE
 70
     0
  9
$CHAMFERA
 40
13.333333
  9
$CHAMFERB
 40
13.333333
  9
$SKPOLY
 70
     1
  9
$TDCREATE
 40
2451654.610702639
  9
$TDUPDATE
 40
0.000000000
  9
$TDINDWG
 40
0.3088394329
  9
$TDUSRTIMER
 40
0.0000000000
  9
$USRTIMER
 70
     1
  9
$ANGBASE
 50
0.0
  9
$ANGDIR
 70
     0
  9
$PDMODE
 70
     0
  9
$PDSIZE
 40
0.0
  9
$PLINEWID
 40
0.0
  9
$COORDS
 70
     0
  9
$SPLFRAME
 70
     0
  9
$SPLINETYPE
 70
     6
  9
$SPLINESEGS
 70
     8
  9
$ATTDIA
 70
     0
  9
$ATTREQ
 70
     1
  9
$HANDLING
 70
 10241
  9
$HANDSEED
  5
989
  9
$SURFTAB1
 70
     6
  9
$SURFTAB2
 70
     6
  9
$SURFTYPE
 70
     6
  9
$SURFU
 70
     6
  9
$SURFV
 70
     6
  9
$FLATLAND
 70
     0
  9
$UCSNAME
  2

  9
$UCSORG
 10
0.0
 20
0.0
 30
0.0
  9
$UCSXDIR
 10
1.0
 20
0.0
 30
0.0
  9
$UCSYDIR
 10
0.0
 20
1.0
 30
0.0
  9
$USERI1
 70
     0
  9
$USERI2
 70
     0
  9
$USERI3
 70
     0
  9
$USERI4
 70
     0
  9
$USERI5
 70
     0
  9
$USERR1
 40
0.0
  9
$USERR2
 40
0.0
  9
$USERR3
 40
0.0
  9
$USERR4
 40
0.0
  9
$USERR5
 40
0.0
  9
$WORLDVIEW
 70
     1
  0
ENDSEC
  0
SECTION
  2
TABLES
  0
TABLE
  2
VPORT
 70
     1
  0
VPORT
  2
*ACTIVE
 70
     0
 10
0.0
 20
0.0
 11
1.0
 21
1.0
 12
285.000005
 22
198.802136
 13
0.0
 23
0.0
 14
13.0
 24
13.0
 15
13.0
 25
13.0
 16
0.0
 26
0.0
 36
1.0
 17
0.0
 27
0.0
 37
0.0
 40
401.544171
 41
1.595494
 42
50.0
 43
0.0
 44
0.0
 50
0.0
 51
0.0
 71
     0
 72
   100
 73
     1
 74
     0
 75
     0
 76
     0
 77
     0
 78
     0
  0
ENDTAB
  0
TABLE
  2
LTYPE
 70
     3
  0
LTYPE
  2
CONTINUOUS
 70
     0
  3
Solid line
 72
    65
 73
     0
 40
0.0
  0
LTYPE
  2
HIDDEN2
 70
     0
  3
Hidden (.5x) _ _ _ _ _ _ _ _ _ _ _ _ _ _ _ _ _
 72
    65
 73
     2
 40
4.7625
 49
3.175
 49
-1.5875
  0
LTYPE
  2
DASHED2
 70
     0
  3
Dashed (.5x) _ _ _ _ _ _ _ _ _ _ _ _ _ _ _ _ _
 72
    65
 73
     2
 40
9.525
 49
6.35
 49
-3.175
  0
ENDTAB
  0
TABLE
  2
LAYER
 70
     6
  0
LAYER
  2
0
 70
     0
 62
     7
  6
CONTINUOUS
  0
LAYER
  2
STRINGA
 70
     0
 62
     7
  6
CONTINUOUS
  0
LAYER
  2
WAKU
 70
     0
 62
     4
  6
CONTINUOUS
  0
LAYER
  2
PANEL
 70
     0
 62
     6
  6
CONTINUOUS
  0
LAYER
  2
SUNPOU
 70
     0
 62
     3
  6
CONTINUOUS
  0
LAYER
  2
DEFPOINTS
 70
     0
 62
     7
  6
CONTINUOUS
  0
ENDTAB
  0
TABLE
  2
STYLE
 70
     1
  0
STYLE
  2
STANDARD
 70
     0
 40
6.0
 41
1.0
 50
0.0
 71
     0
 42
5.0
  3
txt.shx
  4
bigfont.shx
  0
ENDTAB
  0
TABLE
  2
VIEW
 70
     0
  0
ENDTAB
  0
TABLE
  2
UCS
 70
     0
  0
ENDTAB
  0
ENDSEC
  0
SECTION
  2
BLOCKS
  0
BLOCK
  8
0
  2
$MODEL_SPACE
 70
     0
 10
0.0
 20
0.0
  0
ENDBLK
  8
0
  0
BLOCK
  8
0
  2
$PAPER_SPACE
 70
     0
 10
0.0
 20
0.0
  0
ENDBLK
  8
0
  0
BLOCK
  8
0
  2
_NONE
 70
     0
 10
0.0
 20
0.0
  0
CIRCLE
  8
0
  6
ByBlock
 62
     0
 10
0.0
 20
0.0
 30
0.0
 40
0.25
  0
ENDBLK
  8
0
  0
ENDSEC
  0
SECTION
  2
ENTITIES
  0
POLYLINE
  8
WAKU
  5
252
 66
     1
 10
0.0
 20
0.0
 30
0.0
 70
     1
  0
VERTEX
  8
WAKU
  5
983
 10
0.0
 20
0.0
 30
0.0
  0
VERTEX
  8
WAKU
  5
984
 10
570.0
 20
0.0
 30
0.0
  0
VERTEX
  8
WAKU
  5
985
 10
570.0
 20
396.0
 30
0.0
  0
VERTEX
  8
WAKU
  5
986
 10
0.0
 20
396.0
 30
0.0
  0
SEQEND
  8
WAKU
  5
987
  0
LINE
  8
WAKU
  5
4F9
 10
5.0
 20
391.0
 30
0.0
 11
565.0
 21
391.0
 31
0.0
  0
LINE
  8
WAKU
  6
CONTINUOUS
  5
4FA
 10
5.0
 20
5.0
 30
0.0
 11
565.0
 21
5.0
 31
0.0
  0
LINE
  8
WAKU
  6
CONTINUOUS
  5
4FB
 10
5.0
 20
25.0
 30
0.0
 11
565.0
 21
25.0
 31
0.0
  0
LINE
  8
WAKU
  5
500
 10
5.0
 20
5.0
 30
0.0
 11
5.0
 21
391.0
 31
0.0
  0
TEXT
  8
WAKU
  5
501
 10
15.0
 20
8.0
 30
0.0
 40
12.0
  1
ビルパネ　B-1730
  0
LINE
  8
WAKU
  6
CONTINUOUS
  5
502
 10
195.0
 20
5.0
 30
0.0
 11
195.0
 21
25.0
 31
0.0
  0
LINE
  8
WAKU
  5
543
 10
565.0
 20
391.0
 30
0.0
 11
565.0
 21
5.0
 31
0.0
  0
LINE
  8
SUNPOU
  5
5D7
 10
400.070689
 20
256.60301
 30
0.0
 11
400.070689
 21
272.22801
 31
0.0
  0
LINE
  8
SUNPOU
  5
5D8
 10
416.070689
 20
256.60301
 30
0.0
 11
416.070689
 21
272.22801
 31
0.0
  0
LINE
  8
SUNPOU
  5
5D9
 10
400.070689
 20
270.97801
 30
0.0
 11
416.070689
 21
270.97801
 31
0.0
  0
POINT
  8
SUNPOU
  5
5DD
 10
416.070689
 20
270.97801
 30
0.0
  0
LINE
  8
STRINGA
  6
HIDDEN2
  5
610
 10
426.08142
 20
181.431848
 30
0.0
 11
418.312489
 21
233.978006
 31
0.0
  0
LINE
  8
STRINGA
  6
HIDDEN2
  5
611
 10
427.070666
 20
181.578107
 30
0.0
 11
419.323359
 21
233.978006
 31
0.0
  0
LINE
  8
STRINGA
  6
HIDDEN2
  5
612
 10
390.059913
 20
181.431848
 30
0.0
 11
397.828844
 21
233.978006
 31
0.0
  0
LINE
  8
STRINGA
  6
HIDDEN2
  5
613
 10
389.070666
 20
181.578107
 30
0.0
 11
396.817973
 21
233.978006
 31
0.0
  0
LINE
  8
PANEL
  6
DASHED2
  5
614
 10
458.070678
 20
181.578107
 30
0.0
 11
358.070663
 21
181.578107
 31
0.0
  0
LINE
  8
PANEL
  6
CONTINUOUS
  5
615
 10
458.070678
 20
180.97801
 30
0.0
 11
358.070663
 21
180.97801
 31
0.0
  0
LINE
  8
STRINGA
  6
HIDDEN2
  5
616
 10
389.070666
 20
181.578107
 30
0.0
 11
390.059913
 21
181.431848
 31
0.0
  0
LINE
  8
STRINGA
  6
HIDDEN2
  5
617
 10
427.070666
 20
181.578107
 30
0.0
 11
426.08142
 21
181.431848
 31
0.0
  0
LINE
  8
PANEL
  6
DASHED2
  5
618
 10
358.070663
 20
233.377908
 30
0.0
 11
458.070678
 21
233.377908
 31
0.0
  0
LINE
  8
PANEL
  6
CONTINUOUS
  5
619
 10
358.070663
 20
233.978006
 30
0.0
 11
458.070678
 21
233.978006
 31
0.0
  0
LINE
  8
STRINGA
  6
CONTINUOUS
  5
61A
 10
399.628878
 20
252.989919
 30
0.0
 11
396.817973
 21
233.978006
 31
0.0
  0
LINE
  8
STRINGA
  6
CONTINUOUS
  5
61B
 10
400.618124
 20
252.843659
 30
0.0
 11
397.828844
 21
233.978006
 31
0.0
  0
LINE
  8
STRINGA
  6
CONTINUOUS
  5
61C
 10
415.523208
 20
252.843659
 30
0.0
 11
418.312489
 21
233.978006
 31
0.0
  0
LINE
  8
STRINGA
  6
CONTINUOUS
  5
61D
 10
416.512455
 20
252.989919
 30
0.0
 11
419.323359
 21
233.978006
 31
0.0
  0
ARC
  8
STRINGA
  6
CONTINUOUS
  5
61E
 10
413.050093
 20
252.47801
 30
0.0
 40
2.5
 50
8.410233
 51
90.0
  0
ARC
  8
STRINGA
  6
CONTINUOUS
  5
61F
 10
413.050093
 20
252.47801
 30
0.0
 40
3.5
 50
8.410233
 51
90.0
  0
LINE
  8
STRINGA
  6
CONTINUOUS
  5
620
 10
403.09124
 20
254.97801
 30
0.0
 11
413.050093
 21
254.97801
 31
0.0
  0
LINE
  8
STRINGA
  6
CONTINUOUS
  5
621
 10
403.09124
 20
255.97801
 30
0.0
 11
413.050093
 21
255.97801
 31
0.0
  0
ARC
  8
STRINGA
  6
CONTINUOUS
  5
622
 10
403.09124
 20
252.47801
 30
0.0
 40
2.5
 50
90.0
 51
171.589767
  0
ARC
  8
STRINGA
  6
CONTINUOUS
  5
623
 10
403.09124
 20
252.47801
 30
0.0
 40
3.5
 50
90.0
 51
171.589767
  0
LINE
  8
SUNPOU
  5
64A
 10
402.46624
 20
255.97801
 30
0.0
 11
341.820685
 21
255.97801
 31
0.0
  0
LINE
  8
SUNPOU
  5
64B
 10
357.445663
 20
180.97801
 30
0.0
 11
341.820685
 21
180.97801
 31
0.0
  0
LINE
  8
SUNPOU
  5
64C
 10
343.070685
 20
255.97801
 30
0.0
 11
343.070685
 21
180.97801
 31
0.0
  0
POINT
  8
SUNPOU
  5
650
 10
343.070685
 20
180.97801
 30
0.0
  0
LINE
  8
SUNPOU
  5
651
 10
389.070666
 20
180.953107
 30
0.0
 11
389.070666
 21
164.72801
 31
0.0
  0
LINE
  8
SUNPOU
  5
652
 10
427.070666
 20
180.953107
 30
0.0
 11
427.070666
 21
164.72801
 31
0.0
  0
LINE
  8
SUNPOU
  5
653
 10
389.070666
 20
165.97801
 30
0.0
 11
427.070666
 21
165.97801
 31
0.0
  0
POINT
  8
SUNPOU
  5
657
 10
427.070666
 20
165.97801
 30
0.0
  0
LINE
  8
PANEL
  6
CONTINUOUS
  5
810
 10
154.439505
 20
149.826463
 30
0.0
 11
120.439505
 21
90.936815
 31
0.0
  0
LINE
  8
PANEL
  6
CONTINUOUS
  5
811
 10
153.91973
 20
150.126512
 30
0.0
 11
119.91973
 21
91.23662
 31
0.0
  0
LINE
  8
PANEL
  6
CONTINUOUS
  5
812
 10
132.044242
 20
79.836961
 30
0.0
 11
126.501761
 21
79.836717
 31
0.0
  0
LINE
  8
PANEL
  6
CONTINUOUS
  5
813
 10
126.847953
 20
79.236375
 30
0.0
 11
132.043997
 21
79.23662
 31
0.0
  0
ARC
  8
PANEL
  6
CONTINUOUS
  5
814
 10
126.848197
 20
87.236864
 30
0.0
 40
8.0
 50
150.000015
 51
270.0
  0
ARC
  8
PANEL
  6
CONTINUOUS
  5
815
 10
126.848197
 20
87.236864
 30
0.0
 40
7.399903
 50
150.000708
 51
270.0
  0
LINE
  8
PANEL
  6
CONTINUOUS
  5
816
 10
132.044242
 20
79.836961
 30
0.0
 11
132.043997
 21
79.23662
 31
0.0
  0
LINE
  8
PANEL
  6
CONTINUOUS
  5
817
 10
154.439505
 20
322.226463
 30
0.0
 11
120.439505
 21
263.336815
 31
0.0
  0
LINE
  8
PANEL
  6
CONTINUOUS
  5
818
 10
153.91973
 20
322.526512
 30
0.0
 11
119.91973
 21
263.63662
 31
0.0
  0
ARC
  8
PANEL
  6
CONTINUOUS
  5
819
 10
160.848197
 20
146.126512
 30
0.0
 40
7.400064
 50
30.000225
 51
150.000728
  0
ARC
  8
PANEL
  6
CONTINUOUS
  5
81A
 10
160.848197
 20
146.126512
 30
0.0
 40
8.000017
 50
29.99993
 51
150.00007
  0
LINE
  8
PANEL
  6
CONTINUOUS
  5
81B
 10
169.854544
 20
145.326463
 30
0.0
 11
167.083548
 21
150.126268
 31
0.0
  0
LINE
  8
PANEL
  6
CONTINUOUS
  5
81C
 10
167.776175
 20
150.126268
 30
0.0
 11
170.37432
 21
145.626268
 31
0.0
  0
LINE
  8
PANEL
  6
CONTINUOUS
  5
81D
 10
169.854544
 20
145.326463
 30
0.0
 11
170.37432
 21
145.626268
 31
0.0
  0
LINE
  8
PANEL
  6
CONTINUOUS
  5
81E
 10
132.044242
 20
252.236961
 30
0.0
 11
126.501761
 21
252.236717
 31
0.0
  0
LINE
  8
PANEL
  6
CONTINUOUS
  5
81F
 10
126.847953
 20
251.636375
 30
0.0
 11
132.043997
 21
251.63662
 31
0.0
  0
ARC
  8
PANEL
  6
CONTINUOUS
  5
820
 10
126.848197
 20
259.636864
 30
0.0
 40
8.0
 50
150.000015
 51
270.0
  0
ARC
  8
PANEL
  6
CONTINUOUS
  5
821
 10
126.848197
 20
259.636864
 30
0.0
 40
7.399903
 50
150.000708
 51
270.0
  0
LINE
  8
PANEL
  6
CONTINUOUS
  5
822
 10
132.044242
 20
252.236961
 30
0.0
 11
132.043997
 21
251.63662
 31
0.0
  0
ARC
  8
PANEL
  6
CONTINUOUS
  5
823
 10
160.848197
 20
318.526512
 30
0.0
 40
7.400064
 50
30.000225
 51
150.000728
  0
ARC
  8
PANEL
  6
CONTINUOUS
  5
824
 10
160.848197
 20
318.526512
 30
0.0
 40
8.000017
 50
29.99993
 51
150.00007
  0
LINE
  8
PANEL
  6
CONTINUOUS
  5
825
 10
169.854544
 20
317.726463
 30
0.0
 11
167.083548
 21
322.526268
 31
0.0
  0
LINE
  8
PANEL
  6
CONTINUOUS
  5
826
 10
167.776175
 20
322.526268
 30
0.0
 11
170.37432
 21
318.026268
 31
0.0
  0
LINE
  8
PANEL
  6
CONTINUOUS
  5
827
 10
169.854544
 20
317.726463
 30
0.0
 11
170.37432
 21
318.026268
 31
0.0
  0
LINE
  8
STRINGA
  6
CONTINUOUS
  5
842
 10
153.237112
 20
147.743456
 30
0.0
 11
121.64223
 21
93.019291
 31
0.0
  0
LINE
  8
STRINGA
  6
CONTINUOUS
  5
843
 10
193.848197
 20
30.041307
 30
0.0
 11
193.848197
 21
374.841255
 31
0.0
  0
LINE
  8
STRINGA
  6
CONTINUOUS
  5
844
 10
174.848304
 20
56.365038
 30
0.0
 11
174.848304
 21
30.041307
 31
0.0
  0
ARC
  8
STRINGA
  6
CONTINUOUS
  5
845
 10
144.348197
 20
56.365038
 30
0.0
 40
30.500076
 50
0.0
 51
129.079754
  0
ARC
  8
STRINGA
  6
CONTINUOUS
  5
846
 10
129.869437
 20
88.269334
 30
0.0
 40
9.499949
 50
150.000125
 51
240.010021
  0
LINE
  8
STRINGA
  6
CONTINUOUS
  5
847
 10
153.237112
 20
320.143456
 30
0.0
 11
121.64223
 21
265.419291
 31
0.0
  0
LINE
  8
STRINGA
  6
CONTINUOUS
  5
848
 10
174.848304
 20
228.765038
 30
0.0
 11
174.848304
 21
202.441307
 31
0.0
  0
LINE
  8
STRINGA
  6
CONTINUOUS
  5
849
 10
174.848304
 20
202.441255
 30
0.0
 11
174.848304
 21
143.891405
 31
0.0
  0
ARC
  8
STRINGA
  6
CONTINUOUS
  5
84A
 10
161.464408
 20
142.993456
 30
0.0
 40
9.500047
 50
60.952967
 51
150.000162
  0
ARC
  8
STRINGA
  6
CONTINUOUS
  5
84B
 10
172.098197
 20
143.891405
 30
0.0
 40
2.75011
 50
213.499532
 51
0.0
  0
LINE
  8
STRINGA
  6
CONTINUOUS
  5
84C
 10
165.064017
 20
149.536668
 30
0.0
 11
169.804984
 21
142.373582
 31
0.0
  0
LINE
  8
STRINGA
  6
CONTINUOUS
  5
84D
 10
166.076956
 20
151.298875
 30
0.0
 11
165.064017
 21
149.536668
 31
0.0
  0
ARC
  8
STRINGA
  6
CONTINUOUS
  5
84E
 10
144.348197
 20
228.765038
 30
0.0
 40
30.500076
 50
0.0
 51
129.079754
  0
ARC
  8
STRINGA
  6
CONTINUOUS
  5
84F
 10
129.869437
 20
260.669334
 30
0.0
 40
9.499949
 50
150.000125
 51
240.010021
  0
LINE
  8
STRINGA
  6
CONTINUOUS
  5
850
 10
174.848304
 20
374.841255
 30
0.0
 11
174.848304
 21
316.291405
 31
0.0
  0
ARC
  8
STRINGA
  6
CONTINUOUS
  5
851
 10
161.464408
 20
315.393456
 30
0.0
 40
9.500047
 50
60.952967
 51
150.000162
  0
LINE
  8
STRINGA
  6
CONTINUOUS
  5
852
 10
165.064017
 20
321.936668
 30
0.0
 11
169.804984
 21
314.773582
 31
0.0
  0
ARC
  8
STRINGA
  6
CONTINUOUS
  5
853
 10
172.098197
 20
316.291405
 30
0.0
 40
2.75011
 50
213.499532
 51
0.0
  0
LINE
  8
STRINGA
  6
CONTINUOUS
  5
854
 10
166.076956
 20
323.698875
 30
0.0
 11
165.064017
 21
321.936668
 31
0.0
  0
LINE
  8
SUNPOU
  5
8B4
 10
160.223197
 20
326.526529
 30
0.0
 11
87.598197
 21
326.526529
 31
0.0
  0
LINE
  8
SUNPOU
  5
8B5
 10
126.223197
 20
251.636864
 30
0.0
 11
87.598197
 21
251.636864
 31
0.0
  0
LINE
  8
SUNPOU
  5
8B6
 10
88.848197
 20
326.526529
 30
0.0
 11
88.848197
 21
251.636864
 31
0.0
  0
POINT
  8
SUNPOU
  5
8BA
 10
88.848197
 20
251.636864
 30
0.0
  0
LINE
  8
SUNPOU
  5
8BC
 10
118.848197
 20
260.261864
 30
0.0
 11
118.848197
 21
350.263378
 31
0.0
  0
LINE
  8
SUNPOU
  5
8BD
 10
193.848197
 20
349.013378
 30
0.0
 11
118.848197
 21
349.013378
 31
0.0
  0
LINE
  8
SUNPOU
  5
8C2
 10
126.222953
 20
251.636375
 30
0.0
 11
102.598197
 21
251.636375
 31
0.0
  0
LINE
  8
SUNPOU
  5
8C3
 10
160.223197
 20
154.126529
 30
0.0
 11
102.598197
 21
154.126529
 31
0.0
  0
LINE
  8
SUNPOU
  5
8C4
 10
103.848197
 20
251.636375
 30
0.0
 11
103.848197
 21
154.126529
 31
0.0
  0
POINT
  8
DEFPOINTS
  6
ByBlock
 62
     0
  5
8C8
 10
103.848197
 20
154.126529
 30
0.0
  0
LINE
  8
SUNPOU
  5
8C9
 10
126.222953
 20
251.636375
 30
0.0
 11
87.598197
 21
251.636375
 31
0.0
  0
LINE
  8
SUNPOU
  5
8CA
 10
126.222953
 20
79.236375
 30
0.0
 11
87.598197
 21
79.236375
 31
0.0
  0
LINE
  8
SUNPOU
  5
8CB
 10
88.848197
 20
251.636375
 30
0.0
 11
88.848197
 21
79.236375
 31
0.0
  0
POINT
  8
DEFPOINTS
  6
ByBlock
 62
     0
  5
8CF
 10
88.848197
 20
79.236375
 30
0.0
  0
ARC
  8
SUNPOU
  5
8DB
 10
118.848197
 20
261.780664
 30
0.0
 40
52.054087
 50
60.00007
 51
90.0
  0
TEXT
  8
SUNPOU
  5
93D
 10
103.223197
 20
193.881452
 30
0.0
 40
6.0
  1
96.4
 50
90.0
  0
TEXT
  8
SUNPOU
  5
93E
 10
88.223197
 20
154.436375
 30
0.0
 40
6.0
  1
172.4
 50
90.0
  0
TEXT
  8
SUNPOU
  5
93F
 10
88.223197
 20
284.081697
 30
0.0
 40
6.0
  1
76
 50
90.0
  0
TEXT
  8
SUNPOU
  5
940
 10
123.69259
 20
315.020008
 30
0.0
 40
6.0
  1
30°
 50
345.00006
  0
TEXT
  8
SUNPOU
  5
941
 10
151.348197
 20
349.638378
 30
0.0
 40
6.0
  1
75
  0
TEXT
  8
SUNPOU
  5
942
 10
403.070666
 20
166.60301
 30
0.0
 40
6.0
  1
38
  0
TEXT
  8
SUNPOU
  5
943
 10
342.445685
 20
213.47801
 30
0.0
 40
6.0
  1
75
 50
90.0
  0
TEXT
  8
SUNPOU
  5
944
 10
404.070689
 20
271.60301
 30
0.0
 40
6.0
  1
16
  0
ENDSEC
  0
EOF
