  0
SECTION
  2
HEADER
  9
$ACADVER
  1
AC1006
  9
$INSBASE
 10
0.0
 20
0.0
 30
0.0
  9
$EXTMIN
 10
0.0
 20
0.0
  9
$EXTMAX
 10
570.0
 20
396.0
  9
$LIMMIN
 10
0.0
 20
0.0
  9
$LIMMAX
 10
570.0
 20
396.0
  9
$VIEWCTR
 10
6.591288
 20
4.579184
  9
$VIEWSIZE
 40
9.158369
  9
$SNAPMODE
 70
     0
  9
$SNAPUNIT
 10
1.0
 20
1.0
  9
$SNAPBASE
 10
0.0
 20
0.0
  9
$SNAPANG
 50
0.0
  9
$SNAPSTYLE
 70
     0
  9
$SNAPISOPAIR
 70
     0
  9
$GRIDMODE
 70
     0
  9
$GRIDUNIT
 10
0.0
 20
0.0
  9
$ORTHOMODE
 70
     1
  9
$REGENMODE
 70
     1
  9
$FILLMODE
 70
     1
  9
$QTEXTMODE
 70
     0
  9
$MIRRTEXT
 70
     1
  9
$DRAGMODE
 70
     2
  9
$LTSCALE
 40
1.333333
  9
$OSMODE
 70
    43
  9
$ATTMODE
 70
     1
  9
$TEXTSIZE
 40
5.0
  9
$TRACEWID
 40
1.0
  9
$TEXTSTYLE
  7
STANDARD
  9
$CLAYER
  8
SUNPOU
  9
$CELTYPE
  6
ByLayer
  9
$CECOLOR
 62
   256
  9
$DIMSCALE
 40
1.0
  9
$DIMASZ
 40
2.5
  9
$DIMEXO
 40
0.625
  9
$DIMDLI
 40
3.75
  9
$DIMRND
 40
0.0
  9
$DIMDLE
 40
0.0
  9
$DIMEXE
 40
1.25
  9
$DIMTP
 40
0.0
  9
$DIMTM
 40
0.0
  9
$DIMTXT
 40
6.0
  9
$DIMCEN
 40
2.5
  9
$DIMTSZ
 40
0.0
  9
$DIMTOL
 70
     0
  9
$DIMLIM
 70
     0
  9
$DIMTIH
 70
     0
  9
$DIMTOH
 70
     0
  9
$DIMSE1
 70
     0
  9
$DIMSE2
 70
     0
  9
$DIMTAD
 70
     1
  9
$DIMZIN
 70
     8
  9
$DIMBLK
  1

  9
$DIMASO
 70
     1
  9
$DIMSHO
 70
     1
  9
$DIMPOST
  1

  9
$DIMAPOST
  1

  9
$DIMALT
 70
     0
  9
$DIMALTD
 70
     4
  9
$DIMALTF
 40
0.0394
  9
$DIMLFAC
 40
1.0
  9
$DIMTOFL
 70
     1
  9
$DIMTVP
 40
0.0
  9
$DIMTIX
 70
     0
  9
$DIMSOXD
 70
     0
  9
$DIMSAH
 70
     1
  9
$DIMBLK1
  1
_NONE
  9
$DIMBLK2
  1
_NONE
  9
$LUNITS
 70
     2
  9
$LUPREC
 70
     4
  9
$AXISMODE
 70
     0
  9
$AXISUNIT
 10
0.0
 20
0.0
  9
$SKETCHINC
 40
1.0
  9
$FILLETRAD
 40
13.333333
  9
$AUNITS
 70
     0
  9
$AUPREC
 70
     0
  9
$MENU
  1
.
  9
$ELEVATION
 40
0.0
  9
$THICKNESS
 40
0.0
  9
$LIMCHECK
 70
     0
  9
$BLIPMODE
 70
     0
  9
$CHAMFERA
 40
13.333333
  9
$CHAMFERB
 40
13.333333
  9
$SKPOLY
 70
     1
  9
$TDCREATE
 40
2451654.610702639
  9
$TDUPDATE
 40
0.000000000
  9
$TDINDWG
 40
0.2779952083
  9
$TDUSRTIMER
 40
0.0000000000
  9
$USRTIMER
 70
     1
  9
$ANGBASE
 50
0.0
  9
$ANGDIR
 70
     0
  9
$PDMODE
 70
     0
  9
$PDSIZE
 40
0.0
  9
$PLINEWID
 40
0.0
  9
$COORDS
 70
     0
  9
$SPLFRAME
 70
     0
  9
$SPLINETYPE
 70
     6
  9
$SPLINESEGS
 70
     8
  9
$ATTDIA
 70
     0
  9
$ATTREQ
 70
     1
  9
$HANDLING
 70
 10241
  9
$HANDSEED
  5
557
  9
$SURFTAB1
 70
     6
  9
$SURFTAB2
 70
     6
  9
$SURFTYPE
 70
     6
  9
$SURFU
 70
     6
  9
$SURFV
 70
     6
  9
$FLATLAND
 70
     0
  9
$UCSNAME
  2

  9
$UCSORG
 10
0.0
 20
0.0
 30
0.0
  9
$UCSXDIR
 10
1.0
 20
0.0
 30
0.0
  9
$UCSYDIR
 10
0.0
 20
1.0
 30
0.0
  9
$USERI1
 70
     0
  9
$USERI2
 70
     0
  9
$USERI3
 70
     0
  9
$USERI4
 70
     0
  9
$USERI5
 70
     0
  9
$USERR1
 40
0.0
  9
$USERR2
 40
0.0
  9
$USERR3
 40
0.0
  9
$USERR4
 40
0.0
  9
$USERR5
 40
0.0
  9
$WORLDVIEW
 70
     1
  0
ENDSEC
  0
SECTION
  2
TABLES
  0
TABLE
  2
VPORT
 70
     1
  0
VPORT
  2
*ACTIVE
 70
     0
 10
0.0
 20
0.0
 11
1.0
 21
1.0
 12
285.000004
 22
198.802086
 13
0.0
 23
0.0
 14
13.0
 24
13.0
 15
13.0
 25
13.0
 16
0.0
 26
0.0
 36
1.0
 17
0.0
 27
0.0
 37
0.0
 40
401.384283
 41
1.595494
 42
50.0
 43
0.0
 44
0.0
 50
0.0
 51
0.0
 71
     0
 72
   100
 73
     1
 74
     0
 75
     0
 76
     0
 77
     0
 78
     0
  0
ENDTAB
  0
TABLE
  2
LTYPE
 70
     3
  0
LTYPE
  2
CONTINUOUS
 70
     0
  3
Solid line
 72
    65
 73
     0
 40
0.0
  0
LTYPE
  2
HIDDEN2
 70
     0
  3
Hidden (.5x) _ _ _ _ _ _ _ _ _ _ _ _ _ _ _ _ _
 72
    65
 73
     2
 40
4.7625
 49
3.175
 49
-1.5875
  0
LTYPE
  2
DASHED2
 70
     0
  3
Dashed (.5x) _ _ _ _ _ _ _ _ _ _ _ _ _ _ _ _ _
 72
    65
 73
     2
 40
9.525
 49
6.35
 49
-3.175
  0
ENDTAB
  0
TABLE
  2
LAYER
 70
     5
  0
LAYER
  2
0
 70
     0
 62
     7
  6
CONTINUOUS
  0
LAYER
  2
STRINGA
 70
     0
 62
     7
  6
CONTINUOUS
  0
LAYER
  2
WAKU
 70
     0
 62
     4
  6
CONTINUOUS
  0
LAYER
  2
PANEL
 70
     0
 62
     6
  6
CONTINUOUS
  0
LAYER
  2
SUNPOU
 70
     0
 62
     3
  6
CONTINUOUS
  0
ENDTAB
  0
TABLE
  2
STYLE
 70
     1
  0
STYLE
  2
STANDARD
 70
     0
 40
6.0
 41
1.0
 50
0.0
 71
     0
 42
5.0
  3
txt.shx
  4
bigfont.shx
  0
ENDTAB
  0
TABLE
  2
VIEW
 70
     0
  0
ENDTAB
  0
TABLE
  2
UCS
 70
     0
  0
ENDTAB
  0
ENDSEC
  0
SECTION
  2
BLOCKS
  0
BLOCK
  8
0
  2
$MODEL_SPACE
 70
     0
 10
0.0
 20
0.0
  0
ENDBLK
  8
0
  0
BLOCK
  8
0
  2
$PAPER_SPACE
 70
     0
 10
0.0
 20
0.0
  0
ENDBLK
  8
0
  0
BLOCK
  8
0
  2
_NONE
 70
     0
 10
0.0
 20
0.0
  0
CIRCLE
  8
0
  6
ByBlock
 62
     0
 10
0.0
 20
0.0
 30
0.0
 40
0.25
  0
ENDBLK
  8
0
  0
ENDSEC
  0
SECTION
  2
ENTITIES
  0
LINE
  8
WAKU
  6
CONTINUOUS
  5
1C3
 10
5.0
 20
25.0
 30
0.0
 11
565.0
 21
25.0
 31
0.0
  0
LINE
  8
WAKU
  6
CONTINUOUS
  5
1C4
 10
5.0
 20
5.0
 30
0.0
 11
565.0
 21
5.0
 31
0.0
  0
LINE
  8
WAKU
  6
CONTINUOUS
  5
1CB
 10
195.0
 20
5.0
 30
0.0
 11
195.0
 21
25.0
 31
0.0
  0
LINE
  8
STRINGA
  6
HIDDEN2
  5
229
 10
393.070674
 20
191.578138
 30
0.0
 11
395.344925
 21
206.97804
 31
0.0
  0
LINE
  8
STRINGA
  6
HIDDEN2
  5
22A
 10
394.059944
 20
191.432043
 30
0.0
 11
396.355771
 21
206.97804
 31
0.0
  0
LINE
  8
STRINGA
  6
HIDDEN2
  5
22B
 10
422.081403
 20
191.432043
 30
0.0
 11
419.785576
 21
206.97804
 31
0.0
  0
LINE
  8
STRINGA
  6
HIDDEN2
  5
22C
 10
423.070674
 20
191.578138
 30
0.0
 11
420.796422
 21
206.97804
 31
0.0
  0
LINE
  8
PANEL
  6
DASHED2
  5
22E
 10
458.070662
 20
191.578138
 30
0.0
 11
358.070685
 21
191.578138
 31
0.0
  0
LINE
  8
PANEL
  6
CONTINUOUS
  5
22F
 10
458.070662
 20
190.97804
 30
0.0
 11
358.070685
 21
190.97804
 31
0.0
  0
LINE
  8
STRINGA
  6
HIDDEN2
  5
239
 10
393.070674
 20
191.578138
 30
0.0
 11
394.059944
 21
191.432043
 31
0.0
  0
LINE
  8
STRINGA
  6
HIDDEN2
  5
23C
 10
423.070674
 20
191.578138
 30
0.0
 11
422.081403
 21
191.432043
 31
0.0
  0
LINE
  8
PANEL
  6
CONTINUOUS
  5
23D
 10
458.070662
 20
206.97804
 30
0.0
 11
358.070685
 21
206.97804
 31
0.0
  0
LINE
  8
STRINGA
  6
CONTINUOUS
  5
243
 10
403.091756
 20
238.978047
 30
0.0
 11
413.049592
 21
238.978047
 31
0.0
  0
LINE
  8
STRINGA
  6
CONTINUOUS
  5
244
 10
403.091756
 20
237.978047
 30
0.0
 11
413.049592
 21
237.978047
 31
0.0
  0
LINE
  8
STRINGA
  6
CONTINUOUS
  5
245
 10
399.629309
 20
235.98938
 30
0.0
 11
395.344925
 21
206.97804
 31
0.0
  0
LINE
  8
STRINGA
  6
CONTINUOUS
  5
246
 10
400.618579
 20
235.843285
 30
0.0
 11
396.355771
 21
206.97804
 31
0.0
  0
ARC
  8
STRINGA
  6
CONTINUOUS
  5
248
 10
403.091756
 20
235.478047
 30
0.0
 40
2.5
 50
90.0
 51
171.599302
  0
ARC
  8
STRINGA
  6
CONTINUOUS
  5
249
 10
403.091756
 20
235.478047
 30
0.0
 40
3.5
 50
90.0
 51
171.599302
  0
LINE
  8
STRINGA
  6
CONTINUOUS
  5
24B
 10
416.512039
 20
235.98938
 30
0.0
 11
420.796422
 21
206.97804
 31
0.0
  0
LINE
  8
STRINGA
  6
CONTINUOUS
  5
24C
 10
415.522768
 20
235.843285
 30
0.0
 11
419.785576
 21
206.97804
 31
0.0
  0
ARC
  8
STRINGA
  6
CONTINUOUS
  5
24E
 10
413.049592
 20
235.478047
 30
0.0
 40
2.5
 50
8.400698
 51
90.0
  0
ARC
  8
STRINGA
  6
CONTINUOUS
  5
24F
 10
413.049592
 20
235.478047
 30
0.0
 40
3.5
 50
8.400698
 51
90.0
  0
POLYLINE
  8
WAKU
  5
252
 66
     1
 10
0.0
 20
0.0
 30
0.0
 70
     1
  0
VERTEX
  8
WAKU
  5
551
 10
0.0
 20
0.0
 30
0.0
  0
VERTEX
  8
WAKU
  5
552
 10
570.0
 20
0.0
 30
0.0
  0
VERTEX
  8
WAKU
  5
553
 10
570.0
 20
396.0
 30
0.0
  0
VERTEX
  8
WAKU
  5
554
 10
0.0
 20
396.0
 30
0.0
  0
SEQEND
  8
WAKU
  5
555
  0
LINE
  8
WAKU
  5
255
 10
5.0
 20
5.0
 30
0.0
 11
5.0
 21
391.0
 31
0.0
  0
LINE
  8
WAKU
  5
256
 10
5.0
 20
391.0
 30
0.0
 11
565.0
 21
391.0
 31
0.0
  0
LINE
  8
WAKU
  5
257
 10
565.0
 20
391.0
 30
0.0
 11
565.0
 21
5.0
 31
0.0
  0
LINE
  8
SUNPOU
  5
2E9
 10
399.445674
 20
238.978047
 30
0.0
 11
341.820685
 21
238.978047
 31
0.0
  0
LINE
  8
SUNPOU
  5
2EA
 10
357.445685
 20
190.97804
 30
0.0
 11
341.820685
 21
190.97804
 31
0.0
  0
LINE
  8
SUNPOU
  5
2EB
 10
343.070685
 20
238.978047
 30
0.0
 11
343.070685
 21
190.97804
 31
0.0
  0
POINT
  8
SUNPOU
  5
2EF
 10
343.070685
 20
190.97804
 30
0.0
  0
LINE
  8
SUNPOU
  5
2F0
 10
400.070674
 20
239.603047
 30
0.0
 11
400.070674
 21
255.228047
 31
0.0
  0
LINE
  8
SUNPOU
  5
2F1
 10
416.070674
 20
239.603047
 30
0.0
 11
416.070674
 21
255.228047
 31
0.0
  0
LINE
  8
SUNPOU
  5
2F2
 10
400.070674
 20
253.978047
 30
0.0
 11
416.070674
 21
253.978047
 31
0.0
  0
POINT
  8
SUNPOU
  5
2F6
 10
416.070674
 20
253.978047
 30
0.0
  0
LINE
  8
SUNPOU
  5
2F7
 10
393.070674
 20
190.953138
 30
0.0
 11
393.070674
 21
174.72804
 31
0.0
  0
LINE
  8
SUNPOU
  5
2F8
 10
423.070674
 20
190.953138
 30
0.0
 11
423.070674
 21
174.72804
 31
0.0
  0
LINE
  8
SUNPOU
  5
2F9
 10
393.070674
 20
175.97804
 30
0.0
 11
423.070674
 21
175.97804
 31
0.0
  0
POINT
  8
SUNPOU
  5
2FD
 10
423.070674
 20
175.97804
 30
0.0
  0
LINE
  8
SUNPOU
  5
354
 10
153.223197
 20
349.941237
 30
0.0
 11
129.598197
 21
349.941237
 31
0.0
  0
LINE
  8
SUNPOU
  5
356
 10
130.848197
 20
349.941237
 30
0.0
 11
130.848197
 21
265.941205
 31
0.0
  0
LINE
  8
STRINGA
  6
CONTINUOUS
  5
3CC
 10
193.848189
 20
357.94122
 30
0.0
 11
193.848189
 21
57.94122
 31
0.0
  0
LINE
  8
PANEL
  6
CONTINUOUS
  5
3CD
 10
145.848197
 20
173.941205
 30
0.0
 11
145.848197
 21
241.941235
 31
0.0
  0
LINE
  8
PANEL
  6
CONTINUOUS
  5
3CE
 10
146.448294
 20
173.941205
 30
0.0
 11
146.448294
 21
241.941235
 31
0.0
  0
ARC
  8
STRINGA
  6
CONTINUOUS
  5
3CF
 10
138.948294
 20
207.941205
 30
0.0
 40
18.0
 50
294.624331
 51
65.37579
  0
LINE
  8
STRINGA
  6
CONTINUOUS
  5
3D0
 10
166.448294
 20
70.345471
 30
0.0
 11
166.448294
 21
57.94122
 31
0.0
  0
ARC
  8
PANEL
  6
CONTINUOUS
  5
3D1
 10
153.848197
 20
73.941205
 30
0.0
 40
8.0
 50
180.0
 51
300.000121
  0
LINE
  8
STRINGA
  6
CONTINUOUS
  5
3D2
 10
146.448294
 20
139.536939
 30
0.0
 11
146.448263
 21
124.304287
 31
0.0
  0
LINE
  8
PANEL
  6
CONTINUOUS
  5
3D3
 10
145.848197
 20
73.941205
 30
0.0
 11
145.848197
 21
141.941235
 31
0.0
  0
LINE
  8
PANEL
  6
CONTINUOUS
  5
3D4
 10
146.448294
 20
73.941205
 30
0.0
 11
146.448294
 21
141.941235
 31
0.0
  0
ARC
  8
STRINGA
  6
CONTINUOUS
  5
3D5
 10
155.948294
 20
76.345471
 30
0.0
 40
9.5
 50
180.0
 51
270.0
  0
ARC
  8
PANEL
  6
CONTINUOUS
  5
3D6
 10
153.848197
 20
73.941205
 30
0.0
 40
7.399994
 50
180.0
 51
299.99982
  0
ARC
  8
STRINGA
  6
CONTINUOUS
  5
3D7
 10
138.948294
 20
107.941205
 30
0.0
 40
18.0
 50
294.624331
 51
65.37579
  0
LINE
  8
STRINGA
  6
CONTINUOUS
  5
3D8
 10
146.448298
 20
91.578138
 30
0.0
 11
146.448294
 21
76.345471
 31
0.0
  0
ARC
  8
STRINGA
  6
CONTINUOUS
  5
3D9
 10
161.198294
 20
70.345471
 30
0.0
 40
5.25
 50
0.0
 51
180.0
  0
LINE
  8
PANEL
  6
CONTINUOUS
  5
3DA
 10
157.548148
 20
67.532727
 30
0.0
 11
162.048148
 21
70.13078
 31
0.0
  0
LINE
  8
PANEL
  6
CONTINUOUS
  5
3DB
 10
157.848197
 20
67.013074
 30
0.0
 11
162.348197
 21
69.611157
 31
0.0
  0
LINE
  8
STRINGA
  6
CONTINUOUS
  5
3DC
 10
155.948294
 20
66.845471
 30
0.0
 11
155.948294
 21
70.345471
 31
0.0
  0
LINE
  8
PANEL
  6
CONTINUOUS
  5
3DD
 10
162.048148
 20
70.130811
 30
0.0
 11
162.348197
 21
69.611157
 31
0.0
  0
ARC
  8
STRINGA
  6
CONTINUOUS
  5
3DE
 10
155.948294
 20
139.536939
 30
0.0
 40
9.5
 50
90.0
 51
180.0
  0
ARC
  8
PANEL
  6
CONTINUOUS
  5
3DF
 10
153.848197
 20
141.941235
 30
0.0
 40
8.000002
 50
60.000259
 51
180.0
  0
ARC
  8
PANEL
  6
CONTINUOUS
  5
3E0
 10
153.848197
 20
141.941235
 30
0.0
 40
7.400005
 50
60.000594
 51
180.0
  0
ARC
  8
PANEL
  6
CONTINUOUS
  5
3E1
 10
153.848197
 20
173.941205
 30
0.0
 40
7.399994
 50
180.0
 51
299.99982
  0
ARC
  8
PANEL
  6
CONTINUOUS
  5
3E2
 10
153.848197
 20
173.941205
 30
0.0
 40
8.0
 50
180.0
 51
300.000121
  0
ARC
  8
STRINGA
  6
CONTINUOUS
  5
3E3
 10
155.948294
 20
176.345471
 30
0.0
 40
9.5
 50
180.0
 51
270.0
  0
LINE
  8
STRINGA
  6
CONTINUOUS
  5
3E4
 10
146.448298
 20
191.578138
 30
0.0
 11
146.448294
 21
176.345471
 31
0.0
  0
LINE
  8
STRINGA
  6
CONTINUOUS
  5
3E5
 10
166.448294
 20
170.345471
 30
0.0
 11
166.448294
 21
157.94122
 31
0.0
  0
ARC
  8
STRINGA
  6
CONTINUOUS
  5
3E6
 10
161.198294
 20
145.536939
 30
0.0
 40
5.25
 50
180.0
 51
0.0
  0
LINE
  8
PANEL
  6
CONTINUOUS
  5
3E7
 10
157.848197
 20
148.869458
 30
0.0
 11
162.348197
 21
146.271375
 31
0.0
  0
LINE
  8
PANEL
  6
CONTINUOUS
  5
3E8
 10
157.548148
 20
148.349805
 30
0.0
 11
162.048148
 21
145.751721
 31
0.0
  0
LINE
  8
STRINGA
  6
CONTINUOUS
  5
3E9
 10
155.948294
 20
145.536939
 30
0.0
 11
155.948294
 21
149.036939
 31
0.0
  0
LINE
  8
STRINGA
  6
CONTINUOUS
  5
3EA
 10
166.448294
 20
145.536939
 30
0.0
 11
166.448294
 21
157.94122
 31
0.0
  0
LINE
  8
PANEL
  6
CONTINUOUS
  5
3EB
 10
162.048148
 20
145.751721
 30
0.0
 11
162.348197
 21
146.271375
 31
0.0
  0
LINE
  8
PANEL
  6
CONTINUOUS
  5
3EC
 10
157.548148
 20
167.532727
 30
0.0
 11
162.048148
 21
170.13078
 31
0.0
  0
ARC
  8
STRINGA
  6
CONTINUOUS
  5
3ED
 10
161.198294
 20
170.345471
 30
0.0
 40
5.25
 50
0.0
 51
180.0
  0
LINE
  8
PANEL
  6
CONTINUOUS
  5
3EE
 10
157.848197
 20
167.013074
 30
0.0
 11
162.348197
 21
169.611157
 31
0.0
  0
LINE
  8
STRINGA
  6
CONTINUOUS
  5
3EF
 10
155.948294
 20
166.845471
 30
0.0
 11
155.948294
 21
170.345471
 31
0.0
  0
LINE
  8
PANEL
  6
CONTINUOUS
  5
3F0
 10
162.048148
 20
170.130811
 30
0.0
 11
162.348197
 21
169.611157
 31
0.0
  0
LINE
  8
STRINGA
  6
CONTINUOUS
  5
3F1
 10
146.448294
 20
339.536939
 30
0.0
 11
146.448263
 21
324.304287
 31
0.0
  0
LINE
  8
PANEL
  6
CONTINUOUS
  5
3F2
 10
145.848197
 20
273.941205
 30
0.0
 11
145.848197
 21
341.941235
 31
0.0
  0
LINE
  8
PANEL
  6
CONTINUOUS
  5
3F3
 10
146.448294
 20
273.941205
 30
0.0
 11
146.448294
 21
341.941235
 31
0.0
  0
LINE
  8
STRINGA
  6
CONTINUOUS
  5
3F4
 10
166.448294
 20
270.345471
 30
0.0
 11
166.448294
 21
257.94122
 31
0.0
  0
ARC
  8
PANEL
  6
CONTINUOUS
  5
3F5
 10
153.848197
 20
273.941205
 30
0.0
 40
8.0
 50
180.0
 51
300.000121
  0
LINE
  8
PANEL
  6
CONTINUOUS
  5
3F6
 10
162.048148
 20
270.130811
 30
0.0
 11
162.348197
 21
269.611157
 31
0.0
  0
LINE
  8
STRINGA
  6
CONTINUOUS
  5
3F7
 10
155.948294
 20
266.845471
 30
0.0
 11
155.948294
 21
270.345471
 31
0.0
  0
LINE
  8
PANEL
  6
CONTINUOUS
  5
3F8
 10
157.548148
 20
267.532727
 30
0.0
 11
162.048148
 21
270.13078
 31
0.0
  0
ARC
  8
PANEL
  6
CONTINUOUS
  5
3F9
 10
153.848197
 20
273.941205
 30
0.0
 40
7.399994
 50
180.0
 51
299.99982
  0
ARC
  8
STRINGA
  6
CONTINUOUS
  5
3FA
 10
155.948294
 20
276.345471
 30
0.0
 40
9.5
 50
180.0
 51
270.0
  0
ARC
  8
PANEL
  6
CONTINUOUS
  5
3FB
 10
153.848197
 20
241.941235
 30
0.0
 40
7.400005
 50
60.000594
 51
180.0
  0
ARC
  8
PANEL
  6
CONTINUOUS
  5
3FC
 10
153.848197
 20
241.941235
 30
0.0
 40
8.000002
 50
60.000259
 51
180.0
  0
ARC
  8
STRINGA
  6
CONTINUOUS
  5
3FD
 10
155.948294
 20
239.536939
 30
0.0
 40
9.5
 50
90.0
 51
180.0
  0
LINE
  8
STRINGA
  6
CONTINUOUS
  5
3FE
 10
146.448294
 20
239.536939
 30
0.0
 11
146.448263
 21
224.304287
 31
0.0
  0
ARC
  8
STRINGA
  6
CONTINUOUS
  5
3FF
 10
161.198294
 20
245.536939
 30
0.0
 40
5.25
 50
180.0
 51
0.0
  0
LINE
  8
PANEL
  6
CONTINUOUS
  5
400
 10
157.848197
 20
248.869458
 30
0.0
 11
162.348197
 21
246.271375
 31
0.0
  0
LINE
  8
PANEL
  6
CONTINUOUS
  5
401
 10
157.848197
 20
267.013074
 30
0.0
 11
162.348197
 21
269.611157
 31
0.0
  0
LINE
  8
PANEL
  6
CONTINUOUS
  5
402
 10
157.548148
 20
248.349805
 30
0.0
 11
162.048148
 21
245.751721
 31
0.0
  0
LINE
  8
STRINGA
  6
CONTINUOUS
  5
403
 10
155.948294
 20
245.536939
 30
0.0
 11
155.948294
 21
249.036939
 31
0.0
  0
LINE
  8
STRINGA
  6
CONTINUOUS
  5
404
 10
166.448294
 20
245.536939
 30
0.0
 11
166.448294
 21
257.94122
 31
0.0
  0
LINE
  8
PANEL
  6
CONTINUOUS
  5
405
 10
162.048148
 20
245.751721
 30
0.0
 11
162.348197
 21
246.271375
 31
0.0
  0
ARC
  8
STRINGA
  6
CONTINUOUS
  5
406
 10
138.948294
 20
307.941205
 30
0.0
 40
18.0
 50
294.624331
 51
65.37579
  0
LINE
  8
STRINGA
  6
CONTINUOUS
  5
407
 10
146.448298
 20
291.578138
 30
0.0
 11
146.448294
 21
276.345471
 31
0.0
  0
ARC
  8
STRINGA
  6
CONTINUOUS
  5
408
 10
161.198294
 20
270.345471
 30
0.0
 40
5.25
 50
0.0
 51
180.0
  0
ARC
  8
PANEL
  6
CONTINUOUS
  5
409
 10
153.848197
 20
341.941235
 30
0.0
 40
7.400005
 50
60.000594
 51
180.0
  0
ARC
  8
STRINGA
  6
CONTINUOUS
  5
40A
 10
155.948294
 20
339.536939
 30
0.0
 40
9.5
 50
90.0
 51
180.0
  0
ARC
  8
PANEL
  6
CONTINUOUS
  5
40B
 10
153.848197
 20
341.941235
 30
0.0
 40
8.000002
 50
60.000259
 51
180.0
  0
LINE
  8
STRINGA
  6
CONTINUOUS
  5
40C
 10
166.448294
 20
345.536939
 30
0.0
 11
166.448294
 21
357.94122
 31
0.0
  0
LINE
  8
STRINGA
  6
CONTINUOUS
  5
40D
 10
155.948294
 20
345.536939
 30
0.0
 11
155.948294
 21
349.036939
 31
0.0
  0
LINE
  8
PANEL
  6
CONTINUOUS
  5
40E
 10
157.548148
 20
348.349805
 30
0.0
 11
162.048148
 21
345.751721
 31
0.0
  0
LINE
  8
PANEL
  6
CONTINUOUS
  5
40F
 10
157.848197
 20
348.869458
 30
0.0
 11
162.348197
 21
346.271375
 31
0.0
  0
ARC
  8
STRINGA
  6
CONTINUOUS
  5
410
 10
161.198294
 20
345.536939
 30
0.0
 40
5.25
 50
180.0
 51
0.0
  0
LINE
  8
PANEL
  6
CONTINUOUS
  5
411
 10
162.048148
 20
345.751721
 30
0.0
 11
162.348197
 21
346.271375
 31
0.0
  0
LINE
  8
SUNPOU
  5
44A
 10
153.223197
 20
265.941205
 30
0.0
 11
129.598197
 21
265.941205
 31
0.0
  0
LINE
  8
SUNPOU
  5
49F
 10
193.848189
 20
358.56622
 30
0.0
 11
193.848189
 21
374.19122
 31
0.0
  0
LINE
  8
SUNPOU
  5
4A0
 10
145.848195
 20
342.566235
 30
0.0
 11
145.848195
 21
374.19122
 31
0.0
  0
LINE
  8
SUNPOU
  5
4A1
 10
193.848189
 20
372.94122
 30
0.0
 11
145.848195
 21
372.94122
 31
0.0
  0
POINT
  8
SUNPOU
  5
4A5
 10
145.848195
 20
372.94122
 30
0.0
  0
LINE
  8
SUNPOU
  5
4BE
 10
145.223197
 20
307.94122
 30
0.0
 11
114.598197
 21
307.94122
 31
0.0
  0
LINE
  8
SUNPOU
  5
4BF
 10
145.223197
 20
207.94122
 30
0.0
 11
114.598197
 21
207.94122
 31
0.0
  0
LINE
  8
SUNPOU
  5
4C0
 10
115.848197
 20
307.94122
 30
0.0
 11
115.848197
 21
207.94122
 31
0.0
  0
POINT
  8
SUNPOU
  5
4C4
 10
115.848197
 20
207.94122
 30
0.0
  0
LINE
  8
SUNPOU
  5
4C5
 10
153.223197
 20
265.941205
 30
0.0
 11
129.598197
 21
265.941205
 31
0.0
  0
LINE
  8
SUNPOU
  5
4C6
 10
153.223197
 20
249.941237
 30
0.0
 11
129.598197
 21
249.941237
 31
0.0
  0
LINE
  8
SUNPOU
  5
4C7
 10
130.848197
 20
265.941205
 30
0.0
 11
130.848197
 21
249.941237
 31
0.0
  0
POINT
  8
SUNPOU
  5
4CB
 10
130.848197
 20
249.941237
 30
0.0
  0
TEXT
  8
WAKU
  5
4CC
 10
15.0
 20
8.0
 30
0.0
 40
12.0
  1
ビルパネ　B-100
  0
TEXT
  8
SUNPOU
  5
50D
 10
130.723197
 20
253.941221
 30
0.0
 40
6.0
  1
16
 50
90.0
  0
TEXT
  8
SUNPOU
  5
50E
 10
115.723197
 20
251.94122
 30
0.0
 40
6.0
  1
100
 50
90.0
  0
TEXT
  8
SUNPOU
  5
50F
 10
130.223197
 20
302.941221
 30
0.0
 40
6.0
  1
84
 50
90.0
  0
TEXT
  8
SUNPOU
  5
510
 10
164.848192
 20
373.06622
 30
0.0
 40
6.0
  1
48
  0
TEXT
  8
SUNPOU
  5
511
 10
403.570674
 20
176.60304
 30
0.0
 40
6.0
  1
30
  0
TEXT
  8
SUNPOU
  5
512
 10
342.445685
 20
209.978044
 30
0.0
 40
6.0
  1
48
 50
90.0
  0
TEXT
  8
SUNPOU
  5
513
 10
404.070674
 20
254.603047
 30
0.0
 40
6.0
  1
16
  0
ENDSEC
  0
EOF
