  0
SECTION
  2
HEADER
  9
$ACADVER
  1
AC1015
  9
$ACADMAINTVER
 70
     6
  9
$DWGCODEPAGE
  3
DOS932
  9
$INSBASE
 10
0.0
 20
0.0
 30
0.0
  9
$EXTMIN
 10
0.0
 20
0.0
 30
0.0
  9
$EXTMAX
 10
570.0
 20
396.0
 30
0.0
  9
$LIMMIN
 10
0.0
 20
0.0
  9
$LIMMAX
 10
570.0
 20
396.0
  9
$ORTHOMODE
 70
     1
  9
$REGENMODE
 70
     1
  9
$FILLMODE
 70
     1
  9
$QTEXTMODE
 70
     0
  9
$MIRRTEXT
 70
     1
  9
$LTSCALE
 40
1.333333
  9
$ATTMODE
 70
     1
  9
$TEXTSIZE
 40
5.0
  9
$TRACEWID
 40
1.0
  9
$TEXTSTYLE
  7
STANDARD
  9
$CLAYER
  8
WAKU
  9
$CELTYPE
  6
ByLayer
  9
$CECOLOR
 62
   256
  9
$CELTSCALE
 40
1.0
  9
$DISPSILH
 70
     0
  9
$DIMSCALE
 40
1.0
  9
$DIMASZ
 40
2.5
  9
$DIMEXO
 40
0.625
  9
$DIMDLI
 40
3.75
  9
$DIMRND
 40
0.0
  9
$DIMDLE
 40
0.0
  9
$DIMEXE
 40
1.25
  9
$DIMTP
 40
0.0
  9
$DIMTM
 40
0.0
  9
$DIMTXT
 40
6.0
  9
$DIMCEN
 40
2.5
  9
$DIMTSZ
 40
0.0
  9
$DIMTOL
 70
     0
  9
$DIMLIM
 70
     0
  9
$DIMTIH
 70
     0
  9
$DIMTOH
 70
     0
  9
$DIMSE1
 70
     0
  9
$DIMSE2
 70
     0
  9
$DIMTAD
 70
     1
  9
$DIMZIN
 70
     8
  9
$DIMBLK
  1

  9
$DIMASO
 70
     1
  9
$DIMSHO
 70
     1
  9
$DIMPOST
  1

  9
$DIMAPOST
  1

  9
$DIMALT
 70
     0
  9
$DIMALTD
 70
     4
  9
$DIMALTF
 40
0.0394
  9
$DIMLFAC
 40
1.0
  9
$DIMTOFL
 70
     1
  9
$DIMTVP
 40
0.0
  9
$DIMTIX
 70
     0
  9
$DIMSOXD
 70
     0
  9
$DIMSAH
 70
     1
  9
$DIMBLK1
  1
_NONE
  9
$DIMBLK2
  1
_NONE
  9
$DIMSTYLE
  2
STANDARD
  9
$DIMCLRD
 70
     0
  9
$DIMCLRE
 70
     0
  9
$DIMCLRT
 70
     0
  9
$DIMTFAC
 40
1.0
  9
$DIMGAP
 40
0.625
  9
$DIMJUST
 70
     0
  9
$DIMSD1
 70
     0
  9
$DIMSD2
 70
     0
  9
$DIMTOLJ
 70
     1
  9
$DIMTZIN
 70
     0
  9
$DIMALTZ
 70
     0
  9
$DIMALTTZ
 70
     0
  9
$DIMUPT
 70
     0
  9
$DIMDEC
 70
     4
  9
$DIMTDEC
 70
     4
  9
$DIMALTU
 70
     8
  9
$DIMALTTD
 70
     4
  9
$DIMTXSTY
  7
STANDARD
  9
$DIMAUNIT
 70
     0
  9
$DIMADEC
 70
     0
  9
$DIMALTRND
 40
0.0
  9
$DIMAZIN
 70
     0
  9
$DIMDSEP
 70
     0
  9
$DIMATFIT
 70
     3
  9
$DIMFRAC
 70
     0
  9
$DIMLDRBLK
  1

  9
$DIMLUNIT
 70
     6
  9
$DIMLWD
 70
     0
  9
$DIMLWE
 70
     0
  9
$DIMTMOVE
 70
     0
  9
$LUNITS
 70
     2
  9
$LUPREC
 70
     4
  9
$SKETCHINC
 40
1.0
  9
$FILLETRAD
 40
13.333333
  9
$AUNITS
 70
     0
  9
$AUPREC
 70
     0
  9
$MENU
  1
.
  9
$ELEVATION
 40
0.0
  9
$PELEVATION
 40
0.0
  9
$THICKNESS
 40
0.0
  9
$LIMCHECK
 70
     0
  9
$CHAMFERA
 40
13.333333
  9
$CHAMFERB
 40
13.333333
  9
$CHAMFERC
 40
26.666667
  9
$CHAMFERD
 40
0.0
  9
$SKPOLY
 70
     1
  9
$TDCREATE
 40
2451654.610702639
  9
$TDUCREATE
 40
0.000000000
  9
$TDUPDATE
 40
2451684.616541331
  9
$TDUUPDATE
 40
0.000000000
  9
$TDINDWG
 40
0.3101576620
  9
$TDUSRTIMER
 40
0.3101576620
  9
$USRTIMER
 70
     1
  9
$ANGBASE
 50
0.0
  9
$ANGDIR
 70
     0
  9
$PDMODE
 70
     0
  9
$PDSIZE
 40
0.0
  9
$PLINEWID
 40
0.0
  9
$SPLFRAME
 70
     0
  9
$SPLINETYPE
 70
     6
  9
$SPLINESEGS
 70
     8
  9
$HANDSEED
  5
C11
  9
$SURFTAB1
 70
     6
  9
$SURFTAB2
 70
     6
  9
$SURFTYPE
 70
     6
  9
$SURFU
 70
     6
  9
$SURFV
 70
     6
  9
$UCSBASE
  2

  9
$UCSNAME
  2

  9
$UCSORG
 10
0.0
 20
0.0
 30
0.0
  9
$UCSXDIR
 10
1.0
 20
0.0
 30
0.0
  9
$UCSYDIR
 10
0.0
 20
1.0
 30
0.0
  9
$UCSORTHOREF
  2

  9
$UCSORTHOVIEW
 70
     0
  9
$UCSORGTOP
 10
0.0
 20
0.0
 30
0.0
  9
$UCSORGBOTTOM
 10
0.0
 20
0.0
 30
0.0
  9
$UCSORGLEFT
 10
0.0
 20
0.0
 30
0.0
  9
$UCSORGRIGHT
 10
0.0
 20
0.0
 30
0.0
  9
$UCSORGFRONT
 10
0.0
 20
0.0
 30
0.0
  9
$UCSORGBACK
 10
0.0
 20
0.0
 30
0.0
  9
$PUCSBASE
  2

  9
$PUCSNAME
  2

  9
$PUCSORG
 10
0.0
 20
0.0
 30
0.0
  9
$PUCSXDIR
 10
1.0
 20
0.0
 30
0.0
  9
$PUCSYDIR
 10
0.0
 20
1.0
 30
0.0
  9
$PUCSORTHOREF
  2

  9
$PUCSORTHOVIEW
 70
     0
  9
$PUCSORGTOP
 10
0.0
 20
0.0
 30
0.0
  9
$PUCSORGBOTTOM
 10
0.0
 20
0.0
 30
0.0
  9
$PUCSORGLEFT
 10
0.0
 20
0.0
 30
0.0
  9
$PUCSORGRIGHT
 10
0.0
 20
0.0
 30
0.0
  9
$PUCSORGFRONT
 10
0.0
 20
0.0
 30
0.0
  9
$PUCSORGBACK
 10
0.0
 20
0.0
 30
0.0
  9
$USERI1
 70
     0
  9
$USERI2
 70
     0
  9
$USERI3
 70
     0
  9
$USERI4
 70
     0
  9
$USERI5
 70
     0
  9
$USERR1
 40
0.0
  9
$USERR2
 40
0.0
  9
$USERR3
 40
0.0
  9
$USERR4
 40
0.0
  9
$USERR5
 40
0.0
  9
$WORLDVIEW
 70
     1
  9
$SHADEDGE
 70
     3
  9
$SHADEDIF
 70
    70
  9
$TILEMODE
 70
     1
  9
$MAXACTVP
 70
    48
  9
$PINSBASE
 10
0.0
 20
0.0
 30
0.0
  9
$PLIMCHECK
 70
     0
  9
$PEXTMIN
 10
1.000000E+20
 20
1.000000E+20
 30
1.000000E+20
  9
$PEXTMAX
 10
-1.000000E+20
 20
-1.000000E+20
 30
-1.000000E+20
  9
$PLIMMIN
 10
0.0
 20
0.0
  9
$PLIMMAX
 10
420.0
 20
297.0
  9
$UNITMODE
 70
     0
  9
$VISRETAIN
 70
     1
  9
$PLINEGEN
 70
     0
  9
$PSLTSCALE
 70
     1
  9
$TREEDEPTH
 70
  3020
  9
$CMLSTYLE
  2
STANDARD
  9
$CMLJUST
 70
     0
  9
$CMLSCALE
 40
1.0
  9
$PROXYGRAPHICS
 70
     1
  9
$MEASUREMENT
 70
     0
  9
$CELWEIGHT
370
     0
  9
$ENDCAPS
280
     0
  9
$JOINSTYLE
280
     0
  9
$LWDISPLAY
290
     0
  9
$INSUNITS
 70
     0
  9
$HYPERLINKBASE
  1

  9
$XEDIT
290
     1
  9
$CEPSNTYPE
380
     0
  9
$PSTYLEMODE
290
     1
  9
$FINGERPRINTGUID
  2

  9
$VERSIONGUID
  2

  9
$EXTNAMES
290
     1
  9
$PSVPSCALE
 40
0.0
  0
ENDSEC
  0
SECTION
  2
CLASSES
  0
CLASS
  1
DICTIONARYVAR
  2
AcDbDictionaryVar
  3
"AutoCAD"
 90
    32768
280
     0
281
     0
  0
CLASS
  1
LWPOLYLINE
  2
AcDbPolyline
  3
"AutoCAD"
 90
    32768
280
     0
281
     1
  0
CLASS
  1
DxfZombieEntity
  2
AcDbDxfZombieEntity
  3
AutoCAD
 90
        0
280
     1
281
     1
  0
CLASS
  1
DxfZombieObject
  2
AcDbDxfZombieObject
  3
AutoCAD
 90
        0
280
     1
281
     0
  0
CLASS
  1
IMAGE
  2
AcDbRasterImage
  3
ISM
 90
    32895
280
     0
281
     1
  0
CLASS
  1
OLE2FRAME
  2
AcDbOle2Frame
  3
AutoCAD 2000
 90
    32768
280
     0
281
     1
  0
CLASS
  1
HATCH
  2
AcDbHatch
  3
AutoCAD 2000
 90
    32768
280
     0
281
     1
  0
CLASS
  1
RASTERVARIABLES
  2
AcDbRasterVariables
  3
ISM
 90
    32768
280
     0
281
     0
  0
CLASS
  1
IMAGEDEF
  2
AcDbRasterImageDef
  3
ISM
 90
    32768
280
     0
281
     0
  0
CLASS
  1
IMAGEDEF_REACTOR
  2
AcDbRasterImageDefReactor
  3
ISM
 90
    32769
280
     0
281
     0
  0
CLASS
  1
IDBUFFER
  2
AcDbIdBuffer
  3
AutoCAD 2000
 90
    32768
280
     0
281
     0
  0
CLASS
  1
SPATIAL_FILTER
  2
AcDbSpatialFilter
  3
AutoCAD 2000
 90
    32768
280
     0
281
     0
  0
CLASS
  1
XRECORD
  2
AcDbXrecord
  3
AutoCAD 2000
 90
    32768
280
     0
281
     0
  0
CLASS
  1
SORTENTSTABLE
  2
AcDbSortentsTable
  3
AutoCAD 2000
 90
    32768
280
     0
281
     0
  0
CLASS
  1
LAYER_INDEX
  2
AcDbLayerIndex
  3
AutoCAD 2000
 90
    32768
280
     0
281
     0
  0
CLASS
  1
SPATIAL_INDEX
  2
AcDbSpatialIndex
  3
AutoCAD 2000
 90
    32768
280
     0
281
     0
  0
CLASS
  1
OBJECT_PTR
  2
CAseDLPNTableRecord
  3
"ASE-LPNTableRecord"
 90
    32769
280
     0
281
     0
  0
CLASS
  1
LAYOUT
  2
AcDbLayout
  3
AutoCAD 2000
 90
        0
280
     0
281
     0
  0
CLASS
  1
PLOTSETTINGS
  2
AcDbPlotSettings
  3
AutoCAD 2000
 90
    32768
280
     0
281
     0
  0
CLASS
  1
ACDBDICTIONARYWDFLT
  2
AcDbDictionaryWithDefault
  3
AutoCAD 2000
 90
        0
280
     0
281
     0
  0
CLASS
  1
ACDBPLACEHOLDER
  2
AcDbPlaceHolder
  3
AutoCAD 2000
 90
        0
280
     0
281
     0
  0
CLASS
  1
VBA_PROJECT
  2
AcDbVbaProject
  3
acadvba
 90
    32768
280
     0
281
     0
  0
CLASS
  1
RTEXT
  2
RText
  3
RText|AutoCAD Express Tool|expresstools@autodesk.com
 90
    32768
280
     0
281
     1
  0
CLASS
  1
ARCALIGNEDTEXT
  2
AcDbArcAlignedText
  3
ATEXT|AutoCAD Express Tool|expresstools@autodesk.com
 90
    32768
280
     0
281
     1
  0
ENDSEC
  0
SECTION
  2
TABLES
  0
TABLE
  2
VPORT
  5
8
100
AcDbSymbolTable
 70
     1
  0
VPORT
  5
C09
100
AcDbSymbolTableRecord
100
AcDbViewportTableRecord
  2
*ACTIVE
 70
    64
 10
0.0
 20
0.0
 11
1.0
 21
1.0
 12
285.000005
 22
198.000004
 13
0.0
 23
0.0
 14
13.0
 24
13.0
 15
13.0
 25
13.0
 16
0.0
 26
0.0
 36
1.0
 17
0.0
 27
0.0
 37
0.0
 40
399.78423
 41
1.601896
 42
50.0
 43
0.0
 44
0.0
 50
0.0
 51
0.0
 71
     0
 72
   100
 73
     1
 74
     0
 75
     0
 76
     0
 77
     0
 78
     0
281
     0
 65
     0
110
0.0
120
0.0
130
0.0
111
1.0
121
0.0
131
0.0
112
0.0
122
1.0
132
0.0
345
0
346
0
 79
     0
146
0.0
  0
ENDTAB
  0
TABLE
  2
LTYPE
  5
5
100
AcDbSymbolTable
 70
     5
  0
LTYPE
  5
14
100
AcDbSymbolTableRecord
100
AcDbLinetypeTableRecord
  2
ByBlock
 70
    64
  3

 72
    65
 73
     0
 40
0.0
  0
LTYPE
  5
15
100
AcDbSymbolTableRecord
100
AcDbLinetypeTableRecord
  2
ByLayer
 70
    64
  3

 72
    65
 73
     0
 40
0.0
  0
LTYPE
  5
16
100
AcDbSymbolTableRecord
100
AcDbLinetypeTableRecord
  2
CONTINUOUS
 70
    64
  3
Solid line
 72
    65
 73
     0
 40
0.0
  0
LTYPE
  5
126
100
AcDbSymbolTableRecord
100
AcDbLinetypeTableRecord
  2
HIDDEN2
 70
    64
  3
Hidden (.5x) _ _ _ _ _ _ _ _ _ _ _ _ _ _ _ _ _
 72
    65
 73
     2
 40
4.7625
 49
3.175
 74
     0
 49
-1.5875
 74
     0
  0
LTYPE
  5
127
100
AcDbSymbolTableRecord
100
AcDbLinetypeTableRecord
  2
DASHED2
 70
    64
  3
Dashed (.5x) _ _ _ _ _ _ _ _ _ _ _ _ _ _ _ _ _
 72
    65
 73
     2
 40
9.525
 49
6.35
 74
     0
 49
-3.175
 74
     0
  0
ENDTAB
  0
TABLE
  2
LAYER
  5
2
100
AcDbSymbolTable
 70
     6
  0
LAYER
  5
F
100
AcDbSymbolTableRecord
100
AcDbLayerTableRecord
  2
0
 70
    64
 62
     7
  6
CONTINUOUS
290
     1
370
    -3
390
C0A
  0
LAYER
  5
128
100
AcDbSymbolTableRecord
100
AcDbLayerTableRecord
  2
STRINGA
 70
    64
 62
     7
  6
CONTINUOUS
290
     1
370
    -3
390
C0A
  0
LAYER
  5
129
100
AcDbSymbolTableRecord
100
AcDbLayerTableRecord
  2
WAKU
 70
    64
 62
     4
  6
CONTINUOUS
290
     1
370
    -3
390
C0A
  0
LAYER
  5
12A
100
AcDbSymbolTableRecord
100
AcDbLayerTableRecord
  2
PANEL
 70
    64
 62
     6
  6
CONTINUOUS
290
     1
370
    -3
390
C0A
  0
LAYER
  5
12B
100
AcDbSymbolTableRecord
100
AcDbLayerTableRecord
  2
SUNPOU
 70
    64
 62
     3
  6
CONTINUOUS
290
     1
370
    -3
390
C0A
  0
LAYER
  5
2C2
100
AcDbSymbolTableRecord
100
AcDbLayerTableRecord
  2
DEFPOINTS
 70
    64
 62
     7
  6
CONTINUOUS
290
     0
370
    -3
390
C0A
  0
ENDTAB
  0
TABLE
  2
STYLE
  5
3
100
AcDbSymbolTable
 70
     2
  0
STYLE
  5
10
100
AcDbSymbolTableRecord
100
AcDbTextStyleTableRecord
  2
STANDARD
 70
    64
 40
6.0
 41
1.0
 50
0.0
 71
     0
 42
5.0
  3
txt.shx
  4
bigfont.shx
  0
STYLE
  5
12C
100
AcDbSymbolTableRecord
100
AcDbTextStyleTableRecord
  2
NIKKO1
 70
    64
 40
0.0
 41
1.0
 50
0.0
 71
     0
 42
4.0
  3
simplex.shx
  4
extfont.shx
  0
ENDTAB
  0
TABLE
  2
VIEW
  5
6
100
AcDbSymbolTable
 70
     0
  0
ENDTAB
  0
TABLE
  2
UCS
  5
7
100
AcDbSymbolTable
 70
     0
  0
ENDTAB
  0
TABLE
  2
APPID
  5
9
100
AcDbSymbolTable
 70
     1
  0
APPID
  5
11
100
AcDbSymbolTableRecord
100
AcDbRegAppTableRecord
  2
ACAD
 70
    64
  0
ENDTAB
  0
TABLE
  2
DIMSTYLE
  5
A
100
AcDbSymbolTable
 70
     1
100
AcDbDimStyleTable
 71
     0
  0
DIMSTYLE
105
1D
100
AcDbSymbolTableRecord
100
AcDbDimStyleTableRecord
  2
STANDARD
 70
    64
  3

  4

 40
1.0
 41
2.5
 42
0.625
 43
3.75
 44
1.25
 45
0.0
 46
0.0
 47
0.0
 48
0.0
 71
     0
 72
     0
 73
     0
 74
     0
 75
     0
 76
     0
 77
     1
 78
     8
 79
     0
140
2.5
141
2.5
142
0.0
143
0.0394
144
1.0
145
0.0
146
1.0
147
0.625
148
0.0
170
     0
171
     4
172
     1
173
     0
174
     0
175
     0
176
     0
177
     0
178
     0
179
     0
271
     4
272
     4
273
     8
274
     4
275
     0
276
     0
277
     8
278
    46
279
     0
280
     0
281
     0
282
     0
283
     1
284
     0
285
     0
286
     0
288
     0
340
10
341
0
342
0
343
0
344
0
371
    -1
372
    -1
  0
ENDTAB
  0
TABLE
  2
BLOCK_RECORD
  5
1
100
AcDbSymbolTable
 70
     2
  0
BLOCK_RECORD
  5
1A
100
AcDbSymbolTableRecord
100
AcDbBlockTableRecord
  2
*MODEL_SPACE
340
C0D
  0
BLOCK_RECORD
  5
17
100
AcDbSymbolTableRecord
100
AcDbBlockTableRecord
  2
*PAPER_SPACE
340
C0E
  0
BLOCK_RECORD
  5
121
100
AcDbSymbolTableRecord
100
AcDbBlockTableRecord
  2
_ORIGIN
340
0
  0
BLOCK_RECORD
  5
294
100
AcDbSymbolTableRecord
100
AcDbBlockTableRecord
  2
_NONE
340
0
  0
ENDTAB
  0
ENDSEC
  0
SECTION
  2
BLOCKS
  0
BLOCK
  5
1B
100
AcDbEntity
  8
0
100
AcDbBlockBegin
  2
*MODEL_SPACE
 70
    64
 10
0.0
 20
0.0
 30
0.0
  3
*MODEL_SPACE
  1

  0
ENDBLK
  5
1C
100
AcDbEntity
  8
0
100
AcDbBlockEnd
  0
BLOCK
  5
18
100
AcDbEntity
 67
     1
  8
0
100
AcDbBlockBegin
  2
*PAPER_SPACE
 70
    64
 10
0.0
 20
0.0
 30
0.0
  3
*PAPER_SPACE
  1

  0
ENDBLK
  5
19
100
AcDbEntity
 67
     1
  8
0
100
AcDbBlockEnd
  0
BLOCK
  5
124
100
AcDbEntity
  8
0
100
AcDbBlockBegin
  2
_ORIGIN
 70
    64
 10
0.0
 20
0.0
 30
0.0
  3
_ORIGIN
  1

  0
LINE
  5
122
100
AcDbEntity
  8
0
  6
CONTINUOUS
 62
     0
100
AcDbLine
 10
-1.0
 20
0.0
 30
0.0
 11
0.0
 21
0.0
 31
0.0
  0
CIRCLE
  5
123
100
AcDbEntity
  8
0
  6
CONTINUOUS
 62
     0
100
AcDbCircle
 10
0.0
 20
0.0
 30
0.0
 40
0.5
  0
ENDBLK
  5
125
100
AcDbEntity
  8
0
100
AcDbBlockEnd
  0
BLOCK
  5
295
100
AcDbEntity
  8
0
100
AcDbBlockBegin
  2
_NONE
 70
    64
 10
0.0
 20
0.0
 30
0.0
  3
_NONE
  1

  0
CIRCLE
  5
296
100
AcDbEntity
  8
0
  6
ByBlock
 62
     0
100
AcDbCircle
 10
0.0
 20
0.0
 30
0.0
 40
0.25
  0
ENDBLK
  5
297
100
AcDbEntity
  8
0
100
AcDbBlockEnd
  0
ENDSEC
  0
SECTION
  2
ENTITIES
  0
VIEWPORT
  5
22
100
AcDbEntity
 67
     1
  8
0
100
AcDbViewport
 10
261.517699
 20
148.5
 30
0.0
 40
523.035398
 41
297.0
 68
     1
 69
     1
 12
261.517699
 22
148.5
 13
0.0
 23
0.0
 14
1.0
 24
1.0
 15
10.0
 25
10.0
 16
0.0
 26
0.0
 36
1.0
 17
0.0
 27
0.0
 37
0.0
 42
50.0
 43
0.0
 44
0.0
 45
297.0
 50
0.0
 51
0.0
 72
   100
 90
      160
340
0
  1

281
     0
 71
     0
 74
     1
110
0.0
120
0.0
130
0.0
111
1.0
121
0.0
131
0.0
112
0.0
122
1.0
132
0.0
345
0
346
0
 79
     0
146
0.0
  0
LWPOLYLINE
  5
252
100
AcDbEntity
  8
WAKU
100
AcDbPolyline
 90
        4
 70
     1
 10
0.0
 20
0.0
 10
570.0
 20
0.0
 10
570.0
 20
396.0
 10
0.0
 20
396.0
  0
LINE
  5
4F9
100
AcDbEntity
  8
WAKU
100
AcDbLine
 10
5.0
 20
391.0
 30
0.0
 11
565.0
 21
391.0
 31
0.0
  0
LINE
  5
4FA
100
AcDbEntity
  8
WAKU
  6
CONTINUOUS
100
AcDbLine
 10
5.0
 20
5.0
 30
0.0
 11
565.0
 21
5.0
 31
0.0
  0
LINE
  5
4FB
100
AcDbEntity
  8
WAKU
  6
CONTINUOUS
100
AcDbLine
 10
5.0
 20
25.0
 30
0.0
 11
565.0
 21
25.0
 31
0.0
  0
LINE
  5
500
100
AcDbEntity
  8
WAKU
100
AcDbLine
 10
5.0
 20
5.0
 30
0.0
 11
5.0
 21
391.0
 31
0.0
  0
TEXT
  5
501
100
AcDbEntity
  8
WAKU
100
AcDbText
 10
15.0
 20
8.0
 30
0.0
 40
12.0
  1
ビルパネ　PS-8645
100
AcDbText
  0
LINE
  5
502
100
AcDbEntity
  8
WAKU
  6
CONTINUOUS
100
AcDbLine
 10
195.0
 20
5.0
 30
0.0
 11
195.0
 21
25.0
 31
0.0
  0
LINE
  5
543
100
AcDbEntity
  8
WAKU
100
AcDbLine
 10
565.0
 20
391.0
 30
0.0
 11
565.0
 21
5.0
 31
0.0
  0
LINE
  5
872
100
AcDbEntity
  8
SUNPOU
100
AcDbLine
 10
392.870666
 20
256.60301
 30
0.0
 11
392.870666
 21
272.22801
 31
0.0
  0
LINE
  5
873
100
AcDbEntity
  8
SUNPOU
100
AcDbLine
 10
423.270666
 20
256.60301
 30
0.0
 11
423.270666
 21
272.22801
 31
0.0
  0
LINE
  5
874
100
AcDbEntity
  8
SUNPOU
100
AcDbLine
 10
392.870666
 20
270.97801
 30
0.0
 11
423.270666
 21
270.97801
 31
0.0
  0
MTEXT
  5
875
100
AcDbEntity
  8
SUNPOU
100
AcDbMText
 10
408.070666
 20
274.60301
 30
0.0
 40
6.0
 41
0.0
 71
     5
 72
     1
  1
\A1;30.4
 73
     1
 44
1.0
  0
POINT
  5
878
100
AcDbEntity
  8
SUNPOU
100
AcDbPoint
 10
423.270666
 20
270.97801
 30
0.0
  0
LINE
  5
879
100
AcDbEntity
  8
SUNPOU
100
AcDbLine
 10
357.445666
 20
170.97801
 30
0.0
 11
341.820666
 21
170.97801
 31
0.0
  0
LINE
  5
87A
100
AcDbEntity
  8
SUNPOU
100
AcDbLine
 10
392.245666
 20
255.97801
 30
0.0
 11
341.820666
 21
255.97801
 31
0.0
  0
LINE
  5
87B
100
AcDbEntity
  8
SUNPOU
100
AcDbLine
 10
343.070666
 20
170.97801
 30
0.0
 11
343.070666
 21
255.97801
 31
0.0
  0
MTEXT
  5
87C
100
AcDbEntity
  8
SUNPOU
100
AcDbMText
 10
339.445666
 20
213.47801
 30
0.0
 40
6.0
 41
0.0
 71
     5
 72
     1
  1
\A1;85
 11
0.0
 21
1.0
 31
0.0
 73
     1
 44
1.0
  0
POINT
  5
87F
100
AcDbEntity
  8
SUNPOU
100
AcDbPoint
 10
343.070666
 20
255.97801
 30
0.0
  0
LINE
  5
880
100
AcDbEntity
  8
SUNPOU
100
AcDbLine
 10
390.070666
 20
170.953016
 30
0.0
 11
390.070666
 21
154.72801
 31
0.0
  0
LINE
  5
881
100
AcDbEntity
  8
SUNPOU
100
AcDbLine
 10
426.070666
 20
170.953016
 30
0.0
 11
426.070666
 21
154.72801
 31
0.0
  0
LINE
  5
882
100
AcDbEntity
  8
SUNPOU
100
AcDbLine
 10
390.070666
 20
155.97801
 30
0.0
 11
426.070666
 21
155.97801
 31
0.0
  0
MTEXT
  5
883
100
AcDbEntity
  8
SUNPOU
100
AcDbMText
 10
408.070666
 20
159.60301
 30
0.0
 40
6.0
 41
0.0
 71
     5
 72
     1
  1
\A1;36
 73
     1
 44
1.0
  0
POINT
  5
886
100
AcDbEntity
  8
SUNPOU
100
AcDbPoint
 10
426.070666
 20
155.97801
 30
0.0
  0
LINE
  5
A30
100
AcDbEntity
  8
STRINGA
  6
HIDDEN2
100
AcDbLine
 10
426.070666
 20
220.97801
 30
0.0
 11
426.070666
 21
171.578016
 31
0.0
  0
LINE
  5
A31
100
AcDbEntity
  8
STRINGA
  6
HIDDEN2
100
AcDbLine
 10
424.770666
 20
224.47801
 30
0.0
 11
424.770666
 21
171.578016
 31
0.0
  0
LINE
  5
A32
100
AcDbEntity
  8
STRINGA
  6
HIDDEN2
100
AcDbLine
 10
390.070666
 20
220.97801
 30
0.0
 11
390.070666
 21
171.578016
 31
0.0
  0
LINE
  5
A33
100
AcDbEntity
  8
STRINGA
  6
HIDDEN2
100
AcDbLine
 10
391.370666
 20
224.47801
 30
0.0
 11
391.370666
 21
171.578016
 31
0.0
  0
LINE
  5
A34
100
AcDbEntity
  8
PANEL
  6
DASHED2
100
AcDbLine
 10
458.070666
 20
171.578016
 30
0.0
 11
358.070666
 21
171.578016
 31
0.0
  0
LINE
  5
A35
100
AcDbEntity
  8
PANEL
  6
CONTINUOUS
100
AcDbLine
 10
458.070666
 20
170.97801
 30
0.0
 11
358.070666
 21
170.97801
 31
0.0
  0
LINE
  5
A36
100
AcDbEntity
  8
STRINGA
  6
HIDDEN2
100
AcDbLine
 10
391.370666
 20
171.578016
 30
0.0
 11
390.070666
 21
171.578016
 31
0.0
  0
LINE
  5
A37
100
AcDbEntity
  8
STRINGA
  6
HIDDEN2
100
AcDbLine
 10
426.070666
 20
171.578016
 30
0.0
 11
424.770666
 21
171.578016
 31
0.0
  0
LINE
  5
A38
100
AcDbEntity
  8
PANEL
  6
CONTINUOUS
100
AcDbLine
 10
358.070666
 20
233.97801
 30
0.0
 11
458.070666
 21
233.97801
 31
0.0
  0
LINE
  5
A39
100
AcDbEntity
  8
PANEL
  6
DASHED2
100
AcDbLine
 10
358.070666
 20
233.378004
 30
0.0
 11
458.070666
 21
233.378004
 31
0.0
  0
LINE
  5
A3A
100
AcDbEntity
  8
STRINGA
  6
CONTINUOUS
100
AcDbLine
 10
419.770666
 20
247.97801
 30
0.0
 11
419.770666
 21
246.97801
 31
0.0
  0
LINE
  5
A3B
100
AcDbEntity
  8
STRINGA
  6
CONTINUOUS
100
AcDbLine
 10
396.370666
 20
247.97801
 30
0.0
 11
396.370666
 21
246.97801
 31
0.0
  0
LINE
  5
A3C
100
AcDbEntity
  8
STRINGA
  6
CONTINUOUS
100
AcDbLine
 10
423.270666
 20
255.97801
 30
0.0
 11
423.270666
 21
239.97801
 31
0.0
  0
LINE
  5
A3D
100
AcDbEntity
  8
STRINGA
  6
CONTINUOUS
100
AcDbLine
 10
392.870666
 20
255.97801
 30
0.0
 11
392.870666
 21
239.97801
 31
0.0
  0
LINE
  5
A3E
100
AcDbEntity
  8
STRINGA
  6
HIDDEN2
100
AcDbLine
 10
389.870666
 20
221.97801
 30
0.0
 11
389.870666
 21
233.97801
 31
0.0
  0
LINE
  5
A3F
100
AcDbEntity
  8
STRINGA
  6
HIDDEN2
100
AcDbLine
 10
392.870666
 20
225.97801
 30
0.0
 11
392.870666
 21
224.47801
 31
0.0
  0
LINE
  5
A40
100
AcDbEntity
  8
STRINGA
  6
HIDDEN2
100
AcDbLine
 10
392.870666
 20
224.47801
 30
0.0
 11
391.370666
 21
224.47801
 31
0.0
  0
LINE
  5
A41
100
AcDbEntity
  8
STRINGA
  6
HIDDEN2
100
AcDbLine
 10
390.070666
 20
220.97801
 30
0.0
 11
389.870666
 21
221.97801
 31
0.0
  0
LINE
  5
A42
100
AcDbEntity
  8
STRINGA
  6
CONTINUOUS
100
AcDbLine
 10
389.870666
 20
239.97801
 30
0.0
 11
389.870666
 21
233.97801
 31
0.0
  0
LINE
  5
A43
100
AcDbEntity
  8
STRINGA
  6
CONTINUOUS
100
AcDbLine
 10
391.370666
 20
238.47801
 30
0.0
 11
391.370666
 21
233.97801
 31
0.0
  0
LINE
  5
A44
100
AcDbEntity
  8
STRINGA
  6
HIDDEN2
100
AcDbLine
 10
391.370666
 20
225.97801
 30
0.0
 11
391.370666
 21
233.97801
 31
0.0
  0
LINE
  5
A45
100
AcDbEntity
  8
STRINGA
  6
HIDDEN2
100
AcDbLine
 10
392.870666
 20
225.97801
 30
0.0
 11
391.370666
 21
225.97801
 31
0.0
  0
LINE
  5
A46
100
AcDbEntity
  8
STRINGA
  6
CONTINUOUS
100
AcDbLine
 10
394.370666
 20
238.47801
 30
0.0
 11
391.370666
 21
238.47801
 31
0.0
  0
LINE
  5
A47
100
AcDbEntity
  8
STRINGA
  6
CONTINUOUS
100
AcDbLine
 10
392.870666
 20
239.97801
 30
0.0
 11
389.870666
 21
239.97801
 31
0.0
  0
LINE
  5
A48
100
AcDbEntity
  8
STRINGA
  6
CONTINUOUS
100
AcDbLine
 10
394.370666
 20
246.97801
 30
0.0
 11
394.370666
 21
238.47801
 31
0.0
  0
LINE
  5
A49
100
AcDbEntity
  8
STRINGA
  6
CONTINUOUS
100
AcDbLine
 10
396.370666
 20
246.97801
 30
0.0
 11
394.370666
 21
246.97801
 31
0.0
  0
LINE
  5
A4A
100
AcDbEntity
  8
STRINGA
  6
HIDDEN2
100
AcDbLine
 10
426.270666
 20
221.97801
 30
0.0
 11
426.270666
 21
233.97801
 31
0.0
  0
LINE
  5
A4B
100
AcDbEntity
  8
STRINGA
  6
HIDDEN2
100
AcDbLine
 10
423.270666
 20
225.97801
 30
0.0
 11
423.270666
 21
224.47801
 31
0.0
  0
LINE
  5
A4C
100
AcDbEntity
  8
STRINGA
  6
HIDDEN2
100
AcDbLine
 10
424.770666
 20
224.47801
 30
0.0
 11
423.270666
 21
224.47801
 31
0.0
  0
LINE
  5
A4D
100
AcDbEntity
  8
STRINGA
  6
HIDDEN2
100
AcDbLine
 10
426.070666
 20
220.97801
 30
0.0
 11
426.270666
 21
221.97801
 31
0.0
  0
LINE
  5
A4E
100
AcDbEntity
  8
STRINGA
  6
CONTINUOUS
100
AcDbLine
 10
426.270666
 20
239.97801
 30
0.0
 11
426.270666
 21
233.97801
 31
0.0
  0
LINE
  5
A4F
100
AcDbEntity
  8
STRINGA
  6
CONTINUOUS
100
AcDbLine
 10
424.770666
 20
238.47801
 30
0.0
 11
424.770666
 21
233.97801
 31
0.0
  0
LINE
  5
A50
100
AcDbEntity
  8
STRINGA
  6
HIDDEN2
100
AcDbLine
 10
424.770666
 20
225.97801
 30
0.0
 11
423.270666
 21
225.97801
 31
0.0
  0
LINE
  5
A51
100
AcDbEntity
  8
STRINGA
  6
HIDDEN2
100
AcDbLine
 10
424.770666
 20
225.97801
 30
0.0
 11
424.770666
 21
233.97801
 31
0.0
  0
LINE
  5
A52
100
AcDbEntity
  8
STRINGA
  6
CONTINUOUS
100
AcDbLine
 10
424.770666
 20
238.47801
 30
0.0
 11
421.770666
 21
238.47801
 31
0.0
  0
LINE
  5
A53
100
AcDbEntity
  8
STRINGA
  6
CONTINUOUS
100
AcDbLine
 10
426.270666
 20
239.97801
 30
0.0
 11
423.270666
 21
239.97801
 31
0.0
  0
LINE
  5
A54
100
AcDbEntity
  8
STRINGA
  6
CONTINUOUS
100
AcDbLine
 10
421.770666
 20
246.97801
 30
0.0
 11
419.770666
 21
246.97801
 31
0.0
  0
LINE
  5
A55
100
AcDbEntity
  8
STRINGA
  6
CONTINUOUS
100
AcDbLine
 10
421.770666
 20
246.97801
 30
0.0
 11
421.770666
 21
238.47801
 31
0.0
  0
LINE
  5
A56
100
AcDbEntity
  8
STRINGA
  6
CONTINUOUS
100
AcDbLine
 10
421.770666
 20
254.47801
 30
0.0
 11
394.370666
 21
254.47801
 31
0.0
  0
LINE
  5
A57
100
AcDbEntity
  8
STRINGA
  6
CONTINUOUS
100
AcDbLine
 10
423.270666
 20
255.97801
 30
0.0
 11
392.870666
 21
255.97801
 31
0.0
  0
LINE
  5
A58
100
AcDbEntity
  8
STRINGA
  6
CONTINUOUS
100
AcDbLine
 10
394.370666
 20
254.47801
 30
0.0
 11
394.370666
 21
247.97801
 31
0.0
  0
LINE
  5
A59
100
AcDbEntity
  8
STRINGA
  6
CONTINUOUS
100
AcDbLine
 10
396.370666
 20
247.97801
 30
0.0
 11
394.370666
 21
247.97801
 31
0.0
  0
LINE
  5
A5A
100
AcDbEntity
  8
STRINGA
  6
CONTINUOUS
100
AcDbLine
 10
421.770666
 20
254.47801
 30
0.0
 11
421.770666
 21
247.97801
 31
0.0
  0
LINE
  5
A5B
100
AcDbEntity
  8
STRINGA
  6
CONTINUOUS
100
AcDbLine
 10
421.770666
 20
247.97801
 30
0.0
 11
419.770666
 21
247.97801
 31
0.0
  0
ARC
  5
AB4
100
AcDbEntity
  8
PANEL
  6
CONTINUOUS
100
AcDbCircle
 10
116.848212
 20
92.2939
 30
0.0
 40
7.399982
100
AcDbArc
 50
134.999833
 51
254.999785
  0
ARC
  5
AB5
100
AcDbEntity
  8
PANEL
  6
CONTINUOUS
100
AcDbCircle
 10
116.848212
 20
92.2939
 30
0.0
 40
8.000011
100
AcDbArc
 50
135.0
 51
254.99999
  0
LINE
  5
AB6
100
AcDbEntity
  8
PANEL
  6
CONTINUOUS
100
AcDbLine
 10
119.951972
 20
83.801224
 30
0.0
 11
119.796454
 21
83.22139
 31
0.0
  0
LINE
  5
AB7
100
AcDbEntity
  8
PANEL
  6
CONTINUOUS
100
AcDbLine
 10
119.951972
 20
83.801224
 30
0.0
 11
114.598456
 21
85.23555
 31
0.0
  0
LINE
  5
AB8
100
AcDbEntity
  8
PANEL
  6
CONTINUOUS
100
AcDbLine
 10
114.777411
 20
84.566117
 30
0.0
 11
119.796454
 21
83.22139
 31
0.0
  0
LINE
  5
AB9
100
AcDbEntity
  8
PANEL
  6
CONTINUOUS
100
AcDbLine
 10
159.274466
 20
318.433854
 30
0.0
 11
111.19123
 21
270.350663
 31
0.0
  0
LINE
  5
ABA
100
AcDbEntity
  8
PANEL
  6
CONTINUOUS
100
AcDbLine
 10
159.698783
 20
318.009537
 30
0.0
 11
111.615546
 21
269.926346
 31
0.0
  0
ARC
  5
ABB
100
AcDbEntity
  8
PANEL
  6
CONTINUOUS
100
AcDbCircle
 10
164.931449
 20
140.377152
 30
0.0
 40
8.000009
100
AcDbArc
 50
14.99956
 51
135.0
  0
ARC
  5
ABC
100
AcDbEntity
  8
PANEL
  6
CONTINUOUS
100
AcDbCircle
 10
164.931449
 20
140.377152
 30
0.0
 40
7.399978
100
AcDbArc
 50
15.000215
 51
134.999666
  0
ARC
  5
ABD
100
AcDbEntity
  8
PANEL
  6
CONTINUOUS
100
AcDbCircle
 10
164.931449
 20
226.577164
 30
0.0
 40
8.000009
100
AcDbArc
 50
14.99956
 51
135.0
  0
ARC
  5
ABE
100
AcDbEntity
  8
PANEL
  6
CONTINUOUS
100
AcDbCircle
 10
164.931449
 20
226.577164
 30
0.0
 40
7.399935
100
AcDbArc
 50
15.000306
 51
135.0
  0
LINE
  5
ABF
100
AcDbEntity
  8
PANEL
  6
CONTINUOUS
100
AcDbLine
 10
159.274466
 20
232.233903
 30
0.0
 11
111.19123
 21
184.150651
 31
0.0
  0
LINE
  5
AC0
100
AcDbEntity
  8
PANEL
  6
CONTINUOUS
100
AcDbLine
 10
159.698783
 20
231.809586
 30
0.0
 11
111.615546
 21
183.726334
 31
0.0
  0
LINE
  5
AC1
100
AcDbEntity
  8
PANEL
  6
CONTINUOUS
100
AcDbLine
 10
159.274466
 20
146.03389
 30
0.0
 11
111.19123
 21
97.950638
 31
0.0
  0
LINE
  5
AC2
100
AcDbEntity
  8
PANEL
  6
CONTINUOUS
100
AcDbLine
 10
159.698783
 20
145.609574
 30
0.0
 11
111.615546
 21
97.526322
 31
0.0
  0
ARC
  5
AC3
100
AcDbEntity
  8
PANEL
  6
CONTINUOUS
100
AcDbCircle
 10
116.848212
 20
178.493912
 30
0.0
 40
7.399982
100
AcDbArc
 50
134.999666
 51
254.999785
  0
ARC
  5
AC4
100
AcDbEntity
  8
PANEL
  6
CONTINUOUS
100
AcDbCircle
 10
116.848212
 20
178.493912
 30
0.0
 40
8.000011
100
AcDbArc
 50
135.0
 51
254.99999
  0
LINE
  5
AC5
100
AcDbEntity
  8
PANEL
  6
CONTINUOUS
100
AcDbLine
 10
119.951972
 20
170.001237
 30
0.0
 11
119.796454
 21
169.421403
 31
0.0
  0
LINE
  5
AC6
100
AcDbEntity
  8
PANEL
  6
CONTINUOUS
100
AcDbLine
 10
114.777411
 20
170.766129
 30
0.0
 11
119.796454
 21
169.421403
 31
0.0
  0
LINE
  5
AC7
100
AcDbEntity
  8
PANEL
  6
CONTINUOUS
100
AcDbLine
 10
119.951972
 20
170.001237
 30
0.0
 11
114.598456
 21
171.435563
 31
0.0
  0
ARC
  5
AC8
100
AcDbEntity
  8
PANEL
  6
CONTINUOUS
100
AcDbCircle
 10
116.848212
 20
264.693925
 30
0.0
 40
7.399982
100
AcDbArc
 50
134.999833
 51
254.999785
  0
ARC
  5
AC9
100
AcDbEntity
  8
PANEL
  6
CONTINUOUS
100
AcDbCircle
 10
116.848212
 20
264.693925
 30
0.0
 40
8.000011
100
AcDbArc
 50
135.0
 51
254.99999
  0
LINE
  5
ACA
100
AcDbEntity
  8
PANEL
  6
CONTINUOUS
100
AcDbLine
 10
119.951972
 20
256.201249
 30
0.0
 11
119.796454
 21
255.621415
 31
0.0
  0
LINE
  5
ACB
100
AcDbEntity
  8
PANEL
  6
CONTINUOUS
100
AcDbLine
 10
114.777411
 20
256.966141
 30
0.0
 11
119.796454
 21
255.621415
 31
0.0
  0
LINE
  5
ACC
100
AcDbEntity
  8
PANEL
  6
CONTINUOUS
100
AcDbLine
 10
119.951972
 20
256.201249
 30
0.0
 11
114.598456
 21
257.635575
 31
0.0
  0
LINE
  5
ACD
100
AcDbEntity
  8
PANEL
  6
CONTINUOUS
100
AcDbLine
 10
172.658744
 20
142.447465
 30
0.0
 11
174.00347
 21
137.428422
 31
0.0
  0
LINE
  5
ACE
100
AcDbEntity
  8
PANEL
  6
CONTINUOUS
100
AcDbLine
 10
173.42388
 20
137.273148
 30
0.0
 11
171.989554
 21
142.626664
 31
0.0
  0
LINE
  5
ACF
100
AcDbEntity
  8
PANEL
  6
CONTINUOUS
100
AcDbLine
 10
173.42388
 20
137.273148
 30
0.0
 11
174.00347
 21
137.428422
 31
0.0
  0
LINE
  5
AD2
100
AcDbEntity
  8
PANEL
  6
CONTINUOUS
100
AcDbLine
 10
172.658744
 20
228.647477
 30
0.0
 11
174.00347
 21
223.628434
 31
0.0
  0
LINE
  5
AD3
100
AcDbEntity
  8
PANEL
  6
CONTINUOUS
100
AcDbLine
 10
173.42388
 20
223.47316
 30
0.0
 11
171.989554
 21
228.826676
 31
0.0
  0
LINE
  5
AD4
100
AcDbEntity
  8
PANEL
  6
CONTINUOUS
100
AcDbLine
 10
173.42388
 20
223.47316
 30
0.0
 11
174.00347
 21
223.628434
 31
0.0
  0
ARC
  5
AD5
100
AcDbEntity
  8
PANEL
  6
CONTINUOUS
100
AcDbCircle
 10
164.931449
 20
312.777115
 30
0.0
 40
8.000009
100
AcDbArc
 50
15.00001
 51
135.0
  0
ARC
  5
AD6
100
AcDbEntity
  8
PANEL
  6
CONTINUOUS
100
AcDbCircle
 10
164.931449
 20
312.777115
 30
0.0
 40
7.399978
100
AcDbArc
 50
15.000215
 51
134.999666
  0
LINE
  5
AD7
100
AcDbEntity
  8
PANEL
  6
CONTINUOUS
100
AcDbLine
 10
172.658744
 20
314.847428
 30
0.0
 11
174.00347
 21
309.828385
 31
0.0
  0
LINE
  5
AD8
100
AcDbEntity
  8
PANEL
  6
CONTINUOUS
100
AcDbLine
 10
173.42388
 20
309.673112
 30
0.0
 11
171.989554
 21
315.026627
 31
0.0
  0
LINE
  5
AD9
100
AcDbEntity
  8
PANEL
  6
CONTINUOUS
100
AcDbLine
 10
173.42388
 20
309.673112
 30
0.0
 11
174.00347
 21
309.828385
 31
0.0
  0
ARC
  5
B2C
100
AcDbEntity
  8
STRINGA
  6
CONTINUOUS
100
AcDbCircle
 10
120.033759
 20
92.509232
 30
0.0
 40
9.499935
100
AcDbArc
 50
134.999479
 51
225.000521
  0
ARC
  5
B2D
100
AcDbEntity
  8
STRINGA
  6
CONTINUOUS
100
AcDbCircle
 10
137.348197
 20
57.003373
 30
0.0
 40
37.499939
100
AcDbArc
 50
25.489398
 51
129.853075
  0
LINE
  5
B2E
100
AcDbEntity
  8
STRINGA
  6
CONTINUOUS
100
AcDbLine
 10
193.848197
 20
331.741313
 30
0.0
 11
193.848197
 21
73.141249
 31
0.0
  0
LINE
  5
B2F
100
AcDbEntity
  8
STRINGA
  6
CONTINUOUS
100
AcDbLine
 10
177.848197
 20
331.741313
 30
0.0
 11
177.848197
 21
73.141249
 31
0.0
  0
LINE
  5
B30
100
AcDbEntity
  8
STRINGA
  6
CONTINUOUS
100
AcDbLine
 10
113.316351
 20
271.626762
 30
0.0
 11
127.268273
 21
285.579072
 31
0.0
  0
ARC
  5
B31
100
AcDbEntity
  8
STRINGA
  6
CONTINUOUS
100
AcDbCircle
 10
164.715872
 20
137.191361
 30
0.0
 40
9.499935
100
AcDbArc
 50
45.952204
 51
134.999479
  0
ARC
  5
B32
100
AcDbEntity
  8
STRINGA
  6
CONTINUOUS
100
AcDbCircle
 10
164.715872
 20
223.391373
 30
0.0
 40
9.499891
100
AcDbArc
 50
45.952336
 51
134.99974
  0
ARC
  5
B33
100
AcDbEntity
  8
STRINGA
  6
CONTINUOUS
100
AcDbCircle
 10
137.348197
 20
143.203385
 30
0.0
 40
37.499939
100
AcDbArc
 50
25.489398
 51
129.853075
  0
ARC
  5
B34
100
AcDbEntity
  8
STRINGA
  6
CONTINUOUS
100
AcDbCircle
 10
137.348197
 20
229.403397
 30
0.0
 40
37.499939
100
AcDbArc
 50
25.489398
 51
129.853075
  0
LINE
  5
B35
100
AcDbEntity
  8
STRINGA
  6
CONTINUOUS
100
AcDbLine
 10
113.316351
 20
185.426762
 30
0.0
 11
127.268273
 21
199.379072
 31
0.0
  0
LINE
  5
B36
100
AcDbEntity
  8
STRINGA
  6
CONTINUOUS
100
AcDbLine
 10
142.824623
 20
128.735421
 30
0.0
 11
157.998465
 21
143.908891
 31
0.0
  0
LINE
  5
B37
100
AcDbEntity
  8
STRINGA
  6
CONTINUOUS
100
AcDbLine
 10
136.107108
 20
112.118412
 30
0.0
 11
134.692895
 21
113.532625
 31
0.0
  0
LINE
  5
B38
100
AcDbEntity
  8
STRINGA
  6
CONTINUOUS
100
AcDbLine
 10
129.03604
 20
105.047344
 30
0.0
 11
136.107108
 21
112.118412
 31
0.0
  0
LINE
  5
B39
100
AcDbEntity
  8
STRINGA
  6
CONTINUOUS
100
AcDbLine
 10
134.692895
 20
114.946839
 30
0.0
 11
141.056856
 21
121.3108
 31
0.0
  0
LINE
  5
B3A
100
AcDbEntity
  8
STRINGA
  6
CONTINUOUS
100
AcDbLine
 10
113.316351
 20
99.226762
 30
0.0
 11
127.268273
 21
113.179072
 31
0.0
  0
LINE
  5
B3B
100
AcDbEntity
  8
STRINGA
  6
CONTINUOUS
100
AcDbLine
 10
127.056141
 20
107.027243
 30
0.0
 11
130.945229
 21
110.91633
 31
0.0
  0
LINE
  5
B3C
100
AcDbEntity
  8
STRINGA
  6
CONTINUOUS
100
AcDbLine
 10
129.03604
 20
105.047344
 30
0.0
 11
127.056141
 21
107.027243
 31
0.0
  0
ARC
  5
B3D
100
AcDbEntity
  8
STRINGA
  6
CONTINUOUS
100
AcDbCircle
 10
127.97538
 20
112.471965
 30
0.0
 40
1.0
100
AcDbArc
 50
45.0
 51
135.0
  0
ARC
  5
B3E
100
AcDbEntity
  8
STRINGA
  6
CONTINUOUS
100
AcDbCircle
 10
135.400001
 20
114.239732
 30
0.0
 40
1.0
100
AcDbArc
 50
135.0
 51
225.0
  0
LINE
  5
B3F
100
AcDbEntity
  8
STRINGA
  6
CONTINUOUS
100
AcDbLine
 10
130.945229
 20
110.91633
 30
0.0
 11
128.682487
 21
113.179072
 31
0.0
  0
LINE
  5
B40
100
AcDbEntity
  8
STRINGA
  6
CONTINUOUS
100
AcDbLine
 10
145.087364
 20
125.058466
 30
0.0
 11
142.824623
 21
127.321208
 31
0.0
  0
LINE
  5
B41
100
AcDbEntity
  8
STRINGA
  6
CONTINUOUS
100
AcDbLine
 10
143.885283
 20
119.896586
 30
0.0
 11
150.956351
 21
126.967654
 31
0.0
  0
ARC
  5
B42
100
AcDbEntity
  8
STRINGA
  6
CONTINUOUS
100
AcDbCircle
 10
143.531729
 20
128.028314
 30
0.0
 40
1.0
100
AcDbArc
 50
135.0
 51
225.0
  0
LINE
  5
B43
100
AcDbEntity
  8
STRINGA
  6
CONTINUOUS
100
AcDbLine
 10
143.885283
 20
119.896586
 30
0.0
 11
142.471069
 21
121.3108
 31
0.0
  0
ARC
  5
B44
100
AcDbEntity
  8
STRINGA
  6
CONTINUOUS
100
AcDbCircle
 10
141.763962
 20
120.603693
 30
0.0
 40
1.0
100
AcDbArc
 50
45.0
 51
135.0
  0
LINE
  5
B45
100
AcDbEntity
  8
STRINGA
  6
CONTINUOUS
100
AcDbLine
 10
150.956351
 20
126.967654
 30
0.0
 11
148.976452
 21
128.947553
 31
0.0
  0
LINE
  5
B46
100
AcDbEntity
  8
STRINGA
  6
CONTINUOUS
100
AcDbLine
 10
145.087364
 20
125.058466
 30
0.0
 11
148.976452
 21
128.947553
 31
0.0
  0
ARC
  5
B47
100
AcDbEntity
  8
STRINGA
  6
CONTINUOUS
100
AcDbCircle
 10
120.033759
 20
178.709244
 30
0.0
 40
9.499935
100
AcDbArc
 50
134.999479
 51
225.000521
  0
LINE
  5
B48
100
AcDbEntity
  8
STRINGA
  6
CONTINUOUS
100
AcDbLine
 10
136.107108
 20
198.318412
 30
0.0
 11
134.692895
 21
199.732625
 31
0.0
  0
LINE
  5
B49
100
AcDbEntity
  8
STRINGA
  6
CONTINUOUS
100
AcDbLine
 10
129.03604
 20
191.247344
 30
0.0
 11
136.107108
 21
198.318412
 31
0.0
  0
LINE
  5
B4A
100
AcDbEntity
  8
STRINGA
  6
CONTINUOUS
100
AcDbLine
 10
134.692895
 20
201.146839
 30
0.0
 11
141.056856
 21
207.5108
 31
0.0
  0
LINE
  5
B4B
100
AcDbEntity
  8
STRINGA
  6
CONTINUOUS
100
AcDbLine
 10
127.056141
 20
193.227243
 30
0.0
 11
130.945229
 21
197.11633
 31
0.0
  0
LINE
  5
B4C
100
AcDbEntity
  8
STRINGA
  6
CONTINUOUS
100
AcDbLine
 10
129.03604
 20
191.247344
 30
0.0
 11
127.056141
 21
193.227243
 31
0.0
  0
ARC
  5
B4D
100
AcDbEntity
  8
STRINGA
  6
CONTINUOUS
100
AcDbCircle
 10
127.97538
 20
198.671965
 30
0.0
 40
1.0
100
AcDbArc
 50
45.0
 51
135.0
  0
ARC
  5
B4E
100
AcDbEntity
  8
STRINGA
  6
CONTINUOUS
100
AcDbCircle
 10
135.400001
 20
200.439732
 30
0.0
 40
1.0
100
AcDbArc
 50
135.0
 51
225.0
  0
LINE
  5
B4F
100
AcDbEntity
  8
STRINGA
  6
CONTINUOUS
100
AcDbLine
 10
130.945229
 20
197.11633
 30
0.0
 11
128.682487
 21
199.379072
 31
0.0
  0
LINE
  5
B50
100
AcDbEntity
  8
STRINGA
  6
CONTINUOUS
100
AcDbLine
 10
143.885283
 20
206.096586
 30
0.0
 11
150.956351
 21
213.167654
 31
0.0
  0
LINE
  5
B51
100
AcDbEntity
  8
STRINGA
  6
CONTINUOUS
100
AcDbLine
 10
143.885283
 20
206.096586
 30
0.0
 11
142.471069
 21
207.5108
 31
0.0
  0
ARC
  5
B52
100
AcDbEntity
  8
STRINGA
  6
CONTINUOUS
100
AcDbCircle
 10
141.763962
 20
206.803693
 30
0.0
 40
1.0
100
AcDbArc
 50
45.0
 51
135.0
  0
LINE
  5
B53
100
AcDbEntity
  8
STRINGA
  6
CONTINUOUS
100
AcDbLine
 10
142.824623
 20
214.935421
 30
0.0
 11
157.998465
 21
230.108891
 31
0.0
  0
LINE
  5
B54
100
AcDbEntity
  8
STRINGA
  6
CONTINUOUS
100
AcDbLine
 10
145.087364
 20
211.258466
 30
0.0
 11
142.824623
 21
213.521208
 31
0.0
  0
ARC
  5
B55
100
AcDbEntity
  8
STRINGA
  6
CONTINUOUS
100
AcDbCircle
 10
143.531729
 20
214.228314
 30
0.0
 40
1.0
100
AcDbArc
 50
135.0
 51
225.0
  0
LINE
  5
B56
100
AcDbEntity
  8
STRINGA
  6
CONTINUOUS
100
AcDbLine
 10
150.956351
 20
213.167654
 30
0.0
 11
148.976452
 21
215.147553
 31
0.0
  0
LINE
  5
B57
100
AcDbEntity
  8
STRINGA
  6
CONTINUOUS
100
AcDbLine
 10
145.087364
 20
211.258466
 30
0.0
 11
148.976452
 21
215.147553
 31
0.0
  0
ARC
  5
B58
100
AcDbEntity
  8
STRINGA
  6
CONTINUOUS
100
AcDbCircle
 10
120.033759
 20
264.909257
 30
0.0
 40
9.499935
100
AcDbArc
 50
134.99974
 51
225.000521
  0
LINE
  5
B59
100
AcDbEntity
  8
STRINGA
  6
CONTINUOUS
100
AcDbLine
 10
174.848197
 20
143.939652
 30
0.0
 11
174.848197
 21
136.76973
 31
0.0
  0
LINE
  5
B5A
100
AcDbEntity
  8
STRINGA
  6
CONTINUOUS
100
AcDbLine
 10
169.348197
 20
142.039506
 30
0.0
 11
169.348197
 21
136.76973
 31
0.0
  0
ARC
  5
B5B
100
AcDbEntity
  8
STRINGA
  6
CONTINUOUS
100
AcDbCircle
 10
172.098197
 20
136.76973
 30
0.0
 40
2.75
100
AcDbArc
 50
180.0
 51
360.0
  0
ARC
  5
B5C
100
AcDbEntity
  8
STRINGA
  6
CONTINUOUS
100
AcDbCircle
 10
137.348197
 20
143.939652
 30
0.0
 40
37.500038
100
AcDbArc
 50
0.0
 51
24.249805
  0
LINE
  5
B5D
100
AcDbEntity
  8
STRINGA
  6
CONTINUOUS
100
AcDbLine
 10
171.320853
 20
144.01973
 30
0.0
 11
169.348197
 21
142.039506
 31
0.0
  0
ARC
  5
B5E
100
AcDbEntity
  8
STRINGA
  6
CONTINUOUS
100
AcDbCircle
 10
137.348197
 20
230.139664
 30
0.0
 40
37.500038
100
AcDbArc
 50
0.0
 51
24.249805
  0
LINE
  5
B60
100
AcDbEntity
  8
STRINGA
  6
CONTINUOUS
100
AcDbLine
 10
174.848197
 20
230.139664
 30
0.0
 11
174.848197
 21
222.969742
 31
0.0
  0
LINE
  5
B61
100
AcDbEntity
  8
STRINGA
  6
CONTINUOUS
100
AcDbLine
 10
169.348197
 20
228.239518
 30
0.0
 11
169.348197
 21
222.969742
 31
0.0
  0
LINE
  5
B62
100
AcDbEntity
  8
STRINGA
  6
CONTINUOUS
100
AcDbLine
 10
171.320853
 20
230.219742
 30
0.0
 11
169.348197
 21
228.239518
 31
0.0
  0
ARC
  5
B63
100
AcDbEntity
  8
STRINGA
  6
CONTINUOUS
100
AcDbCircle
 10
172.098197
 20
222.969742
 30
0.0
 40
2.75
100
AcDbArc
 50
180.0
 51
360.0
  0
ARC
  5
B64
100
AcDbEntity
  8
STRINGA
  6
CONTINUOUS
100
AcDbCircle
 10
164.715872
 20
309.591324
 30
0.0
 40
9.499935
100
AcDbArc
 50
45.952464
 51
134.999479
  0
LINE
  5
B65
100
AcDbEntity
  8
STRINGA
  6
CONTINUOUS
100
AcDbLine
 10
136.107108
 20
284.518412
 30
0.0
 11
134.692895
 21
285.932625
 31
0.0
  0
LINE
  5
B66
100
AcDbEntity
  8
STRINGA
  6
CONTINUOUS
100
AcDbLine
 10
129.03604
 20
277.447344
 30
0.0
 11
136.107108
 21
284.518412
 31
0.0
  0
LINE
  5
B67
100
AcDbEntity
  8
STRINGA
  6
CONTINUOUS
100
AcDbLine
 10
134.692895
 20
287.346839
 30
0.0
 11
141.056856
 21
293.7108
 31
0.0
  0
ARC
  5
B68
100
AcDbEntity
  8
STRINGA
  6
CONTINUOUS
100
AcDbCircle
 10
135.400001
 20
286.639732
 30
0.0
 40
1.0
100
AcDbArc
 50
135.0
 51
225.0
  0
LINE
  5
B69
100
AcDbEntity
  8
STRINGA
  6
CONTINUOUS
100
AcDbLine
 10
127.056141
 20
279.427243
 30
0.0
 11
130.945229
 21
283.31633
 31
0.0
  0
ARC
  5
B6A
100
AcDbEntity
  8
STRINGA
  6
CONTINUOUS
100
AcDbCircle
 10
127.97538
 20
284.871965
 30
0.0
 40
1.0
100
AcDbArc
 50
45.0
 51
135.0
  0
LINE
  5
B6B
100
AcDbEntity
  8
STRINGA
  6
CONTINUOUS
100
AcDbLine
 10
129.03604
 20
277.447344
 30
0.0
 11
127.056141
 21
279.427243
 31
0.0
  0
LINE
  5
B6C
100
AcDbEntity
  8
STRINGA
  6
CONTINUOUS
100
AcDbLine
 10
130.945229
 20
283.31633
 30
0.0
 11
128.682487
 21
285.579072
 31
0.0
  0
LINE
  5
B6D
100
AcDbEntity
  8
STRINGA
  6
CONTINUOUS
100
AcDbLine
 10
143.885283
 20
292.296586
 30
0.0
 11
150.956351
 21
299.367654
 31
0.0
  0
LINE
  5
B6E
100
AcDbEntity
  8
STRINGA
  6
CONTINUOUS
100
AcDbLine
 10
143.885283
 20
292.296586
 30
0.0
 11
142.471069
 21
293.7108
 31
0.0
  0
ARC
  5
B6F
100
AcDbEntity
  8
STRINGA
  6
CONTINUOUS
100
AcDbCircle
 10
141.763962
 20
293.003693
 30
0.0
 40
1.0
100
AcDbArc
 50
45.0
 51
135.0
  0
LINE
  5
B70
100
AcDbEntity
  8
STRINGA
  6
CONTINUOUS
100
AcDbLine
 10
142.824623
 20
301.135421
 30
0.0
 11
157.998465
 21
316.308891
 31
0.0
  0
LINE
  5
B71
100
AcDbEntity
  8
STRINGA
  6
CONTINUOUS
100
AcDbLine
 10
145.087364
 20
297.458466
 30
0.0
 11
142.824623
 21
299.721208
 31
0.0
  0
ARC
  5
B72
100
AcDbEntity
  8
STRINGA
  6
CONTINUOUS
100
AcDbCircle
 10
143.531729
 20
300.428314
 30
0.0
 40
1.0
100
AcDbArc
 50
135.0
 51
225.0
  0
LINE
  5
B73
100
AcDbEntity
  8
STRINGA
  6
CONTINUOUS
100
AcDbLine
 10
150.956351
 20
299.367654
 30
0.0
 11
148.976452
 21
301.347553
 31
0.0
  0
LINE
  5
B74
100
AcDbEntity
  8
STRINGA
  6
CONTINUOUS
100
AcDbLine
 10
145.087364
 20
297.458466
 30
0.0
 11
148.976452
 21
301.347553
 31
0.0
  0
ARC
  5
B75
100
AcDbEntity
  8
STRINGA
  6
CONTINUOUS
100
AcDbCircle
 10
137.348197
 20
316.339615
 30
0.0
 40
37.500038
100
AcDbArc
 50
0.0
 51
24.249847
  0
ARC
  5
B76
100
AcDbEntity
  8
STRINGA
  6
CONTINUOUS
100
AcDbCircle
 10
172.098197
 20
309.169694
 30
0.0
 40
2.75
100
AcDbArc
 50
180.0
 51
360.0
  0
LINE
  5
B77
100
AcDbEntity
  8
STRINGA
  6
CONTINUOUS
100
AcDbLine
 10
174.848197
 20
316.339615
 30
0.0
 11
174.848197
 21
309.169694
 31
0.0
  0
LINE
  5
B78
100
AcDbEntity
  8
STRINGA
  6
CONTINUOUS
100
AcDbLine
 10
169.348197
 20
314.439469
 30
0.0
 11
169.348197
 21
309.169694
 31
0.0
  0
LINE
  5
B79
100
AcDbEntity
  8
STRINGA
  6
CONTINUOUS
100
AcDbLine
 10
171.320853
 20
316.419694
 30
0.0
 11
169.348197
 21
314.439469
 31
0.0
  0
LINE
  5
BBE
100
AcDbEntity
  8
SUNPOU
100
AcDbLine
 10
119.171454
 20
255.621415
 30
0.0
 11
77.598197
 21
255.621415
 31
0.0
  0
LINE
  5
BBF
100
AcDbEntity
  8
SUNPOU
100
AcDbLine
 10
119.171454
 20
169.421403
 30
0.0
 11
77.598197
 21
169.421403
 31
0.0
  0
LINE
  5
BC0
100
AcDbEntity
  8
SUNPOU
100
AcDbLine
 10
78.848197
 20
255.621415
 30
0.0
 11
78.848197
 21
169.421403
 31
0.0
  0
MTEXT
  5
BC1
100
AcDbEntity
  8
SUNPOU
100
AcDbMText
 10
75.223197
 20
212.521409
 30
0.0
 40
6.0
 41
0.0
 71
     5
 72
     1
  1
\A1;86.2
 11
0.0
 21
1.0
 31
0.0
 73
     1
 44
1.0
  0
POINT
  5
BC4
100
AcDbEntity
  8
SUNPOU
100
AcDbPoint
 10
78.848197
 20
169.421403
 30
0.0
  0
LINE
  5
BC5
100
AcDbEntity
  8
SUNPOU
100
AcDbLine
 10
164.306449
 20
320.777124
 30
0.0
 11
77.598197
 21
320.777124
 31
0.0
  0
LINE
  5
BC6
100
AcDbEntity
  8
SUNPOU
100
AcDbLine
 10
119.171454
 20
255.621415
 30
0.0
 11
77.598197
 21
255.621415
 31
0.0
  0
LINE
  5
BC7
100
AcDbEntity
  8
SUNPOU
100
AcDbLine
 10
78.848197
 20
320.777124
 30
0.0
 11
78.848197
 21
255.621415
 31
0.0
  0
MTEXT
  5
BC8
100
AcDbEntity
  8
SUNPOU
100
AcDbMText
 10
75.223197
 20
288.199269
 30
0.0
 40
6.0
 41
0.0
 71
     5
 72
     1
  1
\A1;65
 11
0.0
 21
1.0
 31
0.0
 73
     1
 44
1.0
  0
POINT
  5
BCB
100
AcDbEntity
  8
SUNPOU
100
AcDbPoint
 10
78.848197
 20
255.621415
 30
0.0
  0
LINE
  5
BCC
100
AcDbEntity
  8
SUNPOU
100
AcDbLine
 10
119.171454
 20
255.621415
 30
0.0
 11
92.598197
 21
255.621415
 31
0.0
  0
LINE
  5
BCD
100
AcDbEntity
  8
SUNPOU
100
AcDbLine
 10
164.306449
 20
234.577173
 30
0.0
 11
92.598197
 21
234.577173
 31
0.0
  0
LINE
  5
BCE
100
AcDbEntity
  8
SUNPOU
100
AcDbLine
 10
93.848197
 20
255.621415
 30
0.0
 11
93.848197
 21
234.577173
 31
0.0
  0
MTEXT
  5
BCF
100
AcDbEntity
  8
SUNPOU
100
AcDbMText
 10
90.223197
 20
245.099294
 30
0.0
 40
6.0
 41
0.0
 71
     5
 72
     1
  1
\A1;21.2
 11
0.0
 21
1.0
 31
0.0
 73
     1
 44
1.0
  0
POINT
  5
BD2
100
AcDbEntity
  8
SUNPOU
100
AcDbPoint
 10
93.848197
 20
234.577173
 30
0.0
  0
LINE
  5
BD3
100
AcDbEntity
  8
SUNPOU
100
AcDbLine
 10
193.848197
 20
332.366313
 30
0.0
 11
193.848197
 21
347.991497
 31
0.0
  0
LINE
  5
BD4
100
AcDbEntity
  8
SUNPOU
100
AcDbLine
 10
108.848201
 20
265.318925
 30
0.0
 11
108.848201
 21
347.991497
 31
0.0
  0
LINE
  5
BD5
100
AcDbEntity
  8
SUNPOU
100
AcDbLine
 10
193.848197
 20
346.741497
 30
0.0
 11
108.848201
 21
346.741497
 31
0.0
  0
MTEXT
  5
BD6
100
AcDbEntity
  8
SUNPOU
100
AcDbMText
 10
151.348199
 20
350.366497
 30
0.0
 40
6.0
 41
0.0
 71
     5
 72
     1
  1
\A1;85
 73
     1
 44
1.0
  0
ARC
  5
BE5
100
AcDbEntity
  8
SUNPOU
100
AcDbCircle
 10
108.848201
 20
268.007636
 30
0.0
 40
41.662819
100
AcDbArc
 50
44.999973
 51
90.0
  0
MTEXT
  5
BE6
100
AcDbEntity
  8
SUNPOU
100
AcDbMText
 10
126.179108
 20
309.848121
 30
0.0
 40
6.0
 41
0.0
 71
     5
 72
     1
  1
\A1;45°
 11
0.923879
 21
-0.382684
 31
0.0
 73
     1
 44
1.0
  0
ENDSEC
  0
SECTION
  2
OBJECTS
  0
DICTIONARY
  5
C
100
AcDbDictionary
280
     0
281
     0
  3
ACAD_GROUP
350
D
  3
ACAD_MLINESTYLE
350
E
  3
ACDBVARIABLEDICTIONARY
350
5D
  3
ACAD_LAYOUT
350
C0B
  3
ACAD_PLOTSETTINGS
350
C0F
  3
ACAD_PLOTSTYLENAME
350
C0C
  3
ACAD_WIPEOUT_VARS
350
C10
  0
DICTIONARY
  5
D
102
{ACAD_REACTORS
330
C
102
}
100
AcDbDictionary
280
     0
281
     0
  0
DICTIONARY
  5
E
102
{ACAD_REACTORS
330
C
102
}
100
AcDbDictionary
280
     0
281
     0
  3
STANDARD
350
13
  0
MLINESTYLE
  5
13
102
{ACAD_REACTORS
330
E
102
}
100
AcDbMlineStyle
  2
STANDARD
 70
     0
  3

 62
     0
 51
90.0
 52
90.0
 71
     2
 49
0.5
 62
   256
  6
ByLayer
 49
-0.5
 62
   256
  6
ByLayer
  0
DICTIONARY
  5
5D
102
{ACAD_REACTORS
330
C
102
}
100
AcDbDictionary
280
     0
281
     0
  3
DIMADEC
350
5E
  0
DICTIONARYVAR
  5
5E
102
{ACAD_REACTORS
330
5D
102
}
100
DictionaryVariables
280
     0
  1
0
  0
ACDBDICTIONARYWDFLT
  5
C0C
102
{ACAD_REACTORS
330
C
102
}
100
AcDbDictionary
281
     1
  3
Normal
350
C0A
100
AcDbDictionaryWithDefault
340
C0A
  0
ACDBPLACEHOLDER
  5
C0A
102
{ACAD_REACTORS
330
C0C
102
}
  0
LAYOUT
  5
C0D
102
{ACAD_REACTORS
330
C0B
102
}
100
AcDbPlotSettings
  1

  2

  4

  6

 40
0.0
 41
0.0
 42
0.0
 43
0.0
 44
0.0
 45
0.0
 46
0.0
 47
0.0
 48
0.0
 49
0.0
140
0.0
141
0.0
142
1.0
143
1.0
 70
  1024
 72
     0
 73
     0
 74
     0
  7

 75
     0
147
1.0
148
0.0
149
0.0
100
AcDbLayout
  1
Model
 70
     0
 71
     0
 10
0.0
 20
0.0
 11
0.0
 21
0.0
 12
0.0
 22
0.0
 32
0.0
 14
0.0
 24
0.0
 34
0.0
 15
0.0
 25
0.0
 35
0.0
146
0.0
 13
0.0
 23
0.0
 33
0.0
 16
0.0
 26
0.0
 36
0.0
 17
0.0
 27
0.0
 37
0.0
 76
     0
330
1A
331
0
345
0
346
0
  0
LAYOUT
  5
C0E
102
{ACAD_REACTORS
330
C0B
102
}
100
AcDbPlotSettings
  1

  2

  4

  6

 40
0.0
 41
0.0
 42
0.0
 43
0.0
 44
0.0
 45
0.0
 46
0.0
 47
0.0
 48
0.0
 49
0.0
140
0.0
141
0.0
142
1.0
143
1.0
 70
     0
 72
     0
 73
     0
 74
     0
  7

 75
     0
147
1.0
148
0.0
149
0.0
100
AcDbLayout
  1
Layout1
 70
     0
 71
     0
 10
0.0
 20
0.0
 11
0.0
 21
0.0
 12
0.0
 22
0.0
 32
0.0
 14
0.0
 24
0.0
 34
0.0
 15
0.0
 25
0.0
 35
0.0
146
0.0
 13
0.0
 23
0.0
 33
0.0
 16
0.0
 26
0.0
 36
0.0
 17
0.0
 27
0.0
 37
0.0
 76
     0
330
17
331
0
345
0
346
0
  0
DICTIONARY
  5
C0B
102
{ACAD_REACTORS
330
C
102
}
100
AcDbDictionary
280
     0
281
     1
  3
Layout1
350
C0E
  3
Model
350
C0D
  0
DICTIONARY
  5
C0F
102
{ACAD_REACTORS
330
C
102
}
100
AcDbDictionary
280
     0
281
     1
  0
ENDSEC
  0
EOF
