  0
SECTION
  2
HEADER
  9
$ACADVER
  1
AC1015
  9
$ACADMAINTVER
 70
     6
  9
$DWGCODEPAGE
  3
DOS932
  9
$INSBASE
 10
0.0
 20
0.0
 30
0.0
  9
$EXTMIN
 10
0.0
 20
0.0
 30
0.0
  9
$EXTMAX
 10
570.0
 20
396.0
 30
0.0
  9
$LIMMIN
 10
0.0
 20
0.0
  9
$LIMMAX
 10
570.0
 20
396.0
  9
$ORTHOMODE
 70
     1
  9
$REGENMODE
 70
     1
  9
$FILLMODE
 70
     1
  9
$QTEXTMODE
 70
     0
  9
$MIRRTEXT
 70
     1
  9
$LTSCALE
 40
1.333333
  9
$ATTMODE
 70
     1
  9
$TEXTSIZE
 40
5.0
  9
$TRACEWID
 40
1.0
  9
$TEXTSTYLE
  7
STANDARD
  9
$CLAYER
  8
WAKU
  9
$CELTYPE
  6
ByLayer
  9
$CECOLOR
 62
   256
  9
$CELTSCALE
 40
1.0
  9
$DISPSILH
 70
     0
  9
$DIMSCALE
 40
1.0
  9
$DIMASZ
 40
2.5
  9
$DIMEXO
 40
0.625
  9
$DIMDLI
 40
3.75
  9
$DIMRND
 40
0.0
  9
$DIMDLE
 40
0.0
  9
$DIMEXE
 40
1.25
  9
$DIMTP
 40
0.0
  9
$DIMTM
 40
0.0
  9
$DIMTXT
 40
6.0
  9
$DIMCEN
 40
2.5
  9
$DIMTSZ
 40
0.0
  9
$DIMTOL
 70
     0
  9
$DIMLIM
 70
     0
  9
$DIMTIH
 70
     0
  9
$DIMTOH
 70
     0
  9
$DIMSE1
 70
     0
  9
$DIMSE2
 70
     0
  9
$DIMTAD
 70
     1
  9
$DIMZIN
 70
     8
  9
$DIMBLK
  1

  9
$DIMASO
 70
     1
  9
$DIMSHO
 70
     1
  9
$DIMPOST
  1

  9
$DIMAPOST
  1

  9
$DIMALT
 70
     0
  9
$DIMALTD
 70
     4
  9
$DIMALTF
 40
0.0394
  9
$DIMLFAC
 40
1.0
  9
$DIMTOFL
 70
     1
  9
$DIMTVP
 40
0.0
  9
$DIMTIX
 70
     0
  9
$DIMSOXD
 70
     0
  9
$DIMSAH
 70
     1
  9
$DIMBLK1
  1
_NONE
  9
$DIMBLK2
  1
_NONE
  9
$DIMSTYLE
  2
STANDARD
  9
$DIMCLRD
 70
     0
  9
$DIMCLRE
 70
     0
  9
$DIMCLRT
 70
     0
  9
$DIMTFAC
 40
1.0
  9
$DIMGAP
 40
0.625
  9
$DIMJUST
 70
     0
  9
$DIMSD1
 70
     0
  9
$DIMSD2
 70
     0
  9
$DIMTOLJ
 70
     1
  9
$DIMTZIN
 70
     0
  9
$DIMALTZ
 70
     0
  9
$DIMALTTZ
 70
     0
  9
$DIMUPT
 70
     0
  9
$DIMDEC
 70
     4
  9
$DIMTDEC
 70
     4
  9
$DIMALTU
 70
     8
  9
$DIMALTTD
 70
     4
  9
$DIMTXSTY
  7
STANDARD
  9
$DIMAUNIT
 70
     0
  9
$DIMADEC
 70
     0
  9
$DIMALTRND
 40
0.0
  9
$DIMAZIN
 70
     0
  9
$DIMDSEP
 70
     0
  9
$DIMATFIT
 70
     3
  9
$DIMFRAC
 70
     0
  9
$DIMLDRBLK
  1

  9
$DIMLUNIT
 70
     6
  9
$DIMLWD
 70
     0
  9
$DIMLWE
 70
     0
  9
$DIMTMOVE
 70
     0
  9
$LUNITS
 70
     2
  9
$LUPREC
 70
     4
  9
$SKETCHINC
 40
1.0
  9
$FILLETRAD
 40
13.333333
  9
$AUNITS
 70
     0
  9
$AUPREC
 70
     0
  9
$MENU
  1
.
  9
$ELEVATION
 40
0.0
  9
$PELEVATION
 40
0.0
  9
$THICKNESS
 40
0.0
  9
$LIMCHECK
 70
     0
  9
$CHAMFERA
 40
13.333333
  9
$CHAMFERB
 40
13.333333
  9
$CHAMFERC
 40
26.666667
  9
$CHAMFERD
 40
0.0
  9
$SKPOLY
 70
     1
  9
$TDCREATE
 40
2451654.610702639
  9
$TDUCREATE
 40
0.000000000
  9
$TDUPDATE
 40
2451684.616416852
  9
$TDUUPDATE
 40
0.000000000
  9
$TDINDWG
 40
0.3028239699
  9
$TDUSRTIMER
 40
0.3028239699
  9
$USRTIMER
 70
     1
  9
$ANGBASE
 50
0.0
  9
$ANGDIR
 70
     0
  9
$PDMODE
 70
     0
  9
$PDSIZE
 40
0.0
  9
$PLINEWID
 40
0.0
  9
$SPLFRAME
 70
     0
  9
$SPLINETYPE
 70
     6
  9
$SPLINESEGS
 70
     8
  9
$HANDSEED
  5
A0E
  9
$SURFTAB1
 70
     6
  9
$SURFTAB2
 70
     6
  9
$SURFTYPE
 70
     6
  9
$SURFU
 70
     6
  9
$SURFV
 70
     6
  9
$UCSBASE
  2

  9
$UCSNAME
  2

  9
$UCSORG
 10
0.0
 20
0.0
 30
0.0
  9
$UCSXDIR
 10
1.0
 20
0.0
 30
0.0
  9
$UCSYDIR
 10
0.0
 20
1.0
 30
0.0
  9
$UCSORTHOREF
  2

  9
$UCSORTHOVIEW
 70
     0
  9
$UCSORGTOP
 10
0.0
 20
0.0
 30
0.0
  9
$UCSORGBOTTOM
 10
0.0
 20
0.0
 30
0.0
  9
$UCSORGLEFT
 10
0.0
 20
0.0
 30
0.0
  9
$UCSORGRIGHT
 10
0.0
 20
0.0
 30
0.0
  9
$UCSORGFRONT
 10
0.0
 20
0.0
 30
0.0
  9
$UCSORGBACK
 10
0.0
 20
0.0
 30
0.0
  9
$PUCSBASE
  2

  9
$PUCSNAME
  2

  9
$PUCSORG
 10
0.0
 20
0.0
 30
0.0
  9
$PUCSXDIR
 10
1.0
 20
0.0
 30
0.0
  9
$PUCSYDIR
 10
0.0
 20
1.0
 30
0.0
  9
$PUCSORTHOREF
  2

  9
$PUCSORTHOVIEW
 70
     0
  9
$PUCSORGTOP
 10
0.0
 20
0.0
 30
0.0
  9
$PUCSORGBOTTOM
 10
0.0
 20
0.0
 30
0.0
  9
$PUCSORGLEFT
 10
0.0
 20
0.0
 30
0.0
  9
$PUCSORGRIGHT
 10
0.0
 20
0.0
 30
0.0
  9
$PUCSORGFRONT
 10
0.0
 20
0.0
 30
0.0
  9
$PUCSORGBACK
 10
0.0
 20
0.0
 30
0.0
  9
$USERI1
 70
     0
  9
$USERI2
 70
     0
  9
$USERI3
 70
     0
  9
$USERI4
 70
     0
  9
$USERI5
 70
     0
  9
$USERR1
 40
0.0
  9
$USERR2
 40
0.0
  9
$USERR3
 40
0.0
  9
$USERR4
 40
0.0
  9
$USERR5
 40
0.0
  9
$WORLDVIEW
 70
     1
  9
$SHADEDGE
 70
     3
  9
$SHADEDIF
 70
    70
  9
$TILEMODE
 70
     1
  9
$MAXACTVP
 70
    48
  9
$PINSBASE
 10
0.0
 20
0.0
 30
0.0
  9
$PLIMCHECK
 70
     0
  9
$PEXTMIN
 10
1.000000E+20
 20
1.000000E+20
 30
1.000000E+20
  9
$PEXTMAX
 10
-1.000000E+20
 20
-1.000000E+20
 30
-1.000000E+20
  9
$PLIMMIN
 10
0.0
 20
0.0
  9
$PLIMMAX
 10
420.0
 20
297.0
  9
$UNITMODE
 70
     0
  9
$VISRETAIN
 70
     1
  9
$PLINEGEN
 70
     0
  9
$PSLTSCALE
 70
     1
  9
$TREEDEPTH
 70
  3020
  9
$CMLSTYLE
  2
STANDARD
  9
$CMLJUST
 70
     0
  9
$CMLSCALE
 40
1.0
  9
$PROXYGRAPHICS
 70
     1
  9
$MEASUREMENT
 70
     0
  9
$CELWEIGHT
370
     0
  9
$ENDCAPS
280
     0
  9
$JOINSTYLE
280
     0
  9
$LWDISPLAY
290
     0
  9
$INSUNITS
 70
     0
  9
$HYPERLINKBASE
  1

  9
$XEDIT
290
     1
  9
$CEPSNTYPE
380
     0
  9
$PSTYLEMODE
290
     1
  9
$FINGERPRINTGUID
  2

  9
$VERSIONGUID
  2

  9
$EXTNAMES
290
     1
  9
$PSVPSCALE
 40
0.0
  0
ENDSEC
  0
SECTION
  2
CLASSES
  0
CLASS
  1
DICTIONARYVAR
  2
AcDbDictionaryVar
  3
"AutoCAD"
 90
    32768
280
     0
281
     0
  0
CLASS
  1
LWPOLYLINE
  2
AcDbPolyline
  3
"AutoCAD"
 90
    32768
280
     0
281
     1
  0
CLASS
  1
DxfZombieEntity
  2
AcDbDxfZombieEntity
  3
AutoCAD
 90
        0
280
     1
281
     1
  0
CLASS
  1
DxfZombieObject
  2
AcDbDxfZombieObject
  3
AutoCAD
 90
        0
280
     1
281
     0
  0
CLASS
  1
IMAGE
  2
AcDbRasterImage
  3
ISM
 90
    32895
280
     0
281
     1
  0
CLASS
  1
OLE2FRAME
  2
AcDbOle2Frame
  3
AutoCAD 2000
 90
    32768
280
     0
281
     1
  0
CLASS
  1
HATCH
  2
AcDbHatch
  3
AutoCAD 2000
 90
    32768
280
     0
281
     1
  0
CLASS
  1
RASTERVARIABLES
  2
AcDbRasterVariables
  3
ISM
 90
    32768
280
     0
281
     0
  0
CLASS
  1
IMAGEDEF
  2
AcDbRasterImageDef
  3
ISM
 90
    32768
280
     0
281
     0
  0
CLASS
  1
IMAGEDEF_REACTOR
  2
AcDbRasterImageDefReactor
  3
ISM
 90
    32769
280
     0
281
     0
  0
CLASS
  1
IDBUFFER
  2
AcDbIdBuffer
  3
AutoCAD 2000
 90
    32768
280
     0
281
     0
  0
CLASS
  1
SPATIAL_FILTER
  2
AcDbSpatialFilter
  3
AutoCAD 2000
 90
    32768
280
     0
281
     0
  0
CLASS
  1
XRECORD
  2
AcDbXrecord
  3
AutoCAD 2000
 90
    32768
280
     0
281
     0
  0
CLASS
  1
SORTENTSTABLE
  2
AcDbSortentsTable
  3
AutoCAD 2000
 90
    32768
280
     0
281
     0
  0
CLASS
  1
LAYER_INDEX
  2
AcDbLayerIndex
  3
AutoCAD 2000
 90
    32768
280
     0
281
     0
  0
CLASS
  1
SPATIAL_INDEX
  2
AcDbSpatialIndex
  3
AutoCAD 2000
 90
    32768
280
     0
281
     0
  0
CLASS
  1
OBJECT_PTR
  2
CAseDLPNTableRecord
  3
"ASE-LPNTableRecord"
 90
    32769
280
     0
281
     0
  0
CLASS
  1
LAYOUT
  2
AcDbLayout
  3
AutoCAD 2000
 90
        0
280
     0
281
     0
  0
CLASS
  1
PLOTSETTINGS
  2
AcDbPlotSettings
  3
AutoCAD 2000
 90
    32768
280
     0
281
     0
  0
CLASS
  1
ACDBDICTIONARYWDFLT
  2
AcDbDictionaryWithDefault
  3
AutoCAD 2000
 90
        0
280
     0
281
     0
  0
CLASS
  1
ACDBPLACEHOLDER
  2
AcDbPlaceHolder
  3
AutoCAD 2000
 90
        0
280
     0
281
     0
  0
CLASS
  1
VBA_PROJECT
  2
AcDbVbaProject
  3
acadvba
 90
    32768
280
     0
281
     0
  0
CLASS
  1
RTEXT
  2
RText
  3
RText|AutoCAD Express Tool|expresstools@autodesk.com
 90
    32768
280
     0
281
     1
  0
CLASS
  1
ARCALIGNEDTEXT
  2
AcDbArcAlignedText
  3
ATEXT|AutoCAD Express Tool|expresstools@autodesk.com
 90
    32768
280
     0
281
     1
  0
ENDSEC
  0
SECTION
  2
TABLES
  0
TABLE
  2
VPORT
  5
8
100
AcDbSymbolTable
 70
     1
  0
VPORT
  5
A06
100
AcDbSymbolTableRecord
100
AcDbViewportTableRecord
  2
*ACTIVE
 70
    64
 10
0.0
 20
0.0
 11
1.0
 21
1.0
 12
285.000005
 22
198.000004
 13
0.0
 23
0.0
 14
13.0
 24
13.0
 15
13.0
 25
13.0
 16
0.0
 26
0.0
 36
1.0
 17
0.0
 27
0.0
 37
0.0
 40
399.78423
 41
1.601896
 42
50.0
 43
0.0
 44
0.0
 50
0.0
 51
0.0
 71
     0
 72
   100
 73
     1
 74
     0
 75
     0
 76
     0
 77
     0
 78
     0
281
     0
 65
     0
110
0.0
120
0.0
130
0.0
111
1.0
121
0.0
131
0.0
112
0.0
122
1.0
132
0.0
345
0
346
0
 79
     0
146
0.0
  0
ENDTAB
  0
TABLE
  2
LTYPE
  5
5
100
AcDbSymbolTable
 70
     5
  0
LTYPE
  5
14
100
AcDbSymbolTableRecord
100
AcDbLinetypeTableRecord
  2
ByBlock
 70
    64
  3

 72
    65
 73
     0
 40
0.0
  0
LTYPE
  5
15
100
AcDbSymbolTableRecord
100
AcDbLinetypeTableRecord
  2
ByLayer
 70
    64
  3

 72
    65
 73
     0
 40
0.0
  0
LTYPE
  5
16
100
AcDbSymbolTableRecord
100
AcDbLinetypeTableRecord
  2
CONTINUOUS
 70
    64
  3
Solid line
 72
    65
 73
     0
 40
0.0
  0
LTYPE
  5
126
100
AcDbSymbolTableRecord
100
AcDbLinetypeTableRecord
  2
HIDDEN2
 70
    64
  3
Hidden (.5x) _ _ _ _ _ _ _ _ _ _ _ _ _ _ _ _ _
 72
    65
 73
     2
 40
4.7625
 49
3.175
 74
     0
 49
-1.5875
 74
     0
  0
LTYPE
  5
127
100
AcDbSymbolTableRecord
100
AcDbLinetypeTableRecord
  2
DASHED2
 70
    64
  3
Dashed (.5x) _ _ _ _ _ _ _ _ _ _ _ _ _ _ _ _ _
 72
    65
 73
     2
 40
9.525
 49
6.35
 74
     0
 49
-3.175
 74
     0
  0
ENDTAB
  0
TABLE
  2
LAYER
  5
2
100
AcDbSymbolTable
 70
     6
  0
LAYER
  5
F
100
AcDbSymbolTableRecord
100
AcDbLayerTableRecord
  2
0
 70
    64
 62
     7
  6
CONTINUOUS
290
     1
370
    -3
390
A07
  0
LAYER
  5
128
100
AcDbSymbolTableRecord
100
AcDbLayerTableRecord
  2
STRINGA
 70
    64
 62
     7
  6
CONTINUOUS
290
     1
370
    -3
390
A07
  0
LAYER
  5
129
100
AcDbSymbolTableRecord
100
AcDbLayerTableRecord
  2
WAKU
 70
    64
 62
     4
  6
CONTINUOUS
290
     1
370
    -3
390
A07
  0
LAYER
  5
12A
100
AcDbSymbolTableRecord
100
AcDbLayerTableRecord
  2
PANEL
 70
    64
 62
     6
  6
CONTINUOUS
290
     1
370
    -3
390
A07
  0
LAYER
  5
12B
100
AcDbSymbolTableRecord
100
AcDbLayerTableRecord
  2
SUNPOU
 70
    64
 62
     3
  6
CONTINUOUS
290
     1
370
    -3
390
A07
  0
LAYER
  5
2C2
100
AcDbSymbolTableRecord
100
AcDbLayerTableRecord
  2
DEFPOINTS
 70
    64
 62
     7
  6
CONTINUOUS
290
     0
370
    -3
390
A07
  0
ENDTAB
  0
TABLE
  2
STYLE
  5
3
100
AcDbSymbolTable
 70
     2
  0
STYLE
  5
10
100
AcDbSymbolTableRecord
100
AcDbTextStyleTableRecord
  2
STANDARD
 70
    64
 40
6.0
 41
1.0
 50
0.0
 71
     0
 42
5.0
  3
txt.shx
  4
bigfont.shx
  0
STYLE
  5
12C
100
AcDbSymbolTableRecord
100
AcDbTextStyleTableRecord
  2
NIKKO1
 70
    64
 40
0.0
 41
1.0
 50
0.0
 71
     0
 42
4.0
  3
simplex.shx
  4
extfont.shx
  0
ENDTAB
  0
TABLE
  2
VIEW
  5
6
100
AcDbSymbolTable
 70
     0
  0
ENDTAB
  0
TABLE
  2
UCS
  5
7
100
AcDbSymbolTable
 70
     0
  0
ENDTAB
  0
TABLE
  2
APPID
  5
9
100
AcDbSymbolTable
 70
     1
  0
APPID
  5
11
100
AcDbSymbolTableRecord
100
AcDbRegAppTableRecord
  2
ACAD
 70
    64
  0
ENDTAB
  0
TABLE
  2
DIMSTYLE
  5
A
100
AcDbSymbolTable
 70
     1
100
AcDbDimStyleTable
 71
     0
  0
DIMSTYLE
105
1D
100
AcDbSymbolTableRecord
100
AcDbDimStyleTableRecord
  2
STANDARD
 70
    64
  3

  4

 40
1.0
 41
2.5
 42
0.625
 43
3.75
 44
1.25
 45
0.0
 46
0.0
 47
0.0
 48
0.0
 71
     0
 72
     0
 73
     0
 74
     0
 75
     0
 76
     0
 77
     1
 78
     8
 79
     0
140
2.5
141
2.5
142
0.0
143
0.0394
144
1.0
145
0.0
146
1.0
147
0.625
148
0.0
170
     0
171
     4
172
     1
173
     0
174
     0
175
     0
176
     0
177
     0
178
     0
179
     0
271
     4
272
     4
273
     8
274
     4
275
     0
276
     0
277
     8
278
    46
279
     0
280
     0
281
     0
282
     0
283
     1
284
     0
285
     0
286
     0
288
     0
340
10
341
0
342
0
343
0
344
0
371
    -1
372
    -1
  0
ENDTAB
  0
TABLE
  2
BLOCK_RECORD
  5
1
100
AcDbSymbolTable
 70
     2
  0
BLOCK_RECORD
  5
1A
100
AcDbSymbolTableRecord
100
AcDbBlockTableRecord
  2
*MODEL_SPACE
340
A0A
  0
BLOCK_RECORD
  5
17
100
AcDbSymbolTableRecord
100
AcDbBlockTableRecord
  2
*PAPER_SPACE
340
A0B
  0
BLOCK_RECORD
  5
121
100
AcDbSymbolTableRecord
100
AcDbBlockTableRecord
  2
_ORIGIN
340
0
  0
BLOCK_RECORD
  5
294
100
AcDbSymbolTableRecord
100
AcDbBlockTableRecord
  2
_NONE
340
0
  0
ENDTAB
  0
ENDSEC
  0
SECTION
  2
BLOCKS
  0
BLOCK
  5
1B
100
AcDbEntity
  8
0
100
AcDbBlockBegin
  2
*MODEL_SPACE
 70
    64
 10
0.0
 20
0.0
 30
0.0
  3
*MODEL_SPACE
  1

  0
ENDBLK
  5
1C
100
AcDbEntity
  8
0
100
AcDbBlockEnd
  0
BLOCK
  5
18
100
AcDbEntity
 67
     1
  8
0
100
AcDbBlockBegin
  2
*PAPER_SPACE
 70
    64
 10
0.0
 20
0.0
 30
0.0
  3
*PAPER_SPACE
  1

  0
ENDBLK
  5
19
100
AcDbEntity
 67
     1
  8
0
100
AcDbBlockEnd
  0
BLOCK
  5
124
100
AcDbEntity
  8
0
100
AcDbBlockBegin
  2
_ORIGIN
 70
    64
 10
0.0
 20
0.0
 30
0.0
  3
_ORIGIN
  1

  0
LINE
  5
122
100
AcDbEntity
  8
0
  6
CONTINUOUS
 62
     0
100
AcDbLine
 10
-1.0
 20
0.0
 30
0.0
 11
0.0
 21
0.0
 31
0.0
  0
CIRCLE
  5
123
100
AcDbEntity
  8
0
  6
CONTINUOUS
 62
     0
100
AcDbCircle
 10
0.0
 20
0.0
 30
0.0
 40
0.5
  0
ENDBLK
  5
125
100
AcDbEntity
  8
0
100
AcDbBlockEnd
  0
BLOCK
  5
295
100
AcDbEntity
  8
0
100
AcDbBlockBegin
  2
_NONE
 70
    64
 10
0.0
 20
0.0
 30
0.0
  3
_NONE
  1

  0
CIRCLE
  5
296
100
AcDbEntity
  8
0
  6
ByBlock
 62
     0
100
AcDbCircle
 10
0.0
 20
0.0
 30
0.0
 40
0.25
  0
ENDBLK
  5
297
100
AcDbEntity
  8
0
100
AcDbBlockEnd
  0
ENDSEC
  0
SECTION
  2
ENTITIES
  0
VIEWPORT
  5
22
100
AcDbEntity
 67
     1
  8
0
100
AcDbViewport
 10
261.517699
 20
148.5
 30
0.0
 40
523.035398
 41
297.0
 68
     1
 69
     1
 12
261.517699
 22
148.5
 13
0.0
 23
0.0
 14
1.0
 24
1.0
 15
10.0
 25
10.0
 16
0.0
 26
0.0
 36
1.0
 17
0.0
 27
0.0
 37
0.0
 42
50.0
 43
0.0
 44
0.0
 45
297.0
 50
0.0
 51
0.0
 72
   100
 90
      160
340
0
  1

281
     0
 71
     0
 74
     1
110
0.0
120
0.0
130
0.0
111
1.0
121
0.0
131
0.0
112
0.0
122
1.0
132
0.0
345
0
346
0
 79
     0
146
0.0
  0
LWPOLYLINE
  5
252
100
AcDbEntity
  8
WAKU
100
AcDbPolyline
 90
        4
 70
     1
 10
0.0
 20
0.0
 10
570.0
 20
0.0
 10
570.0
 20
396.0
 10
0.0
 20
396.0
  0
LINE
  5
4F9
100
AcDbEntity
  8
WAKU
100
AcDbLine
 10
5.0
 20
391.0
 30
0.0
 11
565.0
 21
391.0
 31
0.0
  0
LINE
  5
4FA
100
AcDbEntity
  8
WAKU
  6
CONTINUOUS
100
AcDbLine
 10
5.0
 20
5.0
 30
0.0
 11
565.0
 21
5.0
 31
0.0
  0
LINE
  5
4FB
100
AcDbEntity
  8
WAKU
  6
CONTINUOUS
100
AcDbLine
 10
5.0
 20
25.0
 30
0.0
 11
565.0
 21
25.0
 31
0.0
  0
LINE
  5
500
100
AcDbEntity
  8
WAKU
100
AcDbLine
 10
5.0
 20
5.0
 30
0.0
 11
5.0
 21
391.0
 31
0.0
  0
TEXT
  5
501
100
AcDbEntity
  8
WAKU
100
AcDbText
 10
15.0
 20
8.0
 30
0.0
 40
12.0
  1
ビルパネ　PS-8630
100
AcDbText
  0
LINE
  5
502
100
AcDbEntity
  8
WAKU
  6
CONTINUOUS
100
AcDbLine
 10
195.0
 20
5.0
 30
0.0
 11
195.0
 21
25.0
 31
0.0
  0
LINE
  5
543
100
AcDbEntity
  8
WAKU
100
AcDbLine
 10
565.0
 20
391.0
 30
0.0
 11
565.0
 21
5.0
 31
0.0
  0
LINE
  5
820
100
AcDbEntity
  8
STRINGA
  6
HIDDEN2
100
AcDbLine
 10
390.070666
 20
220.97801
 30
0.0
 11
390.070666
 21
171.578016
 31
0.0
  0
LINE
  5
821
100
AcDbEntity
  8
STRINGA
  6
HIDDEN2
100
AcDbLine
 10
424.770666
 20
171.578016
 30
0.0
 11
424.770666
 21
224.47801
 31
0.0
  0
LINE
  5
822
100
AcDbEntity
  8
STRINGA
  6
HIDDEN2
100
AcDbLine
 10
391.370666
 20
171.578016
 30
0.0
 11
391.370666
 21
224.47801
 31
0.0
  0
LINE
  5
823
100
AcDbEntity
  8
STRINGA
  6
HIDDEN2
100
AcDbLine
 10
426.070666
 20
220.97801
 30
0.0
 11
426.070666
 21
171.578016
 31
0.0
  0
LINE
  5
824
100
AcDbEntity
  8
PANEL
  6
DASHED2
100
AcDbLine
 10
458.070666
 20
171.578016
 30
0.0
 11
358.070666
 21
171.578016
 31
0.0
  0
LINE
  5
825
100
AcDbEntity
  8
PANEL
  6
CONTINUOUS
100
AcDbLine
 10
458.070666
 20
170.97801
 30
0.0
 11
358.070666
 21
170.97801
 31
0.0
  0
LINE
  5
826
100
AcDbEntity
  8
STRINGA
  6
HIDDEN2
100
AcDbLine
 10
391.370666
 20
171.578016
 30
0.0
 11
390.070666
 21
171.578016
 31
0.0
  0
LINE
  5
827
100
AcDbEntity
  8
STRINGA
  6
HIDDEN2
100
AcDbLine
 10
426.070666
 20
171.578016
 30
0.0
 11
424.770666
 21
171.578016
 31
0.0
  0
LINE
  5
828
100
AcDbEntity
  8
PANEL
  6
CONTINUOUS
100
AcDbLine
 10
358.070666
 20
223.978006
 30
0.0
 11
458.070666
 21
223.978006
 31
0.0
  0
LINE
  5
829
100
AcDbEntity
  8
PANEL
  6
DASHED2
100
AcDbLine
 10
358.070666
 20
223.378
 30
0.0
 11
458.070666
 21
223.378
 31
0.0
  0
LINE
  5
82A
100
AcDbEntity
  8
STRINGA
  6
CONTINUOUS
100
AcDbLine
 10
419.770666
 20
247.97801
 30
0.0
 11
419.770666
 21
246.97801
 31
0.0
  0
LINE
  5
82B
100
AcDbEntity
  8
STRINGA
  6
CONTINUOUS
100
AcDbLine
 10
423.270666
 20
255.97801
 30
0.0
 11
423.270666
 21
239.97801
 31
0.0
  0
LINE
  5
82C
100
AcDbEntity
  8
STRINGA
  6
CONTINUOUS
100
AcDbLine
 10
396.370666
 20
247.97801
 30
0.0
 11
396.370666
 21
246.97801
 31
0.0
  0
LINE
  5
82D
100
AcDbEntity
  8
STRINGA
  6
CONTINUOUS
100
AcDbLine
 10
392.870666
 20
255.97801
 30
0.0
 11
392.870666
 21
239.97801
 31
0.0
  0
LINE
  5
82E
100
AcDbEntity
  8
STRINGA
  6
CONTINUOUS
100
AcDbLine
 10
389.870666
 20
239.97801
 30
0.0
 11
389.870666
 21
223.978006
 31
0.0
  0
LINE
  5
82F
100
AcDbEntity
  8
STRINGA
  6
CONTINUOUS
100
AcDbLine
 10
392.870666
 20
225.97801
 30
0.0
 11
392.870666
 21
224.47801
 31
0.0
  0
LINE
  5
830
100
AcDbEntity
  8
STRINGA
  6
HIDDEN2
100
AcDbLine
 10
390.070666
 20
220.97801
 30
0.0
 11
389.870666
 21
221.97801
 31
0.0
  0
LINE
  5
831
100
AcDbEntity
  8
STRINGA
  6
CONTINUOUS
100
AcDbLine
 10
392.870666
 20
224.47801
 30
0.0
 11
391.370666
 21
224.47801
 31
0.0
  0
LINE
  5
832
100
AcDbEntity
  8
STRINGA
  6
HIDDEN2
100
AcDbLine
 10
389.870666
 20
221.97801
 30
0.0
 11
389.870666
 21
223.978006
 31
0.0
  0
LINE
  5
833
100
AcDbEntity
  8
STRINGA
  6
CONTINUOUS
100
AcDbLine
 10
391.370666
 20
238.47801
 30
0.0
 11
391.370666
 21
225.97801
 31
0.0
  0
LINE
  5
834
100
AcDbEntity
  8
STRINGA
  6
CONTINUOUS
100
AcDbLine
 10
392.870666
 20
225.97801
 30
0.0
 11
391.370666
 21
225.97801
 31
0.0
  0
LINE
  5
835
100
AcDbEntity
  8
STRINGA
  6
CONTINUOUS
100
AcDbLine
 10
396.370666
 20
246.97801
 30
0.0
 11
394.370666
 21
246.97801
 31
0.0
  0
LINE
  5
836
100
AcDbEntity
  8
STRINGA
  6
CONTINUOUS
100
AcDbLine
 10
394.370666
 20
246.97801
 30
0.0
 11
394.370666
 21
238.47801
 31
0.0
  0
LINE
  5
837
100
AcDbEntity
  8
STRINGA
  6
CONTINUOUS
100
AcDbLine
 10
392.870666
 20
239.97801
 30
0.0
 11
389.870666
 21
239.97801
 31
0.0
  0
LINE
  5
838
100
AcDbEntity
  8
STRINGA
  6
CONTINUOUS
100
AcDbLine
 10
394.370666
 20
238.47801
 30
0.0
 11
391.370666
 21
238.47801
 31
0.0
  0
LINE
  5
839
100
AcDbEntity
  8
STRINGA
  6
CONTINUOUS
100
AcDbLine
 10
426.270666
 20
239.97801
 30
0.0
 11
426.270666
 21
223.978006
 31
0.0
  0
LINE
  5
83A
100
AcDbEntity
  8
STRINGA
  6
CONTINUOUS
100
AcDbLine
 10
423.270666
 20
225.97801
 30
0.0
 11
423.270666
 21
224.47801
 31
0.0
  0
LINE
  5
83B
100
AcDbEntity
  8
STRINGA
  6
HIDDEN2
100
AcDbLine
 10
426.070666
 20
220.97801
 30
0.0
 11
426.270666
 21
221.97801
 31
0.0
  0
LINE
  5
83C
100
AcDbEntity
  8
STRINGA
  6
CONTINUOUS
100
AcDbLine
 10
424.770666
 20
224.47801
 30
0.0
 11
423.270666
 21
224.47801
 31
0.0
  0
LINE
  5
83D
100
AcDbEntity
  8
STRINGA
  6
HIDDEN2
100
AcDbLine
 10
426.270666
 20
221.97801
 30
0.0
 11
426.270666
 21
223.978006
 31
0.0
  0
LINE
  5
83E
100
AcDbEntity
  8
STRINGA
  6
CONTINUOUS
100
AcDbLine
 10
424.770666
 20
238.47801
 30
0.0
 11
424.770666
 21
225.97801
 31
0.0
  0
LINE
  5
83F
100
AcDbEntity
  8
STRINGA
  6
CONTINUOUS
100
AcDbLine
 10
424.770666
 20
225.97801
 30
0.0
 11
423.270666
 21
225.97801
 31
0.0
  0
LINE
  5
840
100
AcDbEntity
  8
STRINGA
  6
CONTINUOUS
100
AcDbLine
 10
421.770666
 20
246.97801
 30
0.0
 11
419.770666
 21
246.97801
 31
0.0
  0
LINE
  5
841
100
AcDbEntity
  8
STRINGA
  6
CONTINUOUS
100
AcDbLine
 10
421.770666
 20
246.97801
 30
0.0
 11
421.770666
 21
238.47801
 31
0.0
  0
LINE
  5
842
100
AcDbEntity
  8
STRINGA
  6
CONTINUOUS
100
AcDbLine
 10
424.770666
 20
238.47801
 30
0.0
 11
421.770666
 21
238.47801
 31
0.0
  0
LINE
  5
843
100
AcDbEntity
  8
STRINGA
  6
CONTINUOUS
100
AcDbLine
 10
426.270666
 20
239.97801
 30
0.0
 11
423.270666
 21
239.97801
 31
0.0
  0
LINE
  5
844
100
AcDbEntity
  8
STRINGA
  6
CONTINUOUS
100
AcDbLine
 10
423.270666
 20
255.97801
 30
0.0
 11
392.870666
 21
255.97801
 31
0.0
  0
LINE
  5
845
100
AcDbEntity
  8
STRINGA
  6
CONTINUOUS
100
AcDbLine
 10
421.770666
 20
254.47801
 30
0.0
 11
394.370666
 21
254.47801
 31
0.0
  0
LINE
  5
846
100
AcDbEntity
  8
STRINGA
  6
CONTINUOUS
100
AcDbLine
 10
394.370666
 20
254.47801
 30
0.0
 11
394.370666
 21
247.97801
 31
0.0
  0
LINE
  5
847
100
AcDbEntity
  8
STRINGA
  6
CONTINUOUS
100
AcDbLine
 10
396.370666
 20
247.97801
 30
0.0
 11
394.370666
 21
247.97801
 31
0.0
  0
LINE
  5
848
100
AcDbEntity
  8
STRINGA
  6
CONTINUOUS
100
AcDbLine
 10
421.770666
 20
247.97801
 30
0.0
 11
419.770666
 21
247.97801
 31
0.0
  0
LINE
  5
849
100
AcDbEntity
  8
STRINGA
  6
CONTINUOUS
100
AcDbLine
 10
421.770666
 20
254.47801
 30
0.0
 11
421.770666
 21
247.97801
 31
0.0
  0
LINE
  5
872
100
AcDbEntity
  8
SUNPOU
100
AcDbLine
 10
392.870666
 20
256.60301
 30
0.0
 11
392.870666
 21
272.22801
 31
0.0
  0
LINE
  5
873
100
AcDbEntity
  8
SUNPOU
100
AcDbLine
 10
423.270666
 20
256.60301
 30
0.0
 11
423.270666
 21
272.22801
 31
0.0
  0
LINE
  5
874
100
AcDbEntity
  8
SUNPOU
100
AcDbLine
 10
392.870666
 20
270.97801
 30
0.0
 11
423.270666
 21
270.97801
 31
0.0
  0
MTEXT
  5
875
100
AcDbEntity
  8
SUNPOU
100
AcDbMText
 10
408.070666
 20
274.60301
 30
0.0
 40
6.0
 41
0.0
 71
     5
 72
     1
  1
\A1;30.4
 73
     1
 44
1.0
  0
POINT
  5
878
100
AcDbEntity
  8
SUNPOU
100
AcDbPoint
 10
423.270666
 20
270.97801
 30
0.0
  0
LINE
  5
879
100
AcDbEntity
  8
SUNPOU
100
AcDbLine
 10
357.445666
 20
170.97801
 30
0.0
 11
341.820666
 21
170.97801
 31
0.0
  0
LINE
  5
87A
100
AcDbEntity
  8
SUNPOU
100
AcDbLine
 10
392.245666
 20
255.97801
 30
0.0
 11
341.820666
 21
255.97801
 31
0.0
  0
LINE
  5
87B
100
AcDbEntity
  8
SUNPOU
100
AcDbLine
 10
343.070666
 20
170.97801
 30
0.0
 11
343.070666
 21
255.97801
 31
0.0
  0
MTEXT
  5
87C
100
AcDbEntity
  8
SUNPOU
100
AcDbMText
 10
339.445666
 20
213.47801
 30
0.0
 40
6.0
 41
0.0
 71
     5
 72
     1
  1
\A1;85
 11
0.0
 21
1.0
 31
0.0
 73
     1
 44
1.0
  0
POINT
  5
87F
100
AcDbEntity
  8
SUNPOU
100
AcDbPoint
 10
343.070666
 20
255.97801
 30
0.0
  0
LINE
  5
880
100
AcDbEntity
  8
SUNPOU
100
AcDbLine
 10
390.070666
 20
170.953016
 30
0.0
 11
390.070666
 21
154.72801
 31
0.0
  0
LINE
  5
881
100
AcDbEntity
  8
SUNPOU
100
AcDbLine
 10
426.070666
 20
170.953016
 30
0.0
 11
426.070666
 21
154.72801
 31
0.0
  0
LINE
  5
882
100
AcDbEntity
  8
SUNPOU
100
AcDbLine
 10
390.070666
 20
155.97801
 30
0.0
 11
426.070666
 21
155.97801
 31
0.0
  0
MTEXT
  5
883
100
AcDbEntity
  8
SUNPOU
100
AcDbMText
 10
408.070666
 20
159.60301
 30
0.0
 40
6.0
 41
0.0
 71
     5
 72
     1
  1
\A1;36
 73
     1
 44
1.0
  0
POINT
  5
886
100
AcDbEntity
  8
SUNPOU
100
AcDbPoint
 10
426.070666
 20
155.97801
 30
0.0
  0
LINE
  5
8B4
100
AcDbEntity
  8
PANEL
  6
CONTINUOUS
100
AcDbLine
 10
143.919742
 20
150.126502
 30
0.0
 11
109.919742
 21
91.236609
 31
0.0
  0
LINE
  5
8B5
100
AcDbEntity
  8
PANEL
  6
CONTINUOUS
100
AcDbLine
 10
144.439517
 20
149.826453
 30
0.0
 11
110.439517
 21
90.936804
 31
0.0
  0
ARC
  5
8B6
100
AcDbEntity
  8
PANEL
  6
CONTINUOUS
100
AcDbCircle
 10
116.848209
 20
87.236853
 30
0.0
 40
7.400024
100
AcDbArc
 50
149.999964
 51
270.0
  0
ARC
  5
8B7
100
AcDbEntity
  8
PANEL
  6
CONTINUOUS
100
AcDbCircle
 10
116.848209
 20
87.236853
 30
0.0
 40
8.0
100
AcDbArc
 50
150.000259
 51
270.0
  0
LINE
  5
8B8
100
AcDbEntity
  8
PANEL
  6
CONTINUOUS
100
AcDbLine
 10
122.044254
 20
79.836951
 30
0.0
 11
116.501773
 21
79.836707
 31
0.0
  0
LINE
  5
8B9
100
AcDbEntity
  8
PANEL
  6
CONTINUOUS
100
AcDbLine
 10
122.044254
 20
79.836951
 30
0.0
 11
122.04401
 21
79.236609
 31
0.0
  0
LINE
  5
8BA
100
AcDbEntity
  8
PANEL
  6
CONTINUOUS
100
AcDbLine
 10
116.847965
 20
79.236365
 30
0.0
 11
122.04401
 21
79.236609
 31
0.0
  0
LINE
  5
8BB
100
AcDbEntity
  8
PANEL
  6
CONTINUOUS
100
AcDbLine
 10
143.919742
 20
322.526526
 30
0.0
 11
109.919742
 21
263.636633
 31
0.0
  0
LINE
  5
8BC
100
AcDbEntity
  8
PANEL
  6
CONTINUOUS
100
AcDbLine
 10
144.439517
 20
322.226477
 30
0.0
 11
110.439517
 21
263.336829
 31
0.0
  0
ARC
  5
8BD
100
AcDbEntity
  8
PANEL
  6
CONTINUOUS
100
AcDbCircle
 10
116.848209
 20
173.436865
 30
0.0
 40
7.400024
100
AcDbArc
 50
149.999964
 51
270.0
  0
ARC
  5
8BE
100
AcDbEntity
  8
PANEL
  6
CONTINUOUS
100
AcDbCircle
 10
116.848209
 20
173.436865
 30
0.0
 40
8.0
100
AcDbArc
 50
150.000259
 51
270.0
  0
LINE
  5
8BF
100
AcDbEntity
  8
PANEL
  6
CONTINUOUS
100
AcDbLine
 10
122.044254
 20
166.036963
 30
0.0
 11
116.501773
 21
166.036719
 31
0.0
  0
LINE
  5
8C0
100
AcDbEntity
  8
PANEL
  6
CONTINUOUS
100
AcDbLine
 10
122.044254
 20
252.236975
 30
0.0
 11
116.501773
 21
252.236731
 31
0.0
  0
LINE
  5
8C1
100
AcDbEntity
  8
PANEL
  6
CONTINUOUS
100
AcDbLine
 10
143.919742
 20
236.326514
 30
0.0
 11
109.919742
 21
177.436621
 31
0.0
  0
LINE
  5
8C2
100
AcDbEntity
  8
PANEL
  6
CONTINUOUS
100
AcDbLine
 10
144.439517
 20
236.026465
 30
0.0
 11
110.439517
 21
177.136816
 31
0.0
  0
ARC
  5
8C3
100
AcDbEntity
  8
PANEL
  6
CONTINUOUS
100
AcDbCircle
 10
116.848209
 20
259.636878
 30
0.0
 40
7.400024
100
AcDbArc
 50
150.000287
 51
270.0
  0
ARC
  5
8C4
100
AcDbEntity
  8
PANEL
  6
CONTINUOUS
100
AcDbCircle
 10
116.848209
 20
259.636878
 30
0.0
 40
8.0
100
AcDbArc
 50
150.000259
 51
270.0
  0
ARC
  5
8C5
100
AcDbEntity
  8
PANEL
  6
CONTINUOUS
100
AcDbCircle
 10
150.848209
 20
146.126502
 30
0.0
 40
8.000017
100
AcDbArc
 50
29.99993
 51
150.00007
  0
ARC
  5
8C6
100
AcDbEntity
  8
PANEL
  6
CONTINUOUS
100
AcDbCircle
 10
150.848209
 20
146.126502
 30
0.0
 40
7.39999
100
AcDbArc
 50
30.000154
 51
149.999846
  0
LINE
  5
8C7
100
AcDbEntity
  8
PANEL
  6
CONTINUOUS
100
AcDbLine
 10
122.044254
 20
166.036963
 30
0.0
 11
122.04401
 21
165.436621
 31
0.0
  0
LINE
  5
8C8
100
AcDbEntity
  8
PANEL
  6
CONTINUOUS
100
AcDbLine
 10
116.847965
 20
165.436377
 30
0.0
 11
122.04401
 21
165.436621
 31
0.0
  0
LINE
  5
8C9
100
AcDbEntity
  8
PANEL
  6
CONTINUOUS
100
AcDbLine
 10
157.776187
 20
150.126257
 30
0.0
 11
160.374332
 21
145.626257
 31
0.0
  0
LINE
  5
8CA
100
AcDbEntity
  8
PANEL
  6
CONTINUOUS
100
AcDbLine
 10
159.854556
 20
145.326453
 30
0.0
 11
157.08356
 21
150.126257
 31
0.0
  0
LINE
  5
8CB
100
AcDbEntity
  8
PANEL
  6
CONTINUOUS
100
AcDbLine
 10
159.854556
 20
145.326453
 30
0.0
 11
160.374332
 21
145.626257
 31
0.0
  0
ARC
  5
8CC
100
AcDbEntity
  8
PANEL
  6
CONTINUOUS
100
AcDbCircle
 10
150.848209
 20
232.326514
 30
0.0
 40
8.000017
100
AcDbArc
 50
29.99993
 51
150.00007
  0
ARC
  5
8CD
100
AcDbEntity
  8
PANEL
  6
CONTINUOUS
100
AcDbCircle
 10
150.848209
 20
232.326514
 30
0.0
 40
7.39999
100
AcDbArc
 50
30.000154
 51
149.999846
  0
LINE
  5
8CE
100
AcDbEntity
  8
PANEL
  6
CONTINUOUS
100
AcDbLine
 10
122.044254
 20
252.236975
 30
0.0
 11
122.04401
 21
251.636633
 31
0.0
  0
LINE
  5
8CF
100
AcDbEntity
  8
PANEL
  6
CONTINUOUS
100
AcDbLine
 10
116.847965
 20
251.636389
 30
0.0
 11
122.04401
 21
251.636633
 31
0.0
  0
LINE
  5
8D0
100
AcDbEntity
  8
PANEL
  6
CONTINUOUS
100
AcDbLine
 10
157.776187
 20
236.32627
 30
0.0
 11
160.374332
 21
231.82627
 31
0.0
  0
LINE
  5
8D1
100
AcDbEntity
  8
PANEL
  6
CONTINUOUS
100
AcDbLine
 10
159.854556
 20
231.526465
 30
0.0
 11
157.08356
 21
236.32627
 31
0.0
  0
LINE
  5
8D2
100
AcDbEntity
  8
PANEL
  6
CONTINUOUS
100
AcDbLine
 10
159.854556
 20
231.526465
 30
0.0
 11
160.374332
 21
231.82627
 31
0.0
  0
LINE
  5
8D5
100
AcDbEntity
  8
PANEL
  6
CONTINUOUS
100
AcDbLine
 10
157.776187
 20
322.526282
 30
0.0
 11
160.374332
 21
318.026282
 31
0.0
  0
LINE
  5
8D6
100
AcDbEntity
  8
PANEL
  6
CONTINUOUS
100
AcDbLine
 10
159.854556
 20
317.726477
 30
0.0
 11
157.08356
 21
322.526282
 31
0.0
  0
LINE
  5
8D7
100
AcDbEntity
  8
PANEL
  6
CONTINUOUS
100
AcDbLine
 10
159.854556
 20
317.726477
 30
0.0
 11
160.374332
 21
318.026282
 31
0.0
  0
ARC
  5
8D8
100
AcDbEntity
  8
PANEL
  6
CONTINUOUS
100
AcDbCircle
 10
150.848209
 20
318.526526
 30
0.0
 40
8.000017
100
AcDbArc
 50
29.999497
 51
150.00007
  0
ARC
  5
8D9
100
AcDbEntity
  8
PANEL
  6
CONTINUOUS
100
AcDbCircle
 10
150.848209
 20
318.526526
 30
0.0
 40
7.39996
100
AcDbArc
 50
30.000068
 51
150.000255
  0
LINE
  5
929
100
AcDbEntity
  8
STRINGA
  6
CONTINUOUS
100
AcDbLine
 10
121.507592
 20
110.107259
 30
0.0
 11
111.642188
 21
93.019316
 31
0.0
  0
LINE
  5
92A
100
AcDbEntity
  8
STRINGA
  6
CONTINUOUS
100
AcDbLine
 10
193.848197
 20
73.141213
 30
0.0
 11
193.848197
 21
331.741349
 31
0.0
  0
LINE
  5
92B
100
AcDbEntity
  8
STRINGA
  6
CONTINUOUS
100
AcDbLine
 10
177.848197
 20
73.141213
 30
0.0
 11
177.848197
 21
331.741349
 31
0.0
  0
ARC
  5
92C
100
AcDbEntity
  8
STRINGA
  6
CONTINUOUS
100
AcDbCircle
 10
134.348209
 20
56.365027
 30
0.0
 40
30.500029
100
AcDbArc
 50
33.369646
 51
129.079849
  0
ARC
  5
92D
100
AcDbEntity
  8
STRINGA
  6
CONTINUOUS
100
AcDbCircle
 10
119.869449
 20
88.269324
 30
0.0
 40
9.500001
100
AcDbArc
 50
150.000229
 51
240.010205
  0
LINE
  5
92E
100
AcDbEntity
  8
STRINGA
  6
CONTINUOUS
100
AcDbLine
 10
121.507592
 20
282.507259
 30
0.0
 11
111.642188
 21
265.419316
 31
0.0
  0
LINE
  5
92F
100
AcDbEntity
  8
STRINGA
  6
CONTINUOUS
100
AcDbLine
 10
121.507592
 20
196.307259
 30
0.0
 11
111.642188
 21
179.219316
 31
0.0
  0
ARC
  5
930
100
AcDbEntity
  8
STRINGA
  6
CONTINUOUS
100
AcDbCircle
 10
134.348209
 20
142.565039
 30
0.0
 40
30.500029
100
AcDbArc
 50
33.369503
 51
129.079849
  0
ARC
  5
931
100
AcDbEntity
  8
STRINGA
  6
CONTINUOUS
100
AcDbCircle
 10
134.348209
 20
228.765051
 30
0.0
 40
30.500029
100
AcDbArc
 50
33.369503
 51
129.079849
  0
ARC
  5
932
100
AcDbEntity
  8
STRINGA
  6
CONTINUOUS
100
AcDbCircle
 10
119.869449
 20
174.469336
 30
0.0
 40
9.500001
100
AcDbArc
 50
150.000229
 51
240.010205
  0
ARC
  5
933
100
AcDbEntity
  8
STRINGA
  6
CONTINUOUS
100
AcDbCircle
 10
119.869449
 20
260.669348
 30
0.0
 40
9.500001
100
AcDbArc
 50
150.000229
 51
240.010205
  0
LINE
  5
934
100
AcDbEntity
  8
STRINGA
  6
CONTINUOUS
100
AcDbLine
 10
143.237247
 20
147.743469
 30
0.0
 11
132.507592
 21
129.159818
 31
0.0
  0
ARC
  5
935
100
AcDbEntity
  8
STRINGA
  6
CONTINUOUS
100
AcDbCircle
 10
162.098209
 20
143.891394
 30
0.0
 40
2.74999
100
AcDbArc
 50
213.499789
 51
371.860103
  0
LINE
  5
936
100
AcDbEntity
  8
STRINGA
  6
CONTINUOUS
100
AcDbLine
 10
128.221693
 20
113.736424
 30
0.0
 11
132.721693
 21
121.530653
 31
0.0
  0
LINE
  5
937
100
AcDbEntity
  8
STRINGA
  6
CONTINUOUS
100
AcDbLine
 10
122.894898
 20
104.110145
 30
0.0
 11
125.644898
 21
108.873285
 31
0.0
  0
LINE
  5
938
100
AcDbEntity
  8
STRINGA
  6
CONTINUOUS
100
AcDbLine
 10
125.319769
 20
102.710145
 30
0.0
 11
130.319769
 21
111.370399
 31
0.0
  0
LINE
  5
939
100
AcDbEntity
  8
STRINGA
  6
CONTINUOUS
100
AcDbLine
 10
125.319769
 20
102.710145
 30
0.0
 11
122.894898
 21
104.110145
 31
0.0
  0
LINE
  5
93A
100
AcDbEntity
  8
STRINGA
  6
CONTINUOUS
100
AcDbLine
 10
125.644898
 20
108.873285
 30
0.0
 11
122.873617
 21
110.473285
 31
0.0
  0
ARC
  5
93B
100
AcDbEntity
  8
STRINGA
  6
CONTINUOUS
100
AcDbCircle
 10
122.373617
 20
109.607259
 30
0.0
 40
1.0
100
AcDbArc
 50
60.0
 51
150.0
  0
ARC
  5
93C
100
AcDbEntity
  8
STRINGA
  6
CONTINUOUS
100
AcDbCircle
 10
129.087719
 20
113.236424
 30
0.0
 40
1.0
100
AcDbArc
 50
150.0
 51
240.0
  0
LINE
  5
93D
100
AcDbEntity
  8
STRINGA
  6
CONTINUOUS
100
AcDbLine
 10
130.319769
 20
111.370399
 30
0.0
 11
128.587719
 21
112.370399
 31
0.0
  0
ARC
  5
93E
100
AcDbEntity
  8
STRINGA
  6
CONTINUOUS
100
AcDbCircle
 10
133.373617
 20
128.659818
 30
0.0
 40
1.0
100
AcDbArc
 50
150.0
 51
240.0
  0
LINE
  5
93F
100
AcDbEntity
  8
STRINGA
  6
CONTINUOUS
100
AcDbLine
 10
135.644898
 20
126.193793
 30
0.0
 11
138.394898
 21
130.956932
 31
0.0
  0
LINE
  5
940
100
AcDbEntity
  8
STRINGA
  6
CONTINUOUS
100
AcDbLine
 10
140.819769
 20
129.556932
 30
0.0
 11
138.394898
 21
130.956932
 31
0.0
  0
LINE
  5
941
100
AcDbEntity
  8
STRINGA
  6
CONTINUOUS
100
AcDbLine
 10
135.819769
 20
120.896678
 30
0.0
 11
140.819769
 21
129.556932
 31
0.0
  0
LINE
  5
942
100
AcDbEntity
  8
STRINGA
  6
CONTINUOUS
100
AcDbLine
 10
135.644898
 20
126.193793
 30
0.0
 11
132.873617
 21
127.793793
 31
0.0
  0
ARC
  5
943
100
AcDbEntity
  8
STRINGA
  6
CONTINUOUS
100
AcDbCircle
 10
133.587719
 20
121.030653
 30
0.0
 40
1.0
100
AcDbArc
 50
60.0
 51
150.0
  0
LINE
  5
944
100
AcDbEntity
  8
STRINGA
  6
CONTINUOUS
100
AcDbLine
 10
135.819769
 20
120.896678
 30
0.0
 11
134.087719
 21
121.896678
 31
0.0
  0
ARC
  5
945
100
AcDbEntity
  8
STRINGA
  6
CONTINUOUS
100
AcDbCircle
 10
151.46442
 20
142.993445
 30
0.0
 40
9.499941
100
AcDbArc
 50
60.952609
 51
149.999793
  0
ARC
  5
946
100
AcDbEntity
  8
STRINGA
  6
CONTINUOUS
100
AcDbCircle
 10
134.348209
 20
142.565222
 30
0.0
 40
30.50005
100
AcDbArc
 50
3.555171
 51
33.369631
  0
LINE
  5
947
100
AcDbEntity
  8
STRINGA
  6
CONTINUOUS
100
AcDbLine
 10
155.064029
 20
149.536658
 30
0.0
 11
159.804996
 21
142.373572
 31
0.0
  0
LINE
  5
948
100
AcDbEntity
  8
STRINGA
  6
CONTINUOUS
100
AcDbLine
 10
156.076969
 20
151.298865
 30
0.0
 11
155.064029
 21
149.536658
 31
0.0
  0
LINE
  5
949
100
AcDbEntity
  8
STRINGA
  6
CONTINUOUS
100
AcDbLine
 10
143.237247
 20
233.943469
 30
0.0
 11
132.507592
 21
215.359818
 31
0.0
  0
LINE
  5
94A
100
AcDbEntity
  8
STRINGA
  6
CONTINUOUS
100
AcDbLine
 10
155.064029
 20
235.73667
 30
0.0
 11
159.804996
 21
228.573584
 31
0.0
  0
ARC
  5
94B
100
AcDbEntity
  8
STRINGA
  6
CONTINUOUS
100
AcDbCircle
 10
162.098209
 20
230.091406
 30
0.0
 40
2.74999
100
AcDbArc
 50
213.499789
 51
371.860103
  0
ARC
  5
94C
100
AcDbEntity
  8
STRINGA
  6
CONTINUOUS
100
AcDbCircle
 10
133.587719
 20
207.230653
 30
0.0
 40
1.0
100
AcDbArc
 50
60.0
 51
150.0
  0
LINE
  5
94D
100
AcDbEntity
  8
STRINGA
  6
CONTINUOUS
100
AcDbLine
 10
135.819769
 20
207.096678
 30
0.0
 11
134.087719
 21
208.096678
 31
0.0
  0
LINE
  5
94E
100
AcDbEntity
  8
STRINGA
  6
CONTINUOUS
100
AcDbLine
 10
135.819769
 20
207.096678
 30
0.0
 11
140.819769
 21
215.756932
 31
0.0
  0
LINE
  5
94F
100
AcDbEntity
  8
STRINGA
  6
CONTINUOUS
100
AcDbLine
 10
128.221693
 20
199.936424
 30
0.0
 11
132.721693
 21
207.730653
 31
0.0
  0
ARC
  5
950
100
AcDbEntity
  8
STRINGA
  6
CONTINUOUS
100
AcDbCircle
 10
122.373617
 20
195.807259
 30
0.0
 40
1.0
100
AcDbArc
 50
60.0
 51
150.0
  0
LINE
  5
951
100
AcDbEntity
  8
STRINGA
  6
CONTINUOUS
100
AcDbLine
 10
125.319769
 20
188.910145
 30
0.0
 11
130.319769
 21
197.570399
 31
0.0
  0
LINE
  5
952
100
AcDbEntity
  8
STRINGA
  6
CONTINUOUS
100
AcDbLine
 10
125.319769
 20
188.910145
 30
0.0
 11
122.894898
 21
190.310145
 31
0.0
  0
LINE
  5
953
100
AcDbEntity
  8
STRINGA
  6
CONTINUOUS
100
AcDbLine
 10
125.644898
 20
195.073285
 30
0.0
 11
122.873617
 21
196.673285
 31
0.0
  0
LINE
  5
954
100
AcDbEntity
  8
STRINGA
  6
CONTINUOUS
100
AcDbLine
 10
122.894898
 20
190.310145
 30
0.0
 11
125.644898
 21
195.073285
 31
0.0
  0
ARC
  5
955
100
AcDbEntity
  8
STRINGA
  6
CONTINUOUS
100
AcDbCircle
 10
129.087719
 20
199.436424
 30
0.0
 40
1.0
100
AcDbArc
 50
150.0
 51
240.0
  0
LINE
  5
956
100
AcDbEntity
  8
STRINGA
  6
CONTINUOUS
100
AcDbLine
 10
130.319769
 20
197.570399
 30
0.0
 11
128.587719
 21
198.570399
 31
0.0
  0
ARC
  5
957
100
AcDbEntity
  8
STRINGA
  6
CONTINUOUS
100
AcDbCircle
 10
133.373617
 20
214.859818
 30
0.0
 40
1.0
100
AcDbArc
 50
150.0
 51
240.0
  0
LINE
  5
958
100
AcDbEntity
  8
STRINGA
  6
CONTINUOUS
100
AcDbLine
 10
140.819769
 20
215.756932
 30
0.0
 11
138.394898
 21
217.156932
 31
0.0
  0
LINE
  5
959
100
AcDbEntity
  8
STRINGA
  6
CONTINUOUS
100
AcDbLine
 10
135.644898
 20
212.393793
 30
0.0
 11
138.394898
 21
217.156932
 31
0.0
  0
LINE
  5
95A
100
AcDbEntity
  8
STRINGA
  6
CONTINUOUS
100
AcDbLine
 10
135.644898
 20
212.393793
 30
0.0
 11
132.873617
 21
213.993793
 31
0.0
  0
ARC
  5
95B
100
AcDbEntity
  8
STRINGA
  6
CONTINUOUS
100
AcDbCircle
 10
151.46442
 20
229.193457
 30
0.0
 40
9.499941
100
AcDbArc
 50
60.952609
 51
149.999793
  0
ARC
  5
95C
100
AcDbEntity
  8
STRINGA
  6
CONTINUOUS
100
AcDbCircle
 10
134.348209
 20
228.765234
 30
0.0
 40
30.50005
100
AcDbArc
 50
3.555171
 51
33.369631
  0
LINE
  5
95D
100
AcDbEntity
  8
STRINGA
  6
CONTINUOUS
100
AcDbLine
 10
156.076969
 20
237.498877
 30
0.0
 11
155.064029
 21
235.73667
 31
0.0
  0
LINE
  5
95F
100
AcDbEntity
  8
STRINGA
  6
CONTINUOUS
100
AcDbLine
 10
143.237247
 20
320.143469
 30
0.0
 11
132.507592
 21
301.559818
 31
0.0
  0
LINE
  5
960
100
AcDbEntity
  8
STRINGA
  6
CONTINUOUS
100
AcDbLine
 10
155.064029
 20
321.936682
 30
0.0
 11
159.804996
 21
314.773596
 31
0.0
  0
ARC
  5
961
100
AcDbEntity
  8
STRINGA
  6
CONTINUOUS
100
AcDbCircle
 10
134.348209
 20
314.965247
 30
0.0
 40
30.500017
100
AcDbArc
 50
3.55506
 51
33.369471
  0
LINE
  5
962
100
AcDbEntity
  8
STRINGA
  6
CONTINUOUS
100
AcDbLine
 10
135.819769
 20
293.296678
 30
0.0
 11
140.819769
 21
301.956932
 31
0.0
  0
LINE
  5
963
100
AcDbEntity
  8
STRINGA
  6
CONTINUOUS
100
AcDbLine
 10
128.221693
 20
286.136424
 30
0.0
 11
132.721693
 21
293.930653
 31
0.0
  0
ARC
  5
964
100
AcDbEntity
  8
STRINGA
  6
CONTINUOUS
100
AcDbCircle
 10
129.087719
 20
285.636424
 30
0.0
 40
1.0
100
AcDbArc
 50
150.0
 51
240.0
  0
LINE
  5
965
100
AcDbEntity
  8
STRINGA
  6
CONTINUOUS
100
AcDbLine
 10
125.319769
 20
275.110145
 30
0.0
 11
122.894898
 21
276.510145
 31
0.0
  0
LINE
  5
966
100
AcDbEntity
  8
STRINGA
  6
CONTINUOUS
100
AcDbLine
 10
122.894898
 20
276.510145
 30
0.0
 11
125.644898
 21
281.273285
 31
0.0
  0
LINE
  5
967
100
AcDbEntity
  8
STRINGA
  6
CONTINUOUS
100
AcDbLine
 10
125.644898
 20
281.273285
 30
0.0
 11
122.873617
 21
282.873285
 31
0.0
  0
ARC
  5
968
100
AcDbEntity
  8
STRINGA
  6
CONTINUOUS
100
AcDbCircle
 10
122.373617
 20
282.007259
 30
0.0
 40
1.0
100
AcDbArc
 50
60.0
 51
150.0
  0
LINE
  5
969
100
AcDbEntity
  8
STRINGA
  6
CONTINUOUS
100
AcDbLine
 10
125.319769
 20
275.110145
 30
0.0
 11
130.319769
 21
283.770399
 31
0.0
  0
LINE
  5
96A
100
AcDbEntity
  8
STRINGA
  6
CONTINUOUS
100
AcDbLine
 10
130.319769
 20
283.770399
 30
0.0
 11
128.587719
 21
284.770399
 31
0.0
  0
LINE
  5
96B
100
AcDbEntity
  8
STRINGA
  6
CONTINUOUS
100
AcDbLine
 10
135.819769
 20
293.296678
 30
0.0
 11
134.087719
 21
294.296678
 31
0.0
  0
ARC
  5
96C
100
AcDbEntity
  8
STRINGA
  6
CONTINUOUS
100
AcDbCircle
 10
133.587719
 20
293.430653
 30
0.0
 40
1.0
100
AcDbArc
 50
60.0
 51
150.0
  0
ARC
  5
96D
100
AcDbEntity
  8
STRINGA
  6
CONTINUOUS
100
AcDbCircle
 10
133.373617
 20
301.059818
 30
0.0
 40
1.0
100
AcDbArc
 50
150.0
 51
240.0
  0
LINE
  5
96E
100
AcDbEntity
  8
STRINGA
  6
CONTINUOUS
100
AcDbLine
 10
140.819769
 20
301.956932
 30
0.0
 11
138.394898
 21
303.356932
 31
0.0
  0
LINE
  5
96F
100
AcDbEntity
  8
STRINGA
  6
CONTINUOUS
100
AcDbLine
 10
135.644898
 20
298.593793
 30
0.0
 11
138.394898
 21
303.356932
 31
0.0
  0
LINE
  5
970
100
AcDbEntity
  8
STRINGA
  6
CONTINUOUS
100
AcDbLine
 10
135.644898
 20
298.593793
 30
0.0
 11
132.873617
 21
300.193793
 31
0.0
  0
ARC
  5
971
100
AcDbEntity
  8
STRINGA
  6
CONTINUOUS
100
AcDbCircle
 10
162.098209
 20
316.291419
 30
0.0
 40
2.749978
100
AcDbArc
 50
213.499965
 51
371.858858
  0
ARC
  5
972
100
AcDbEntity
  8
STRINGA
  6
CONTINUOUS
100
AcDbCircle
 10
151.46442
 20
315.393469
 30
0.0
 40
9.499941
100
AcDbArc
 50
60.952609
 51
149.999793
  0
LINE
  5
973
100
AcDbEntity
  8
STRINGA
  6
CONTINUOUS
100
AcDbLine
 10
156.076969
 20
323.698889
 30
0.0
 11
155.064029
 21
321.936682
 31
0.0
  0
LINE
  5
9BA
100
AcDbEntity
  8
SUNPOU
100
AcDbLine
 10
150.223209
 20
326.526543
 30
0.0
 11
77.598197
 21
326.526543
 31
0.0
  0
LINE
  5
9BB
100
AcDbEntity
  8
SUNPOU
100
AcDbLine
 10
121.41901
 20
251.636633
 30
0.0
 11
77.598197
 21
251.636633
 31
0.0
  0
LINE
  5
9BC
100
AcDbEntity
  8
SUNPOU
100
AcDbLine
 10
78.848197
 20
326.526543
 30
0.0
 11
78.848197
 21
251.636633
 31
0.0
  0
MTEXT
  5
9BD
100
AcDbEntity
  8
SUNPOU
100
AcDbMText
 10
75.223197
 20
289.081588
 30
0.0
 40
6.0
 41
0.0
 71
     5
 72
     1
  1
\A1;76
 11
0.0
 21
1.0
 31
0.0
 73
     1
 44
1.0
  0
POINT
  5
9C0
100
AcDbEntity
  8
SUNPOU
100
AcDbPoint
 10
78.848197
 20
251.636633
 30
0.0
  0
LINE
  5
9C1
100
AcDbEntity
  8
SUNPOU
100
AcDbLine
 10
193.848197
 20
332.366349
 30
0.0
 11
193.848197
 21
347.991349
 31
0.0
  0
LINE
  5
9C2
100
AcDbEntity
  8
SUNPOU
100
AcDbLine
 10
108.848209
 20
260.261878
 30
0.0
 11
108.848209
 21
347.991349
 31
0.0
  0
LINE
  5
9C3
100
AcDbEntity
  8
SUNPOU
100
AcDbLine
 10
193.848197
 20
346.741349
 30
0.0
 11
108.848209
 21
346.741349
 31
0.0
  0
MTEXT
  5
9C4
100
AcDbEntity
  8
SUNPOU
100
AcDbMText
 10
151.348203
 20
350.366349
 30
0.0
 40
6.0
 41
0.0
 71
     5
 72
     1
  1
\A1;85
 73
     1
 44
1.0
  0
LINE
  5
9C8
100
AcDbEntity
  8
SUNPOU
100
AcDbLine
 10
121.41901
 20
251.636633
 30
0.0
 11
77.598197
 21
251.636633
 31
0.0
  0
LINE
  5
9C9
100
AcDbEntity
  8
SUNPOU
100
AcDbLine
 10
121.41901
 20
165.436621
 30
0.0
 11
77.598197
 21
165.436621
 31
0.0
  0
LINE
  5
9CA
100
AcDbEntity
  8
SUNPOU
100
AcDbLine
 10
78.848197
 20
251.636633
 30
0.0
 11
78.848197
 21
165.436621
 31
0.0
  0
MTEXT
  5
9CB
100
AcDbEntity
  8
SUNPOU
100
AcDbMText
 10
75.223197
 20
208.536627
 30
0.0
 40
6.0
 41
0.0
 71
     5
 72
     1
  1
\A1;86.2
 11
0.0
 21
1.0
 31
0.0
 73
     1
 44
1.0
  0
POINT
  5
9CE
100
AcDbEntity
  8
SUNPOU
100
AcDbPoint
 10
78.848197
 20
165.436621
 30
0.0
  0
LINE
  5
9CF
100
AcDbEntity
  8
SUNPOU
100
AcDbLine
 10
121.41901
 20
251.636633
 30
0.0
 11
92.598197
 21
251.636633
 31
0.0
  0
LINE
  5
9D0
100
AcDbEntity
  8
SUNPOU
100
AcDbLine
 10
150.223209
 20
240.326531
 30
0.0
 11
92.598197
 21
240.326531
 31
0.0
  0
LINE
  5
9D1
100
AcDbEntity
  8
SUNPOU
100
AcDbLine
 10
93.848197
 20
251.636633
 30
0.0
 11
93.848197
 21
240.326531
 31
0.0
  0
LINE
  5
9D2
100
AcDbEntity
  8
SUNPOU
100
AcDbLine
 10
93.848197
 20
240.326531
 30
0.0
 11
93.848197
 21
221.576531
 31
0.0
  0
MTEXT
  5
9D3
100
AcDbEntity
  8
SUNPOU
100
AcDbMText
 10
90.223197
 20
229.701531
 30
0.0
 40
6.0
 41
0.0
 71
     5
 72
     1
  1
\A1;10.2
 11
0.0
 21
1.0
 31
0.0
 73
     1
 44
1.0
  0
POINT
  5
9D6
100
AcDbEntity
  8
SUNPOU
100
AcDbPoint
 10
93.848197
 20
240.326531
 30
0.0
  0
ARC
  5
9E2
100
AcDbEntity
  8
SUNPOU
100
AcDbCircle
 10
108.848209
 20
261.780678
 30
0.0
 40
50.032671
100
AcDbArc
 50
60.00007
 51
90.0
  0
MTEXT
  5
9E3
100
AcDbEntity
  8
SUNPOU
100
AcDbMText
 10
122.735804
 20
313.610017
 30
0.0
 40
6.0
 41
0.0
 71
     5
 72
     1
  1
\A1;30°
 11
0.965926
 21
-0.258818
 31
0.0
 73
     1
 44
1.0
  0
ENDSEC
  0
SECTION
  2
OBJECTS
  0
DICTIONARY
  5
C
100
AcDbDictionary
280
     0
281
     0
  3
ACAD_GROUP
350
D
  3
ACAD_MLINESTYLE
350
E
  3
ACDBVARIABLEDICTIONARY
350
5D
  3
ACAD_LAYOUT
350
A08
  3
ACAD_PLOTSETTINGS
350
A0C
  3
ACAD_PLOTSTYLENAME
350
A09
  3
ACAD_WIPEOUT_VARS
350
A0D
  0
DICTIONARY
  5
D
102
{ACAD_REACTORS
330
C
102
}
100
AcDbDictionary
280
     0
281
     0
  0
DICTIONARY
  5
E
102
{ACAD_REACTORS
330
C
102
}
100
AcDbDictionary
280
     0
281
     0
  3
STANDARD
350
13
  0
MLINESTYLE
  5
13
102
{ACAD_REACTORS
330
E
102
}
100
AcDbMlineStyle
  2
STANDARD
 70
     0
  3

 62
     0
 51
90.0
 52
90.0
 71
     2
 49
0.5
 62
   256
  6
ByLayer
 49
-0.5
 62
   256
  6
ByLayer
  0
DICTIONARY
  5
5D
102
{ACAD_REACTORS
330
C
102
}
100
AcDbDictionary
280
     0
281
     0
  3
DIMADEC
350
5E
  0
DICTIONARYVAR
  5
5E
102
{ACAD_REACTORS
330
5D
102
}
100
DictionaryVariables
280
     0
  1
0
  0
ACDBDICTIONARYWDFLT
  5
A09
102
{ACAD_REACTORS
330
C
102
}
100
AcDbDictionary
281
     1
  3
Normal
350
A07
100
AcDbDictionaryWithDefault
340
A07
  0
ACDBPLACEHOLDER
  5
A07
102
{ACAD_REACTORS
330
A09
102
}
  0
LAYOUT
  5
A0A
102
{ACAD_REACTORS
330
A08
102
}
100
AcDbPlotSettings
  1

  2

  4

  6

 40
0.0
 41
0.0
 42
0.0
 43
0.0
 44
0.0
 45
0.0
 46
0.0
 47
0.0
 48
0.0
 49
0.0
140
0.0
141
0.0
142
1.0
143
1.0
 70
  1024
 72
     0
 73
     0
 74
     0
  7

 75
     0
147
1.0
148
0.0
149
0.0
100
AcDbLayout
  1
Model
 70
     0
 71
     0
 10
0.0
 20
0.0
 11
0.0
 21
0.0
 12
0.0
 22
0.0
 32
0.0
 14
0.0
 24
0.0
 34
0.0
 15
0.0
 25
0.0
 35
0.0
146
0.0
 13
0.0
 23
0.0
 33
0.0
 16
0.0
 26
0.0
 36
0.0
 17
0.0
 27
0.0
 37
0.0
 76
     0
330
1A
331
0
345
0
346
0
  0
LAYOUT
  5
A0B
102
{ACAD_REACTORS
330
A08
102
}
100
AcDbPlotSettings
  1

  2

  4

  6

 40
0.0
 41
0.0
 42
0.0
 43
0.0
 44
0.0
 45
0.0
 46
0.0
 47
0.0
 48
0.0
 49
0.0
140
0.0
141
0.0
142
1.0
143
1.0
 70
     0
 72
     0
 73
     0
 74
     0
  7

 75
     0
147
1.0
148
0.0
149
0.0
100
AcDbLayout
  1
Layout1
 70
     0
 71
     0
 10
0.0
 20
0.0
 11
0.0
 21
0.0
 12
0.0
 22
0.0
 32
0.0
 14
0.0
 24
0.0
 34
0.0
 15
0.0
 25
0.0
 35
0.0
146
0.0
 13
0.0
 23
0.0
 33
0.0
 16
0.0
 26
0.0
 36
0.0
 17
0.0
 27
0.0
 37
0.0
 76
     0
330
17
331
0
345
0
346
0
  0
DICTIONARY
  5
A08
102
{ACAD_REACTORS
330
C
102
}
100
AcDbDictionary
280
     0
281
     1
  3
Layout1
350
A0B
  3
Model
350
A0A
  0
DICTIONARY
  5
A0C
102
{ACAD_REACTORS
330
C
102
}
100
AcDbDictionary
280
     0
281
     1
  0
ENDSEC
  0
EOF
