  0
SECTION
  2
HEADER
  9
$ACADVER
  1
AC1015
  9
$ACADMAINTVER
 70
     6
  9
$DWGCODEPAGE
  3
DOS932
  9
$INSBASE
 10
0.0
 20
0.0
 30
0.0
  9
$EXTMIN
 10
-0.06794
 20
-0.100288
 30
0.0
  9
$EXTMAX
 10
570.072191
 20
396.18401
 30
0.0
  9
$LIMMIN
 10
0.0
 20
0.0
  9
$LIMMAX
 10
570.0
 20
396.0
  9
$ORTHOMODE
 70
     0
  9
$REGENMODE
 70
     1
  9
$FILLMODE
 70
     1
  9
$QTEXTMODE
 70
     0
  9
$MIRRTEXT
 70
     1
  9
$LTSCALE
 40
1.333333
  9
$ATTMODE
 70
     1
  9
$TEXTSIZE
 40
5.0
  9
$TRACEWID
 40
1.0
  9
$TEXTSTYLE
  7
STANDARD
  9
$CLAYER
  8
0
  9
$CELTYPE
  6
ByLayer
  9
$CECOLOR
 62
   256
  9
$CELTSCALE
 40
1.0
  9
$DISPSILH
 70
     0
  9
$DIMSCALE
 40
1.0
  9
$DIMASZ
 40
2.5
  9
$DIMEXO
 40
0.625
  9
$DIMDLI
 40
3.75
  9
$DIMRND
 40
0.0
  9
$DIMDLE
 40
0.0
  9
$DIMEXE
 40
1.25
  9
$DIMTP
 40
0.0
  9
$DIMTM
 40
0.0
  9
$DIMTXT
 40
6.0
  9
$DIMCEN
 40
2.5
  9
$DIMTSZ
 40
0.0
  9
$DIMTOL
 70
     0
  9
$DIMLIM
 70
     0
  9
$DIMTIH
 70
     0
  9
$DIMTOH
 70
     0
  9
$DIMSE1
 70
     0
  9
$DIMSE2
 70
     0
  9
$DIMTAD
 70
     1
  9
$DIMZIN
 70
     8
  9
$DIMBLK
  1

  9
$DIMASO
 70
     1
  9
$DIMSHO
 70
     1
  9
$DIMPOST
  1

  9
$DIMAPOST
  1

  9
$DIMALT
 70
     0
  9
$DIMALTD
 70
     4
  9
$DIMALTF
 40
0.0394
  9
$DIMLFAC
 40
1.0
  9
$DIMTOFL
 70
     1
  9
$DIMTVP
 40
0.0
  9
$DIMTIX
 70
     0
  9
$DIMSOXD
 70
     0
  9
$DIMSAH
 70
     1
  9
$DIMBLK1
  1
_NONE
  9
$DIMBLK2
  1
_NONE
  9
$DIMSTYLE
  2
STANDARD
  9
$DIMCLRD
 70
     0
  9
$DIMCLRE
 70
     0
  9
$DIMCLRT
 70
     0
  9
$DIMTFAC
 40
1.0
  9
$DIMGAP
 40
0.625
  9
$DIMJUST
 70
     0
  9
$DIMSD1
 70
     0
  9
$DIMSD2
 70
     0
  9
$DIMTOLJ
 70
     1
  9
$DIMTZIN
 70
     0
  9
$DIMALTZ
 70
     0
  9
$DIMALTTZ
 70
     0
  9
$DIMUPT
 70
     0
  9
$DIMDEC
 70
     4
  9
$DIMTDEC
 70
     4
  9
$DIMALTU
 70
     8
  9
$DIMALTTD
 70
     4
  9
$DIMTXSTY
  7
STANDARD
  9
$DIMAUNIT
 70
     0
  9
$DIMADEC
 70
     0
  9
$DIMALTRND
 40
0.0
  9
$DIMAZIN
 70
     0
  9
$DIMDSEP
 70
    46
  9
$DIMATFIT
 70
     3
  9
$DIMFRAC
 70
     0
  9
$DIMLDRBLK
  1

  9
$DIMLUNIT
 70
     6
  9
$DIMLWD
 70
    -2
  9
$DIMLWE
 70
    -2
  9
$DIMTMOVE
 70
     0
  9
$LUNITS
 70
     2
  9
$LUPREC
 70
     4
  9
$SKETCHINC
 40
1.0
  9
$FILLETRAD
 40
13.333333
  9
$AUNITS
 70
     0
  9
$AUPREC
 70
     0
  9
$MENU
  1
.
  9
$ELEVATION
 40
0.0
  9
$PELEVATION
 40
0.0
  9
$THICKNESS
 40
0.0
  9
$LIMCHECK
 70
     0
  9
$CHAMFERA
 40
13.333333
  9
$CHAMFERB
 40
13.333333
  9
$CHAMFERC
 40
26.666667
  9
$CHAMFERD
 40
0.0
  9
$SKPOLY
 70
     1
  9
$TDCREATE
 40
2451654.235702639
  9
$TDUCREATE
 40
0.000000000
  9
$TDUPDATE
 40
2455657.315216817
  9
$TDUUPDATE
 40
0.000000000
  9
$TDINDWG
 40
0.3409457870
  9
$TDUSRTIMER
 40
0.3409457870
  9
$USRTIMER
 70
     1
  9
$ANGBASE
 50
0.0
  9
$ANGDIR
 70
     0
  9
$PDMODE
 70
     0
  9
$PDSIZE
 40
0.0
  9
$PLINEWID
 40
0.0
  9
$SPLFRAME
 70
     0
  9
$SPLINETYPE
 70
     6
  9
$SPLINESEGS
 70
     8
  9
$HANDSEED
  5
F95
  9
$SURFTAB1
 70
     6
  9
$SURFTAB2
 70
     6
  9
$SURFTYPE
 70
     6
  9
$SURFU
 70
     6
  9
$SURFV
 70
     6
  9
$UCSBASE
  2

  9
$UCSNAME
  2

  9
$UCSORG
 10
0.0
 20
0.0
 30
0.0
  9
$UCSXDIR
 10
1.0
 20
0.0
 30
0.0
  9
$UCSYDIR
 10
0.0
 20
1.0
 30
0.0
  9
$UCSORTHOREF
  2

  9
$UCSORTHOVIEW
 70
     0
  9
$UCSORGTOP
 10
0.0
 20
0.0
 30
0.0
  9
$UCSORGBOTTOM
 10
0.0
 20
0.0
 30
0.0
  9
$UCSORGLEFT
 10
0.0
 20
0.0
 30
0.0
  9
$UCSORGRIGHT
 10
0.0
 20
0.0
 30
0.0
  9
$UCSORGFRONT
 10
0.0
 20
0.0
 30
0.0
  9
$UCSORGBACK
 10
0.0
 20
0.0
 30
0.0
  9
$PUCSBASE
  2

  9
$PUCSNAME
  2

  9
$PUCSORG
 10
0.0
 20
0.0
 30
0.0
  9
$PUCSXDIR
 10
1.0
 20
0.0
 30
0.0
  9
$PUCSYDIR
 10
0.0
 20
1.0
 30
0.0
  9
$PUCSORTHOREF
  2

  9
$PUCSORTHOVIEW
 70
     0
  9
$PUCSORGTOP
 10
0.0
 20
0.0
 30
0.0
  9
$PUCSORGBOTTOM
 10
0.0
 20
0.0
 30
0.0
  9
$PUCSORGLEFT
 10
0.0
 20
0.0
 30
0.0
  9
$PUCSORGRIGHT
 10
0.0
 20
0.0
 30
0.0
  9
$PUCSORGFRONT
 10
0.0
 20
0.0
 30
0.0
  9
$PUCSORGBACK
 10
0.0
 20
0.0
 30
0.0
  9
$USERI1
 70
     0
  9
$USERI2
 70
     0
  9
$USERI3
 70
     0
  9
$USERI4
 70
     0
  9
$USERI5
 70
     0
  9
$USERR1
 40
0.0
  9
$USERR2
 40
0.0
  9
$USERR3
 40
0.0
  9
$USERR4
 40
0.0
  9
$USERR5
 40
0.0
  9
$WORLDVIEW
 70
     1
  9
$SHADEDGE
 70
     3
  9
$SHADEDIF
 70
    70
  9
$TILEMODE
 70
     1
  9
$MAXACTVP
 70
    48
  9
$PINSBASE
 10
0.0
 20
0.0
 30
0.0
  9
$PLIMCHECK
 70
     0
  9
$PEXTMIN
 10
1.000000E+20
 20
1.000000E+20
 30
1.000000E+20
  9
$PEXTMAX
 10
-1.000000E+20
 20
-1.000000E+20
 30
-1.000000E+20
  9
$PLIMMIN
 10
0.0
 20
0.0
  9
$PLIMMAX
 10
420.0
 20
297.0
  9
$UNITMODE
 70
     0
  9
$VISRETAIN
 70
     1
  9
$PLINEGEN
 70
     0
  9
$PSLTSCALE
 70
     1
  9
$TREEDEPTH
 70
  3020
  9
$CMLSTYLE
  2
STANDARD
  9
$CMLJUST
 70
     0
  9
$CMLSCALE
 40
1.0
  9
$PROXYGRAPHICS
 70
     1
  9
$MEASUREMENT
 70
     1
  9
$CELWEIGHT
370
    -1
  9
$ENDCAPS
280
     0
  9
$JOINSTYLE
280
     0
  9
$LWDISPLAY
290
     0
  9
$INSUNITS
 70
     0
  9
$HYPERLINKBASE
  1

  9
$XEDIT
290
     1
  9
$CEPSNTYPE
380
     0
  9
$PSTYLEMODE
290
     1
  9
$FINGERPRINTGUID
  2
{36D983B9-5386-4704-BA9A-0C14BD99DD58}
  9
$VERSIONGUID
  2
{3F85AB15-2466-46FC-BD03-12FA635FB9C7}
  9
$EXTNAMES
290
     1
  9
$PSVPSCALE
 40
0.0
  0
ENDSEC
  0
SECTION
  2
CLASSES
  0
CLASS
  1
DICTIONARYVAR
  2
AcDbDictionaryVar
  3
ObjectDBX Classes
 90
        0
280
     0
281
     0
  0
CLASS
  1
LWPOLYLINE
  2
AcDbPolyline
  3
ObjectDBX Classes
 90
        0
280
     0
281
     1
  0
CLASS
  1
ACDBDICTIONARYWDFLT
  2
AcDbDictionaryWithDefault
  3
ObjectDBX Classes
 90
        0
280
     0
281
     0
  0
CLASS
  1
TABLESTYLE
  2
AcDbTableStyle
  3
ObjectDBX Classes
 90
     2047
280
     0
281
     0
  0
CLASS
  1
SORTENTSTABLE
  2
AcDbSortentsTable
  3
ObjectDBX Classes
 90
        0
280
     0
281
     0
  0
CLASS
  1
ACDBPLACEHOLDER
  2
AcDbPlaceHolder
  3
ObjectDBX Classes
 90
        0
280
     0
281
     0
  0
CLASS
  1
LAYOUT
  2
AcDbLayout
  3
ObjectDBX Classes
 90
        0
280
     0
281
     0
  0
CLASS
  1
IMAGE
  2
AcDbRasterImage
  3
ISM
 90
    32895
280
     0
281
     1
  0
CLASS
  1
OLE2FRAME
  2
AcDbOle2Frame
  3
AutoCAD 2000
 90
    32768
280
     0
281
     1
  0
CLASS
  1
HATCH
  2
AcDbHatch
  3
AutoCAD 2000
 90
    32768
280
     0
281
     1
  0
CLASS
  1
RASTERVARIABLES
  2
AcDbRasterVariables
  3
ISM
 90
    32768
280
     0
281
     0
  0
CLASS
  1
IMAGEDEF
  2
AcDbRasterImageDef
  3
ISM
 90
    32768
280
     0
281
     0
  0
CLASS
  1
IMAGEDEF_REACTOR
  2
AcDbRasterImageDefReactor
  3
ISM
 90
    32769
280
     0
281
     0
  0
CLASS
  1
IDBUFFER
  2
AcDbIdBuffer
  3
AutoCAD 2000
 90
    32768
280
     0
281
     0
  0
CLASS
  1
SPATIAL_FILTER
  2
AcDbSpatialFilter
  3
AutoCAD 2000
 90
    32768
280
     0
281
     0
  0
CLASS
  1
XRECORD
  2
AcDbXrecord
  3
AutoCAD 2000
 90
    32768
280
     0
281
     0
  0
CLASS
  1
LAYER_INDEX
  2
AcDbLayerIndex
  3
AutoCAD 2000
 90
    32768
280
     0
281
     0
  0
CLASS
  1
SPATIAL_INDEX
  2
AcDbSpatialIndex
  3
AutoCAD 2000
 90
    32768
280
     0
281
     0
  0
CLASS
  1
OBJECT_PTR
  2
CAseDLPNTableRecord
  3
"ASE-LPNTableRecord"
 90
    32769
280
     0
281
     0
  0
CLASS
  1
PLOTSETTINGS
  2
AcDbPlotSettings
  3
AutoCAD 2000
 90
    32768
280
     0
281
     0
  0
CLASS
  1
VBA_PROJECT
  2
AcDbVbaProject
  3
acadvba
 90
    32768
280
     0
281
     0
  0
CLASS
  1
RTEXT
  2
RText
  3
RText|AutoCAD Express Tool|expresstools@autodesk.com
 90
    32768
280
     0
281
     1
  0
CLASS
  1
ARCALIGNEDTEXT
  2
AcDbArcAlignedText
  3
ATEXT|AutoCAD Express Tool|expresstools@autodesk.com
 90
    32768
280
     0
281
     1
  0
ENDSEC
  0
SECTION
  2
TABLES
  0
TABLE
  2
VPORT
  5
8
100
AcDbSymbolTable
 70
     1
  0
VPORT
  5
F8B
100
AcDbSymbolTableRecord
100
AcDbViewportTableRecord
  2
*Active
 70
    64
 10
0.0
 20
0.0
 11
1.0
 21
1.0
 12
285.002125
 22
198.041861
 13
0.0
 23
0.0
 14
13.0
 24
13.0
 15
13.0
 25
13.0
 16
0.0
 26
0.0
 36
1.0
 17
0.0
 27
0.0
 37
0.0
 40
398.946902
 41
1.639013
 42
50.0
 43
0.0
 44
0.0
 50
0.0
 51
0.0
 71
     0
 72
   100
 73
     1
 74
     0
 75
     0
 76
     0
 77
     0
 78
     0
281
     0
 65
     1
110
0.0
120
0.0
130
0.0
111
1.0
121
0.0
131
0.0
112
0.0
122
1.0
132
0.0
345
0
346
0
 79
     0
146
0.0
  0
ENDTAB
  0
TABLE
  2
LTYPE
  5
5
100
AcDbSymbolTable
 70
     5
  0
LTYPE
  5
14
100
AcDbSymbolTableRecord
100
AcDbLinetypeTableRecord
  2
ByBlock
 70
    64
  3

 72
    65
 73
     0
 40
0.0
  0
LTYPE
  5
15
100
AcDbSymbolTableRecord
100
AcDbLinetypeTableRecord
  2
ByLayer
 70
    64
  3

 72
    65
 73
     0
 40
0.0
  0
LTYPE
  5
16
100
AcDbSymbolTableRecord
100
AcDbLinetypeTableRecord
  2
CONTINUOUS
 70
    64
  3
Solid line
 72
    65
 73
     0
 40
0.0
  0
LTYPE
  5
126
100
AcDbSymbolTableRecord
100
AcDbLinetypeTableRecord
  2
HIDDEN2
 70
    64
  3
Hidden (.5x) _ _ _ _ _ _ _ _ _ _ _ _ _ _ _ _ _
 72
    65
 73
     2
 40
4.7625
 49
3.175
 74
     0
 49
-1.5875
 74
     0
  0
LTYPE
  5
127
100
AcDbSymbolTableRecord
100
AcDbLinetypeTableRecord
  2
DASHED2
 70
    64
  3
Dashed (.5x) _ _ _ _ _ _ _ _ _ _ _ _ _ _ _ _ _
 72
    65
 73
     2
 40
9.525
 49
6.35
 74
     0
 49
-3.175
 74
     0
  0
ENDTAB
  0
TABLE
  2
LAYER
  5
2
100
AcDbSymbolTable
 70
     6
  0
LAYER
  5
F
100
AcDbSymbolTableRecord
100
AcDbLayerTableRecord
  2
0
 70
    64
 62
     7
  6
CONTINUOUS
290
     1
370
    -3
390
C0C
  0
LAYER
  5
128
100
AcDbSymbolTableRecord
100
AcDbLayerTableRecord
  2
STRINGA
 70
    64
 62
     7
  6
CONTINUOUS
290
     1
370
    -3
390
C0C
  0
LAYER
  5
129
100
AcDbSymbolTableRecord
100
AcDbLayerTableRecord
  2
WAKU
 70
    64
 62
     4
  6
CONTINUOUS
290
     1
370
    -3
390
C0C
  0
LAYER
  5
12A
100
AcDbSymbolTableRecord
100
AcDbLayerTableRecord
  2
PANEL
 70
    64
 62
     6
  6
CONTINUOUS
290
     1
370
    -3
390
C0C
  0
LAYER
  5
12B
100
AcDbSymbolTableRecord
100
AcDbLayerTableRecord
  2
SUNPOU
 70
    64
 62
     3
  6
CONTINUOUS
290
     1
370
    -3
390
C0C
  0
LAYER
  5
2C2
100
AcDbSymbolTableRecord
100
AcDbLayerTableRecord
  2
DEFPOINTS
 70
    64
 62
     7
  6
CONTINUOUS
290
     0
370
    -3
390
C0C
  0
ENDTAB
  0
TABLE
  2
STYLE
  5
3
100
AcDbSymbolTable
 70
     1
  0
STYLE
  5
10
100
AcDbSymbolTableRecord
100
AcDbTextStyleTableRecord
  2
STANDARD
 70
    64
 40
6.0
 41
1.0
 50
0.0
 71
     0
 42
5.0
  3
txt.shx
  4
bigfont.shx
  0
ENDTAB
  0
TABLE
  2
VIEW
  5
6
100
AcDbSymbolTable
 70
     0
  0
ENDTAB
  0
TABLE
  2
UCS
  5
7
100
AcDbSymbolTable
 70
     0
  0
ENDTAB
  0
TABLE
  2
APPID
  5
9
100
AcDbSymbolTable
 70
     2
  0
APPID
  5
11
100
AcDbSymbolTableRecord
100
AcDbRegAppTableRecord
  2
ACAD
 70
    64
  0
APPID
  5
C20
100
AcDbSymbolTableRecord
100
AcDbRegAppTableRecord
  2
ACAD_PSEXT
 70
    64
  0
ENDTAB
  0
TABLE
  2
DIMSTYLE
  5
A
100
AcDbSymbolTable
 70
     1
100
AcDbDimStyleTable
 71
     0
  0
DIMSTYLE
105
1D
100
AcDbSymbolTableRecord
100
AcDbDimStyleTableRecord
  2
STANDARD
 70
    64
  3

  4

 40
1.0
 41
2.5
 42
0.625
 43
3.75
 44
1.25
 45
0.0
 46
0.0
 47
0.0
 48
0.0
 71
     0
 72
     0
 73
     0
 74
     0
 75
     0
 76
     0
 77
     1
 78
     8
 79
     0
140
2.5
141
2.5
142
0.0
143
0.0394
144
1.0
145
0.0
146
1.0
147
0.625
148
0.0
170
     0
171
     4
172
     1
173
     0
174
     0
175
     0
176
     0
177
     0
178
     0
179
     0
271
     4
272
     4
273
     8
274
     4
275
     0
276
     0
277
     6
278
    46
279
     0
280
     0
281
     0
282
     0
283
     1
284
     0
285
     0
286
     0
288
     0
340
10
341
0
342
0
343
0
344
0
371
    -2
372
    -2
  0
ENDTAB
  0
TABLE
  2
BLOCK_RECORD
  5
1
100
AcDbSymbolTable
 70
     1
  0
BLOCK_RECORD
  5
1A
102
{ACAD_XDICTIONARY
360
D81
102
}
100
AcDbSymbolTableRecord
100
AcDbBlockTableRecord
  2
*MODEL_SPACE
340
C13
  0
BLOCK_RECORD
  5
17
100
AcDbSymbolTableRecord
100
AcDbBlockTableRecord
  2
*PAPER_SPACE
340
C14
  0
BLOCK_RECORD
  5
294
100
AcDbSymbolTableRecord
100
AcDbBlockTableRecord
  2
_NONE
340
0
  0
ENDTAB
  0
ENDSEC
  0
SECTION
  2
BLOCKS
  0
BLOCK
  5
1B
100
AcDbEntity
  8
0
100
AcDbBlockBegin
  2
*MODEL_SPACE
 70
    64
 10
0.0
 20
0.0
 30
0.0
  3
*MODEL_SPACE
  1

  0
ENDBLK
  5
1C
100
AcDbEntity
  8
0
100
AcDbBlockEnd
  0
BLOCK
  5
18
100
AcDbEntity
 67
     1
  8
0
100
AcDbBlockBegin
  2
*PAPER_SPACE
 70
    64
 10
0.0
 20
0.0
 30
0.0
  3
*PAPER_SPACE
  1

  0
ENDBLK
  5
19
100
AcDbEntity
 67
     1
  8
0
100
AcDbBlockEnd
  0
BLOCK
  5
295
100
AcDbEntity
  8
0
100
AcDbBlockBegin
  2
_NONE
 70
    64
 10
0.0
 20
0.0
 30
0.0
  3
_NONE
  1

  0
CIRCLE
  5
296
100
AcDbEntity
  8
0
  6
ByBlock
 62
     0
100
AcDbCircle
 10
0.0
 20
0.0
 30
0.0
 40
0.25
  0
ENDBLK
  5
297
100
AcDbEntity
  8
0
100
AcDbBlockEnd
  0
ENDSEC
  0
SECTION
  2
ENTITIES
  0
VIEWPORT
  5
22
102
{ACAD_XDICTIONARY
360
F8D
102
}
100
AcDbEntity
 67
     1
  8
0
100
AcDbViewport
 10
261.517699
 20
148.5
 30
0.0
 40
523.035398
 41
297.0
 68
     1
 69
     1
 12
261.517699
 22
148.5
 13
0.0
 23
0.0
 14
1.0
 24
1.0
 15
10.0
 25
10.0
 16
0.0
 26
0.0
 36
1.0
 17
0.0
 27
0.0
 37
0.0
 42
50.0
 43
0.0
 44
0.0
 45
297.0
 50
0.0
 51
0.0
 72
   100
 90
    32800
340
0
  1

281
     0
 71
     1
 74
     0
110
0.0
120
0.0
130
0.0
111
1.0
121
0.0
131
0.0
112
0.0
122
1.0
132
0.0
345
0
346
0
 79
     0
146
0.0
  0
LWPOLYLINE
  5
252
100
AcDbEntity
  8
WAKU
100
AcDbPolyline
 90
        4
 70
     1
 10
0.0
 20
0.0
 10
570.0
 20
0.0
 10
570.0
 20
396.0
 10
0.0
 20
396.0
  0
LINE
  5
4F9
100
AcDbEntity
  8
WAKU
100
AcDbLine
 10
5.0
 20
391.0
 30
0.0
 11
565.0
 21
391.0
 31
0.0
  0
LINE
  5
4FA
100
AcDbEntity
  8
WAKU
  6
CONTINUOUS
100
AcDbLine
 10
5.0
 20
5.0
 30
0.0
 11
565.0
 21
5.0
 31
0.0
  0
LINE
  5
4FB
100
AcDbEntity
  8
WAKU
  6
CONTINUOUS
100
AcDbLine
 10
5.0
 20
25.0
 30
0.0
 11
565.0
 21
25.0
 31
0.0
  0
LINE
  5
500
100
AcDbEntity
  8
WAKU
100
AcDbLine
 10
5.0
 20
5.0
 30
0.0
 11
5.0
 21
391.0
 31
0.0
  0
TEXT
  5
501
100
AcDbEntity
  8
WAKU
100
AcDbText
 10
15.0
 20
8.0
 30
0.0
 40
12.0
  1
ビルパネ　PS-8565
100
AcDbText
  0
LINE
  5
502
100
AcDbEntity
  8
WAKU
  6
CONTINUOUS
100
AcDbLine
 10
195.0
 20
5.0
 30
0.0
 11
195.0
 21
25.0
 31
0.0
  0
LINE
  5
543
100
AcDbEntity
  8
WAKU
100
AcDbLine
 10
565.0
 20
391.0
 30
0.0
 11
565.0
 21
5.0
 31
0.0
  0
LINE
  5
E84
100
AcDbEntity
  8
STRINGA
100
AcDbLine
 10
408.370666
 20
254.17801
 30
0.0
 11
408.070666
 21
254.47801
 31
0.0
  0
LINE
  5
E85
100
AcDbEntity
  8
STRINGA
100
AcDbLine
 10
408.070666
 20
254.47801
 30
0.0
 11
407.770666
 21
254.17801
 31
0.0
  0
LINE
  5
E86
100
AcDbEntity
  8
STRINGA
100
AcDbLine
 10
407.770666
 20
254.17801
 30
0.0
 11
391.370666
 21
254.17801
 31
0.0
  0
ARC
  5
E87
100
AcDbEntity
  8
STRINGA
100
AcDbCircle
 10
391.370666
 20
252.67801
 30
0.0
 40
1.5
100
AcDbArc
 50
90.0
 51
180.0
  0
LINE
  5
E88
100
AcDbEntity
  8
STRINGA
100
AcDbLine
 10
389.870666
 20
252.67801
 30
0.0
 11
389.870666
 21
237.97801
 31
0.0
  0
LINE
  5
E89
100
AcDbEntity
  8
STRINGA
100
AcDbLine
 10
389.870666
 20
237.97801
 30
0.0
 11
393.070666
 21
237.97801
 31
0.0
  0
LINE
  5
E8A
100
AcDbEntity
  8
STRINGA
100
AcDbLine
 10
393.070666
 20
237.97801
 30
0.0
 11
393.070666
 21
235.97801
 31
0.0
  0
LINE
  5
E8B
100
AcDbEntity
  8
STRINGA
100
AcDbLine
 10
393.070666
 20
235.97801
 30
0.0
 11
389.870666
 21
235.97801
 31
0.0
  0
LINE
  5
E8C
100
AcDbEntity
  8
STRINGA
100
AcDbLine
 10
389.870666
 20
235.97801
 30
0.0
 11
389.870666
 21
219.613032
 31
0.0
  0
LINE
  5
E8D
100
AcDbEntity
  8
STRINGA
  6
HIDDEN2
100
AcDbLine
 10
389.870666
 20
151.07083
 30
0.0
 11
390.270666
 21
149.57801
 31
0.0
  0
LINE
  5
E8E
100
AcDbEntity
  8
STRINGA
  6
HIDDEN2
100
AcDbLine
 10
390.270666
 20
149.57801
 30
0.0
 11
390.270666
 21
141.57801
 31
0.0
  0
LINE
  5
E8F
100
AcDbEntity
  8
STRINGA
  6
HIDDEN2
100
AcDbLine
 10
390.270666
 20
141.57801
 30
0.0
 11
388.070666
 21
141.57801
 31
0.0
  0
LINE
  5
E90
100
AcDbEntity
  8
STRINGA
  6
HIDDEN2
100
AcDbLine
 10
388.070666
 20
141.57801
 30
0.0
 11
388.070666
 21
219.613032
 31
0.0
  0
LINE
  5
E91
100
AcDbEntity
  8
STRINGA
100
AcDbLine
 10
388.070666
 20
255.97801
 30
0.0
 11
408.070666
 21
255.97801
 31
0.0
  0
LINE
  5
E92
100
AcDbEntity
  8
STRINGA
100
AcDbLine
 10
408.070666
 20
255.97801
 30
0.0
 11
428.070666
 21
255.97801
 31
0.0
  0
LINE
  5
E93
100
AcDbEntity
  8
STRINGA
100
AcDbLine
 10
428.070666
 20
255.97801
 30
0.0
 11
428.070666
 21
219.613032
 31
0.0
  0
LINE
  5
E94
100
AcDbEntity
  8
STRINGA
  6
HIDDEN2
100
AcDbLine
 10
428.070666
 20
141.57801
 30
0.0
 11
425.870666
 21
141.57801
 31
0.0
  0
LINE
  5
E95
100
AcDbEntity
  8
STRINGA
  6
HIDDEN2
100
AcDbLine
 10
425.870666
 20
141.57801
 30
0.0
 11
425.870666
 21
149.57801
 31
0.0
  0
LINE
  5
E96
100
AcDbEntity
  8
STRINGA
  6
HIDDEN2
100
AcDbLine
 10
425.870666
 20
149.57801
 30
0.0
 11
426.270666
 21
151.07083
 31
0.0
  0
LINE
  5
E97
100
AcDbEntity
  8
STRINGA
  6
HIDDEN2
100
AcDbLine
 10
426.270666
 20
151.07083
 30
0.0
 11
426.270666
 21
219.613032
 31
0.0
  0
LINE
  5
E98
100
AcDbEntity
  8
STRINGA
100
AcDbLine
 10
426.270666
 20
235.97801
 30
0.0
 11
423.070666
 21
235.97801
 31
0.0
  0
LINE
  5
E99
100
AcDbEntity
  8
STRINGA
100
AcDbLine
 10
423.070666
 20
235.97801
 30
0.0
 11
423.070666
 21
237.97801
 31
0.0
  0
LINE
  5
E9A
100
AcDbEntity
  8
STRINGA
100
AcDbLine
 10
423.070666
 20
237.97801
 30
0.0
 11
426.270666
 21
237.97801
 31
0.0
  0
LINE
  5
E9B
100
AcDbEntity
  8
STRINGA
100
AcDbLine
 10
426.270666
 20
237.97801
 30
0.0
 11
426.270666
 21
252.67801
 31
0.0
  0
ARC
  5
E9C
100
AcDbEntity
  8
STRINGA
100
AcDbCircle
 10
424.770666
 20
252.67801
 30
0.0
 40
1.5
100
AcDbArc
 50
0.0
 51
90.0
  0
LINE
  5
E9D
100
AcDbEntity
  8
STRINGA
100
AcDbLine
 10
424.770666
 20
254.17801
 30
0.0
 11
408.370666
 21
254.17801
 31
0.0
  0
LINE
  5
E9E
100
AcDbEntity
  8
STRINGA
100
AcDbLine
 10
223.138523
 20
65.601019
 30
0.0
 11
223.138523
 21
320.601019
 31
0.0
  0
LINE
  5
E9F
100
AcDbEntity
  8
STRINGA
100
AcDbLine
 10
196.360502
 20
309.792366
 30
0.0
 11
196.360502
 21
320.601019
 31
0.0
  0
ARC
  5
EA0
100
AcDbEntity
  8
STRINGA
100
AcDbCircle
 10
186.360502
 20
309.792366
 30
0.0
 40
10.0
100
AcDbArc
 50
270.0
 51
360.0
  0
LINE
  5
EA2
100
AcDbEntity
  8
STRINGA
100
AcDbLine
 10
154.044458
 20
305.82847
 30
0.0
 11
173.304548
 21
314.809597
 31
0.0
  0
ARC
  5
EA3
100
AcDbEntity
  8
STRINGA
100
AcDbCircle
 10
177.319421
 20
306.199673
 30
0.0
 40
9.5
100
AcDbArc
 50
25.0
 51
115.0
  0
LINE
  5
EA4
100
AcDbEntity
  8
STRINGA
100
AcDbLine
 10
114.845629
 20
287.549755
 30
0.0
 11
134.105703
 21
296.530875
 31
0.0
  0
ARC
  5
EA5
100
AcDbEntity
  8
STRINGA
100
AcDbCircle
 10
118.860502
 20
278.939831
 30
0.0
 40
9.5
100
AcDbArc
 50
115.0
 51
205.0
  0
LINE
  5
EA6
100
AcDbEntity
  8
STRINGA
100
AcDbLine
 10
110.250578
 20
274.924958
 30
0.0
 11
113.594715
 21
276.484354
 31
0.0
  0
LINE
  5
EA7
100
AcDbEntity
  8
STRINGA
100
AcDbLine
 10
182.384122
 20
308.561382
 30
0.0
 11
185.929345
 21
310.214546
 31
0.0
  0
LINE
  5
EA8
100
AcDbEntity
  8
STRINGA
100
AcDbLine
 10
153.560784
 20
304.499551
 30
0.0
 11
154.490545
 21
302.505674
 31
0.0
  0
ARC
  5
EA9
100
AcDbEntity
  8
STRINGA
100
AcDbCircle
 10
154.467092
 20
304.922169
 30
0.0
 40
1.0
100
AcDbArc
 50
115.0
 51
205.0
  0
LINE
  5
EAA
100
AcDbEntity
  8
STRINGA
100
AcDbLine
 10
155.819471
 20
302.021984
 30
0.0
 11
159.444702
 21
303.712457
 31
0.0
  0
ARC
  5
EAB
100
AcDbEntity
  8
STRINGA
100
AcDbCircle
 10
155.396852
 20
302.928292
 30
0.0
 40
1.0
100
AcDbArc
 50
205.0
 51
295.0
  0
LINE
  5
EAC
100
AcDbEntity
  8
STRINGA
100
AcDbLine
 10
152.018109
 20
297.159922
 30
0.0
 11
160.628033
 21
301.174796
 31
0.0
  0
ARC
  5
EAD
100
AcDbEntity
  8
STRINGA
100
AcDbCircle
 10
151.595491
 20
298.06623
 30
0.0
 40
1.0
100
AcDbArc
 50
205.0
 51
295.0
  0
LINE
  5
EAE
100
AcDbEntity
  8
STRINGA
100
AcDbLine
 10
143.046638
 20
296.28659
 30
0.0
 11
148.484485
 21
298.8223
 31
0.0
  0
ARC
  5
EAF
100
AcDbEntity
  8
STRINGA
100
AcDbCircle
 10
149.118412
 20
297.462838
 30
0.0
 40
1.5
100
AcDbArc
 50
25.0
 51
115.0
  0
ARC
  5
EB0
100
AcDbEntity
  8
STRINGA
100
AcDbCircle
 10
143.680565
 20
294.927128
 30
0.0
 40
1.5
100
AcDbArc
 50
115.0
 51
205.0
  0
LINE
  5
EB1
100
AcDbEntity
  8
STRINGA
100
AcDbLine
 10
133.438799
 20
288.496248
 30
0.0
 11
142.048723
 21
292.511121
 31
0.0
  0
ARC
  5
EB2
100
AcDbEntity
  8
STRINGA
100
AcDbCircle
 10
133.016181
 20
289.402555
 30
0.0
 40
1.0
100
AcDbArc
 50
205.0
 51
295.0
  0
LINE
  5
EB3
100
AcDbEntity
  8
STRINGA
100
AcDbLine
 10
132.255468
 20
291.033909
 30
0.0
 11
135.880699
 21
292.724383
 31
0.0
  0
LINE
  5
EB4
100
AcDbEntity
  8
STRINGA
100
AcDbLine
 10
135.434629
 20
296.047186
 30
0.0
 11
136.364389
 21
294.053309
 31
0.0
  0
ARC
  5
EB5
100
AcDbEntity
  8
STRINGA
100
AcDbCircle
 10
135.458081
 20
293.63069
 30
0.0
 40
1.0
100
AcDbArc
 50
295.0
 51
385.0
  0
ARC
  5
EB6
100
AcDbEntity
  8
STRINGA
100
AcDbCircle
 10
134.528321
 20
295.624567
 30
0.0
 40
1.0
100
AcDbArc
 50
25.0
 51
115.0
  0
ARC
  5
EB7
100
AcDbEntity
  8
STRINGA
100
AcDbCircle
 10
184.328166
 20
304.392366
 30
0.0
 40
4.6
100
AcDbArc
 50
115.0
 51
270.0
  0
LINE
  5
EB8
100
AcDbEntity
  8
STRINGA
100
AcDbLine
 10
171.360502
 20
271.409673
 30
0.0
 11
123.061542
 21
271.409673
 31
0.0
  0
ARC
  5
EB9
100
AcDbEntity
  8
STRINGA
100
AcDbCircle
 10
115.729421
 20
272.409673
 30
0.0
 40
4.6
100
AcDbArc
 50
15.257523
 51
117.649835
  0
ARC
  5
EBA
100
AcDbEntity
  8
STRINGA
100
AcDbCircle
 10
123.061542
 20
274.409673
 30
0.0
 40
3.0
100
AcDbArc
 50
195.257523
 51
270.0
  0
LINE
  5
EBB
100
AcDbEntity
  8
STRINGA
100
AcDbLine
 10
132.109873
 20
288.979937
 30
0.0
 11
131.771779
 21
289.704983
 31
0.0
  0
LINE
  5
EBC
100
AcDbEntity
  8
STRINGA
100
AcDbLine
 10
142.532413
 20
293.840047
 30
0.0
 11
142.321104
 21
294.293201
 31
0.0
  0
ARC
  5
EBD
100
AcDbEntity
  8
STRINGA
100
AcDbCircle
 10
141.626105
 20
293.417429
 30
0.0
 40
1.0
100
AcDbArc
 50
295.0
 51
385.0
  0
ARC
  5
EBE
100
AcDbEntity
  8
STRINGA
100
AcDbCircle
 10
132.678086
 20
290.127602
 30
0.0
 40
1.0
100
AcDbArc
 50
115.0
 51
205.0
  0
ARC
  5
EBF
100
AcDbEntity
  8
STRINGA
100
AcDbCircle
 10
160.205415
 20
302.081103
 30
0.0
 40
1.0
100
AcDbArc
 50
295.0
 51
385.0
  0
LINE
  5
EC0
100
AcDbEntity
  8
STRINGA
100
AcDbLine
 10
161.111722
 20
302.503722
 30
0.0
 11
160.773628
 21
303.228768
 31
0.0
  0
LINE
  5
EC1
100
AcDbEntity
  8
STRINGA
100
AcDbLine
 10
150.689183
 20
297.643612
 30
0.0
 11
150.477874
 21
298.096765
 31
0.0
  0
ARC
  5
EC2
100
AcDbEntity
  8
STRINGA
100
AcDbCircle
 10
159.86732
 20
302.80615
 30
0.0
 40
1.0
100
AcDbArc
 50
25.0
 51
115.0
  0
LINE
  5
EC3
100
AcDbEntity
  8
STRINGA
100
AcDbLine
 10
184.328166
 20
299.792366
 30
0.0
 11
186.360502
 21
299.792366
 31
0.0
  0
ARC
  5
EC4
100
AcDbEntity
  8
STRINGA
100
AcDbCircle
 10
171.360502
 20
246.409673
 30
0.0
 40
25.0
100
AcDbArc
 50
0.0
 51
90.0
  0
LINE
  5
EC5
100
AcDbEntity
  8
STRINGA
100
AcDbLine
 10
196.360502
 20
246.409673
 30
0.0
 11
196.360502
 21
224.792366
 31
0.0
  0
ARC
  5
EC6
100
AcDbEntity
  8
STRINGA
100
AcDbCircle
 10
186.360502
 20
224.792366
 30
0.0
 40
10.0
100
AcDbArc
 50
270.0
 51
360.0
  0
LINE
  5
EC7
100
AcDbEntity
  8
STRINGA
100
AcDbLine
 10
154.044458
 20
220.82847
 30
0.0
 11
173.304548
 21
229.809597
 31
0.0
  0
ARC
  5
EC8
100
AcDbEntity
  8
STRINGA
100
AcDbCircle
 10
177.319421
 20
221.199673
 30
0.0
 40
9.5
100
AcDbArc
 50
25.0
 51
115.0
  0
LINE
  5
EC9
100
AcDbEntity
  8
STRINGA
100
AcDbLine
 10
114.845629
 20
202.549755
 30
0.0
 11
134.105703
 21
211.530875
 31
0.0
  0
ARC
  5
ECA
100
AcDbEntity
  8
STRINGA
100
AcDbCircle
 10
118.860502
 20
193.939831
 30
0.0
 40
9.5
100
AcDbArc
 50
115.0
 51
205.0
  0
LINE
  5
ECB
100
AcDbEntity
  8
STRINGA
100
AcDbLine
 10
110.250578
 20
189.924958
 30
0.0
 11
113.594715
 21
191.484354
 31
0.0
  0
LINE
  5
ECC
100
AcDbEntity
  8
STRINGA
100
AcDbLine
 10
182.384122
 20
223.561382
 30
0.0
 11
185.929345
 21
225.214546
 31
0.0
  0
LINE
  5
ECD
100
AcDbEntity
  8
STRINGA
100
AcDbLine
 10
153.560784
 20
219.499551
 30
0.0
 11
154.490545
 21
217.505674
 31
0.0
  0
ARC
  5
ECE
100
AcDbEntity
  8
STRINGA
100
AcDbCircle
 10
154.467092
 20
219.922169
 30
0.0
 40
1.0
100
AcDbArc
 50
115.0
 51
205.0
  0
LINE
  5
ECF
100
AcDbEntity
  8
STRINGA
100
AcDbLine
 10
155.819471
 20
217.021984
 30
0.0
 11
159.444702
 21
218.712457
 31
0.0
  0
ARC
  5
ED0
100
AcDbEntity
  8
STRINGA
100
AcDbCircle
 10
155.396852
 20
217.928292
 30
0.0
 40
1.0
100
AcDbArc
 50
205.0
 51
295.0
  0
LINE
  5
ED1
100
AcDbEntity
  8
STRINGA
100
AcDbLine
 10
152.018109
 20
212.159922
 30
0.0
 11
160.628033
 21
216.174796
 31
0.0
  0
ARC
  5
ED2
100
AcDbEntity
  8
STRINGA
100
AcDbCircle
 10
151.595491
 20
213.06623
 30
0.0
 40
1.0
100
AcDbArc
 50
205.0
 51
295.0
  0
LINE
  5
ED3
100
AcDbEntity
  8
STRINGA
100
AcDbLine
 10
143.046638
 20
211.28659
 30
0.0
 11
148.484485
 21
213.8223
 31
0.0
  0
ARC
  5
ED4
100
AcDbEntity
  8
STRINGA
100
AcDbCircle
 10
149.118412
 20
212.462838
 30
0.0
 40
1.5
100
AcDbArc
 50
25.0
 51
115.0
  0
ARC
  5
ED5
100
AcDbEntity
  8
STRINGA
100
AcDbCircle
 10
143.680565
 20
209.927128
 30
0.0
 40
1.5
100
AcDbArc
 50
115.0
 51
205.0
  0
LINE
  5
ED6
100
AcDbEntity
  8
STRINGA
100
AcDbLine
 10
133.438799
 20
203.496248
 30
0.0
 11
142.048723
 21
207.511121
 31
0.0
  0
ARC
  5
ED7
100
AcDbEntity
  8
STRINGA
100
AcDbCircle
 10
133.016181
 20
204.402555
 30
0.0
 40
1.0
100
AcDbArc
 50
205.0
 51
295.0
  0
LINE
  5
ED8
100
AcDbEntity
  8
STRINGA
100
AcDbLine
 10
132.255468
 20
206.033909
 30
0.0
 11
135.880699
 21
207.724383
 31
0.0
  0
LINE
  5
ED9
100
AcDbEntity
  8
STRINGA
100
AcDbLine
 10
135.434629
 20
211.047186
 30
0.0
 11
136.364389
 21
209.053309
 31
0.0
  0
ARC
  5
EDA
100
AcDbEntity
  8
STRINGA
100
AcDbCircle
 10
135.458081
 20
208.63069
 30
0.0
 40
1.0
100
AcDbArc
 50
295.0
 51
385.0
  0
ARC
  5
EDB
100
AcDbEntity
  8
STRINGA
100
AcDbCircle
 10
134.528321
 20
210.624567
 30
0.0
 40
1.0
100
AcDbArc
 50
25.0
 51
115.0
  0
ARC
  5
EDC
100
AcDbEntity
  8
STRINGA
100
AcDbCircle
 10
184.328166
 20
219.392366
 30
0.0
 40
4.6
100
AcDbArc
 50
115.0
 51
270.0
  0
LINE
  5
EDD
100
AcDbEntity
  8
STRINGA
100
AcDbLine
 10
171.360502
 20
186.409673
 30
0.0
 11
123.061542
 21
186.409673
 31
0.0
  0
ARC
  5
EDE
100
AcDbEntity
  8
STRINGA
100
AcDbCircle
 10
115.729421
 20
187.409673
 30
0.0
 40
4.6
100
AcDbArc
 50
15.257523
 51
117.649835
  0
ARC
  5
EDF
100
AcDbEntity
  8
STRINGA
100
AcDbCircle
 10
123.061542
 20
189.409673
 30
0.0
 40
3.0
100
AcDbArc
 50
195.257523
 51
270.0
  0
LINE
  5
EE0
100
AcDbEntity
  8
STRINGA
100
AcDbLine
 10
132.109873
 20
203.979937
 30
0.0
 11
131.771779
 21
204.704983
 31
0.0
  0
LINE
  5
EE1
100
AcDbEntity
  8
STRINGA
100
AcDbLine
 10
142.532413
 20
208.840047
 30
0.0
 11
142.321104
 21
209.293201
 31
0.0
  0
ARC
  5
EE2
100
AcDbEntity
  8
STRINGA
100
AcDbCircle
 10
141.626105
 20
208.417429
 30
0.0
 40
1.0
100
AcDbArc
 50
295.0
 51
385.0
  0
ARC
  5
EE3
100
AcDbEntity
  8
STRINGA
100
AcDbCircle
 10
132.678086
 20
205.127602
 30
0.0
 40
1.0
100
AcDbArc
 50
115.0
 51
205.0
  0
ARC
  5
EE4
100
AcDbEntity
  8
STRINGA
100
AcDbCircle
 10
160.205415
 20
217.081103
 30
0.0
 40
1.0
100
AcDbArc
 50
295.0
 51
385.0
  0
LINE
  5
EE5
100
AcDbEntity
  8
STRINGA
100
AcDbLine
 10
161.111722
 20
217.503722
 30
0.0
 11
160.773628
 21
218.228768
 31
0.0
  0
LINE
  5
EE6
100
AcDbEntity
  8
STRINGA
100
AcDbLine
 10
150.689183
 20
212.643612
 30
0.0
 11
150.477874
 21
213.096765
 31
0.0
  0
ARC
  5
EE7
100
AcDbEntity
  8
STRINGA
100
AcDbCircle
 10
159.86732
 20
217.80615
 30
0.0
 40
1.0
100
AcDbArc
 50
25.0
 51
115.0
  0
LINE
  5
EE8
100
AcDbEntity
  8
STRINGA
100
AcDbLine
 10
184.328166
 20
214.792366
 30
0.0
 11
186.360502
 21
214.792366
 31
0.0
  0
ARC
  5
EE9
100
AcDbEntity
  8
STRINGA
100
AcDbCircle
 10
171.360502
 20
161.409673
 30
0.0
 40
25.0
100
AcDbArc
 50
0.0
 51
90.0
  0
LINE
  5
EEA
100
AcDbEntity
  8
STRINGA
100
AcDbLine
 10
196.360502
 20
161.409673
 30
0.0
 11
196.360502
 21
139.792366
 31
0.0
  0
ARC
  5
EEB
100
AcDbEntity
  8
STRINGA
100
AcDbCircle
 10
186.360502
 20
139.792366
 30
0.0
 40
10.0
100
AcDbArc
 50
270.0
 51
360.0
  0
LINE
  5
EEC
100
AcDbEntity
  8
STRINGA
100
AcDbLine
 10
154.044458
 20
135.82847
 30
0.0
 11
173.304548
 21
144.809597
 31
0.0
  0
ARC
  5
EED
100
AcDbEntity
  8
STRINGA
100
AcDbCircle
 10
177.319421
 20
136.199673
 30
0.0
 40
9.5
100
AcDbArc
 50
25.0
 51
115.0
  0
LINE
  5
EEE
100
AcDbEntity
  8
STRINGA
100
AcDbLine
 10
114.845629
 20
117.549755
 30
0.0
 11
134.105703
 21
126.530875
 31
0.0
  0
ARC
  5
EEF
100
AcDbEntity
  8
STRINGA
100
AcDbCircle
 10
118.860502
 20
108.939831
 30
0.0
 40
9.5
100
AcDbArc
 50
115.0
 51
205.0
  0
LINE
  5
EF0
100
AcDbEntity
  8
STRINGA
100
AcDbLine
 10
110.250578
 20
104.924958
 30
0.0
 11
113.594715
 21
106.484354
 31
0.0
  0
LINE
  5
EF1
100
AcDbEntity
  8
STRINGA
100
AcDbLine
 10
182.384122
 20
138.561382
 30
0.0
 11
185.929345
 21
140.214546
 31
0.0
  0
LINE
  5
EF2
100
AcDbEntity
  8
STRINGA
100
AcDbLine
 10
153.560784
 20
134.499551
 30
0.0
 11
154.490545
 21
132.505674
 31
0.0
  0
ARC
  5
EF3
100
AcDbEntity
  8
STRINGA
100
AcDbCircle
 10
154.467092
 20
134.922169
 30
0.0
 40
1.0
100
AcDbArc
 50
115.0
 51
205.0
  0
LINE
  5
EF4
100
AcDbEntity
  8
STRINGA
100
AcDbLine
 10
155.819471
 20
132.021984
 30
0.0
 11
159.444702
 21
133.712457
 31
0.0
  0
ARC
  5
EF5
100
AcDbEntity
  8
STRINGA
100
AcDbCircle
 10
155.396852
 20
132.928292
 30
0.0
 40
1.0
100
AcDbArc
 50
205.0
 51
295.0
  0
LINE
  5
EF6
100
AcDbEntity
  8
STRINGA
100
AcDbLine
 10
152.018109
 20
127.159922
 30
0.0
 11
160.628033
 21
131.174796
 31
0.0
  0
ARC
  5
EF7
100
AcDbEntity
  8
STRINGA
100
AcDbCircle
 10
151.595491
 20
128.06623
 30
0.0
 40
1.0
100
AcDbArc
 50
205.0
 51
295.0
  0
LINE
  5
EF8
100
AcDbEntity
  8
STRINGA
100
AcDbLine
 10
143.046638
 20
126.28659
 30
0.0
 11
148.484485
 21
128.8223
 31
0.0
  0
ARC
  5
EF9
100
AcDbEntity
  8
STRINGA
100
AcDbCircle
 10
149.118412
 20
127.462838
 30
0.0
 40
1.5
100
AcDbArc
 50
25.0
 51
115.0
  0
ARC
  5
EFA
100
AcDbEntity
  8
STRINGA
100
AcDbCircle
 10
143.680565
 20
124.927128
 30
0.0
 40
1.5
100
AcDbArc
 50
115.0
 51
205.0
  0
LINE
  5
EFB
100
AcDbEntity
  8
STRINGA
100
AcDbLine
 10
133.438799
 20
118.496248
 30
0.0
 11
142.048723
 21
122.511121
 31
0.0
  0
ARC
  5
EFC
100
AcDbEntity
  8
STRINGA
100
AcDbCircle
 10
133.016181
 20
119.402555
 30
0.0
 40
1.0
100
AcDbArc
 50
205.0
 51
295.0
  0
LINE
  5
EFD
100
AcDbEntity
  8
STRINGA
100
AcDbLine
 10
132.255468
 20
121.033909
 30
0.0
 11
135.880699
 21
122.724383
 31
0.0
  0
LINE
  5
EFE
100
AcDbEntity
  8
STRINGA
100
AcDbLine
 10
135.434629
 20
126.047186
 30
0.0
 11
136.364389
 21
124.053309
 31
0.0
  0
ARC
  5
EFF
100
AcDbEntity
  8
STRINGA
100
AcDbCircle
 10
135.458081
 20
123.63069
 30
0.0
 40
1.0
100
AcDbArc
 50
295.0
 51
385.0
  0
ARC
  5
F00
100
AcDbEntity
  8
STRINGA
100
AcDbCircle
 10
134.528321
 20
125.624567
 30
0.0
 40
1.0
100
AcDbArc
 50
25.0
 51
115.0
  0
ARC
  5
F01
100
AcDbEntity
  8
STRINGA
100
AcDbCircle
 10
184.328166
 20
134.392366
 30
0.0
 40
4.6
100
AcDbArc
 50
115.0
 51
270.0
  0
LINE
  5
F02
100
AcDbEntity
  8
STRINGA
100
AcDbLine
 10
171.360502
 20
101.409673
 30
0.0
 11
123.061542
 21
101.409673
 31
0.0
  0
ARC
  5
F03
100
AcDbEntity
  8
STRINGA
100
AcDbCircle
 10
115.729421
 20
102.409673
 30
0.0
 40
4.6
100
AcDbArc
 50
15.257523
 51
117.649835
  0
ARC
  5
F04
100
AcDbEntity
  8
STRINGA
100
AcDbCircle
 10
123.061542
 20
104.409673
 30
0.0
 40
3.0
100
AcDbArc
 50
195.257523
 51
270.0
  0
LINE
  5
F05
100
AcDbEntity
  8
STRINGA
100
AcDbLine
 10
132.109873
 20
118.979937
 30
0.0
 11
131.771779
 21
119.704983
 31
0.0
  0
LINE
  5
F06
100
AcDbEntity
  8
STRINGA
100
AcDbLine
 10
142.532413
 20
123.840047
 30
0.0
 11
142.321104
 21
124.293201
 31
0.0
  0
ARC
  5
F07
100
AcDbEntity
  8
STRINGA
100
AcDbCircle
 10
141.626105
 20
123.417429
 30
0.0
 40
1.0
100
AcDbArc
 50
295.0
 51
385.0
  0
ARC
  5
F08
100
AcDbEntity
  8
STRINGA
100
AcDbCircle
 10
132.678086
 20
120.127602
 30
0.0
 40
1.0
100
AcDbArc
 50
115.0
 51
205.0
  0
ARC
  5
F09
100
AcDbEntity
  8
STRINGA
100
AcDbCircle
 10
160.205415
 20
132.081103
 30
0.0
 40
1.0
100
AcDbArc
 50
295.0
 51
385.0
  0
LINE
  5
F0A
100
AcDbEntity
  8
STRINGA
100
AcDbLine
 10
161.111722
 20
132.503722
 30
0.0
 11
160.773628
 21
133.228768
 31
0.0
  0
LINE
  5
F0B
100
AcDbEntity
  8
STRINGA
100
AcDbLine
 10
150.689183
 20
127.643612
 30
0.0
 11
150.477874
 21
128.096765
 31
0.0
  0
ARC
  5
F0C
100
AcDbEntity
  8
STRINGA
100
AcDbCircle
 10
159.86732
 20
132.80615
 30
0.0
 40
1.0
100
AcDbArc
 50
25.0
 51
115.0
  0
LINE
  5
F0D
100
AcDbEntity
  8
STRINGA
100
AcDbLine
 10
184.328166
 20
129.792366
 30
0.0
 11
186.360502
 21
129.792366
 31
0.0
  0
ARC
  5
F0E
100
AcDbEntity
  8
STRINGA
100
AcDbCircle
 10
171.360502
 20
76.409673
 30
0.0
 40
25.0
100
AcDbArc
 50
0.0
 51
90.0
  0
LINE
  5
F0F
100
AcDbEntity
  8
STRINGA
100
AcDbLine
 10
196.360502
 20
76.409673
 30
0.0
 11
196.360502
 21
65.601019
 31
0.0
  0
ARC
  5
F15
100
AcDbEntity
  8
PANEL
100
AcDbCircle
 10
178.173545
 20
308.253024
 30
0.0
 40
8.6
100
AcDbArc
 50
355.0
 51
475.0
  0
LINE
  5
F16
100
AcDbEntity
  8
PANEL
100
AcDbLine
 10
174.539028
 20
316.047271
 30
0.0
 11
113.104006
 21
287.39965
 31
0.0
  0
ARC
  5
F17
100
AcDbEntity
  8
PANEL
100
AcDbCircle
 10
116.738523
 20
279.605403
 30
0.0
 40
8.6
100
AcDbArc
 50
115.0
 51
235.0
  0
LINE
  5
F18
100
AcDbEntity
  8
PANEL
100
AcDbLine
 10
111.805766
 20
272.560696
 30
0.0
 11
114.737979
 21
270.507538
 31
0.0
  0
LINE
  5
F19
100
AcDbEntity
  8
PANEL
100
AcDbLine
 10
114.737979
 20
270.507538
 30
0.0
 11
115.082125
 21
270.999029
 31
0.0
  0
LINE
  5
F1A
100
AcDbEntity
  8
PANEL
100
AcDbLine
 10
115.082125
 20
270.999029
 30
0.0
 11
112.149912
 21
273.052187
 31
0.0
  0
ARC
  5
F1B
100
AcDbEntity
  8
PANEL
100
AcDbCircle
 10
116.738523
 20
279.605403
 30
0.0
 40
8.0
100
AcDbArc
 50
115.0
 51
235.0
  0
LINE
  5
F1C
100
AcDbEntity
  8
PANEL
100
AcDbLine
 10
113.357577
 20
286.855865
 30
0.0
 11
174.792599
 21
315.503487
 31
0.0
  0
ARC
  5
F1D
100
AcDbEntity
  8
PANEL
100
AcDbCircle
 10
178.173545
 20
308.253024
 30
0.0
 40
8.0
100
AcDbArc
 50
355.0
 51
475.0
  0
LINE
  5
F1E
100
AcDbEntity
  8
PANEL
100
AcDbLine
 10
186.143103
 20
307.555779
 30
0.0
 11
185.831123
 21
303.989828
 31
0.0
  0
LINE
  5
F1F
100
AcDbEntity
  8
PANEL
100
AcDbLine
 10
185.831123
 20
303.989828
 30
0.0
 11
186.42884
 21
303.937535
 31
0.0
  0
LINE
  5
F20
100
AcDbEntity
  8
PANEL
100
AcDbLine
 10
186.42884
 20
303.937535
 30
0.0
 11
186.74082
 21
307.503485
 31
0.0
  0
ARC
  5
F21
100
AcDbEntity
  8
PANEL
100
AcDbCircle
 10
178.173545
 20
223.253024
 30
0.0
 40
8.6
100
AcDbArc
 50
355.0
 51
475.0
  0
LINE
  5
F22
100
AcDbEntity
  8
PANEL
100
AcDbLine
 10
174.539028
 20
231.047271
 30
0.0
 11
113.104006
 21
202.39965
 31
0.0
  0
ARC
  5
F23
100
AcDbEntity
  8
PANEL
100
AcDbCircle
 10
116.738523
 20
194.605403
 30
0.0
 40
8.6
100
AcDbArc
 50
115.0
 51
235.0
  0
LINE
  5
F24
100
AcDbEntity
  8
PANEL
100
AcDbLine
 10
111.805766
 20
187.560696
 30
0.0
 11
114.737979
 21
185.507538
 31
0.0
  0
LINE
  5
F25
100
AcDbEntity
  8
PANEL
100
AcDbLine
 10
114.737979
 20
185.507538
 30
0.0
 11
115.082125
 21
185.999029
 31
0.0
  0
LINE
  5
F26
100
AcDbEntity
  8
PANEL
100
AcDbLine
 10
115.082125
 20
185.999029
 30
0.0
 11
112.149912
 21
188.052187
 31
0.0
  0
ARC
  5
F27
100
AcDbEntity
  8
PANEL
100
AcDbCircle
 10
116.738523
 20
194.605403
 30
0.0
 40
8.0
100
AcDbArc
 50
115.0
 51
235.0
  0
LINE
  5
F28
100
AcDbEntity
  8
PANEL
100
AcDbLine
 10
113.357577
 20
201.855865
 30
0.0
 11
174.792599
 21
230.503487
 31
0.0
  0
ARC
  5
F29
100
AcDbEntity
  8
PANEL
100
AcDbCircle
 10
178.173545
 20
223.253024
 30
0.0
 40
8.0
100
AcDbArc
 50
355.0
 51
475.0
  0
LINE
  5
F2A
100
AcDbEntity
  8
PANEL
100
AcDbLine
 10
186.143103
 20
222.555779
 30
0.0
 11
185.831123
 21
218.989828
 31
0.0
  0
LINE
  5
F2B
100
AcDbEntity
  8
PANEL
100
AcDbLine
 10
185.831123
 20
218.989828
 30
0.0
 11
186.42884
 21
218.937535
 31
0.0
  0
LINE
  5
F2C
100
AcDbEntity
  8
PANEL
100
AcDbLine
 10
186.42884
 20
218.937535
 30
0.0
 11
186.74082
 21
222.503485
 31
0.0
  0
ARC
  5
F2D
100
AcDbEntity
  8
PANEL
100
AcDbCircle
 10
178.173545
 20
138.253024
 30
0.0
 40
8.6
100
AcDbArc
 50
355.0
 51
475.0
  0
LINE
  5
F2E
100
AcDbEntity
  8
PANEL
100
AcDbLine
 10
174.539028
 20
146.047271
 30
0.0
 11
113.104006
 21
117.39965
 31
0.0
  0
ARC
  5
F2F
100
AcDbEntity
  8
PANEL
100
AcDbCircle
 10
116.738523
 20
109.605403
 30
0.0
 40
8.6
100
AcDbArc
 50
115.0
 51
235.0
  0
LINE
  5
F30
100
AcDbEntity
  8
PANEL
100
AcDbLine
 10
111.805766
 20
102.560696
 30
0.0
 11
114.737979
 21
100.507538
 31
0.0
  0
LINE
  5
F31
100
AcDbEntity
  8
PANEL
100
AcDbLine
 10
114.737979
 20
100.507538
 30
0.0
 11
115.082125
 21
100.999029
 31
0.0
  0
LINE
  5
F32
100
AcDbEntity
  8
PANEL
100
AcDbLine
 10
115.082125
 20
100.999029
 30
0.0
 11
112.149912
 21
103.052187
 31
0.0
  0
ARC
  5
F33
100
AcDbEntity
  8
PANEL
100
AcDbCircle
 10
116.738523
 20
109.605403
 30
0.0
 40
8.0
100
AcDbArc
 50
115.0
 51
235.0
  0
LINE
  5
F34
100
AcDbEntity
  8
PANEL
100
AcDbLine
 10
113.357577
 20
116.855865
 30
0.0
 11
174.792599
 21
145.503487
 31
0.0
  0
ARC
  5
F35
100
AcDbEntity
  8
PANEL
100
AcDbCircle
 10
178.173545
 20
138.253024
 30
0.0
 40
8.0
100
AcDbArc
 50
355.0
 51
475.0
  0
LINE
  5
F36
100
AcDbEntity
  8
PANEL
100
AcDbLine
 10
186.143103
 20
137.555779
 30
0.0
 11
185.831123
 21
133.989828
 31
0.0
  0
LINE
  5
F37
100
AcDbEntity
  8
PANEL
100
AcDbLine
 10
185.831123
 20
133.989828
 30
0.0
 11
186.42884
 21
133.937535
 31
0.0
  0
LINE
  5
F38
100
AcDbEntity
  8
PANEL
100
AcDbLine
 10
186.42884
 20
133.937535
 30
0.0
 11
186.74082
 21
137.503485
 31
0.0
  0
LINE
  5
F44
100
AcDbEntity
  8
SUNPOU
100
AcDbLine
 10
388.070666
 20
256.60301
 30
0.0
 11
388.070666
 21
272.22801
 31
0.0
  0
LINE
  5
F45
100
AcDbEntity
  8
SUNPOU
100
AcDbLine
 10
428.070666
 20
256.60301
 30
0.0
 11
428.070666
 21
272.22801
 31
0.0
  0
LINE
  5
F46
100
AcDbEntity
  8
SUNPOU
100
AcDbLine
 10
388.070666
 20
270.97801
 30
0.0
 11
428.070666
 21
270.97801
 31
0.0
  0
MTEXT
  5
F47
100
AcDbEntity
  8
SUNPOU
100
AcDbMText
 10
408.070666
 20
274.60301
 30
0.0
 40
6.0
 41
0.0
 71
     5
 72
     5
  1
40
 73
     1
 44
1.0
1001
ACAD
1000
MTEXTBEGIN
1070
    73
1070
     1
1070
    44
1040
1.0
1070
    74
1070
     0
1000
MTEXTEND
  0
LINE
  5
F48
100
AcDbEntity
  8
SUNPOU
100
AcDbLine
 10
357.445666
 20
140.978004
 30
0.0
 11
341.820666
 21
140.978004
 31
0.0
  0
LINE
  5
F49
100
AcDbEntity
  8
SUNPOU
100
AcDbLine
 10
387.327105
 20
255.97801
 30
0.0
 11
341.820666
 21
255.97801
 31
0.0
  0
LINE
  5
F4A
100
AcDbEntity
  8
SUNPOU
100
AcDbLine
 10
343.070666
 20
140.978004
 30
0.0
 11
343.070666
 21
255.97801
 31
0.0
  0
MTEXT
  5
F4B
100
AcDbEntity
  8
SUNPOU
100
AcDbMText
 10
339.445666
 20
198.778007
 30
0.0
 40
6.0
 41
0.0
 71
     5
 72
     5
  1
115
 11
0.0
 21
1.0
 31
0.0
 73
     1
 44
1.0
1001
ACAD
1000
MTEXTBEGIN
1070
    73
1070
     1
1070
    44
1040
1.0
1070
    74
1070
     0
1000
MTEXTEND
  0
LINE
  5
F4C
100
AcDbEntity
  8
SUNPOU
100
AcDbLine
 10
388.070666
 20
140.95301
 30
0.0
 11
388.070666
 21
124.728004
 31
0.0
  0
LINE
  5
F4D
100
AcDbEntity
  8
SUNPOU
100
AcDbLine
 10
428.070666
 20
140.95301
 30
0.0
 11
428.070666
 21
124.728004
 31
0.0
  0
LINE
  5
F4E
100
AcDbEntity
  8
SUNPOU
100
AcDbLine
 10
388.070666
 20
125.978004
 30
0.0
 11
428.070666
 21
125.978004
 31
0.0
  0
MTEXT
  5
F4F
100
AcDbEntity
  8
SUNPOU
100
AcDbMText
 10
408.070666
 20
129.603004
 30
0.0
 40
6.0
 41
0.0
 71
     5
 72
     5
  1
40
 73
     1
 44
1.0
1001
ACAD
1000
MTEXTBEGIN
1070
    73
1070
     1
1070
    44
1040
1.0
1070
    74
1070
     0
1000
MTEXTEND
  0
LINE
  5
F50
100
AcDbEntity
  8
PANEL
  6
DASHED2
100
AcDbLine
 10
458.070666
 20
141.57801
 30
0.0
 11
358.070666
 21
141.57801
 31
0.0
  0
LINE
  5
F51
100
AcDbEntity
  8
PANEL
  6
CONTINUOUS
100
AcDbLine
 10
458.070666
 20
140.978004
 30
0.0
 11
358.070666
 21
140.978004
 31
0.0
  0
LINE
  5
F52
100
AcDbEntity
  8
PANEL
  6
CONTINUOUS
100
AcDbLine
 10
358.070666
 20
219.613032
 30
0.0
 11
458.070666
 21
219.613032
 31
0.0
  0
LINE
  5
F53
100
AcDbEntity
  8
PANEL
  6
DASHED2
100
AcDbLine
 10
358.070666
 20
219.013026
 30
0.0
 11
458.070666
 21
219.013026
 31
0.0
  0
LINE
  5
F5C
100
AcDbEntity
  8
STRINGA
  6
HIDDEN2
100
AcDbLine
 10
428.070666
 20
219.613032
 30
0.0
 11
428.070666
 21
141.57801
 31
0.0
  0
LINE
  5
F5D
100
AcDbEntity
  8
STRINGA
100
AcDbLine
 10
426.270666
 20
219.613032
 30
0.0
 11
426.270666
 21
235.97801
 31
0.0
  0
LINE
  5
F5E
100
AcDbEntity
  8
STRINGA
100
AcDbLine
 10
388.070666
 20
219.613032
 30
0.0
 11
388.070666
 21
255.97801
 31
0.0
  0
LINE
  5
F5F
100
AcDbEntity
  8
STRINGA
  6
HIDDEN2
100
AcDbLine
 10
389.870666
 20
219.613032
 30
0.0
 11
389.870666
 21
151.07083
 31
0.0
  0
LINE
  5
F6E
100
AcDbEntity
  8
SUNPOU
100
AcDbLine
 10
223.138523
 20
321.226019
 30
0.0
 11
223.138523
 21
344.193207
 31
0.0
  0
LINE
  5
F6F
100
AcDbEntity
  8
SUNPOU
100
AcDbLine
 10
223.138523
 20
342.943207
 30
0.0
 11
108.138523
 21
342.943207
 31
0.0
  0
MTEXT
  5
F70
100
AcDbEntity
  8
SUNPOU
100
AcDbMText
 10
165.638523
 20
346.568207
 30
0.0
 40
6.0
 41
0.0
 71
     5
 72
     5
  1
115
 73
     1
 44
1.0
1001
ACAD
1000
MTEXTBEGIN
1070
    73
1070
     1
1070
    44
1040
1.0
1070
    74
1070
     0
1000
MTEXTEND
  0
LINE
  5
F71
100
AcDbEntity
  8
SUNPOU
100
AcDbLine
 10
108.138523
 20
280.752088
 30
0.0
 11
108.138523
 21
344.193207
 31
0.0
  0
MTEXT
  5
F74
100
AcDbEntity
  8
SUNPOU
100
AcDbMText
 10
126.283016
 20
311.083519
 30
0.0
 40
6.0
 41
0.0
 71
     5
 72
     5
  1
65
 73
     1
 44
1.0
1001
ACAD
1000
MTEXTBEGIN
1070
    73
1070
     1
1070
    44
1040
1.0
1070
    74
1070
     0
1000
MTEXTEND
  0
LINE
  5
F75
100
AcDbEntity
  8
SUNPOU
100
AcDbLine
 10
114.112979
 20
185.507538
 30
0.0
 11
72.539722
 21
185.507538
 31
0.0
  0
LINE
  5
F77
100
AcDbEntity
  8
SUNPOU
100
AcDbLine
 10
73.789722
 20
270.507538
 30
0.0
 11
73.789722
 21
185.507538
 31
0.0
  0
MTEXT
  5
F78
100
AcDbEntity
  8
SUNPOU
100
AcDbMText
 10
70.164722
 20
228.007538
 30
0.0
 40
6.0
 41
0.0
 71
     5
 72
     5
  1
85
 11
0.0
 21
1.0
 31
0.0
 73
     1
 44
1.0
1001
ACAD
1000
MTEXTBEGIN
1070
    73
1070
     1
1070
    44
1040
1.0
1070
    74
1070
     0
1000
MTEXTEND
  0
LINE
  5
F79
100
AcDbEntity
  8
SUNPOU
100
AcDbLine
 10
175.489385
 20
316.853024
 30
0.0
 11
72.539722
 21
316.853024
 31
0.0
  0
LINE
  5
F7A
100
AcDbEntity
  8
SUNPOU
100
AcDbLine
 10
73.789722
 20
316.853024
 30
0.0
 11
73.789722
 21
270.507538
 31
0.0
  0
MTEXT
  5
F7B
100
AcDbEntity
  8
SUNPOU
100
AcDbMText
 10
70.164722
 20
293.680281
 30
0.0
 40
6.0
 41
0.0
 71
     5
 72
     5
  1
46
 11
0.0
 21
1.0
 31
0.0
 73
     1
 44
1.0
1001
ACAD
1000
MTEXTBEGIN
1070
    73
1070
     1
1070
    44
1040
1.0
1070
    74
1070
     0
1000
MTEXTEND
  0
LINE
  5
F7D
100
AcDbEntity
  8
SUNPOU
100
AcDbLine
 10
114.112979
 20
270.507538
 30
0.0
 11
72.539722
 21
270.507538
 31
0.0
  0
ARC
  5
F7F
100
AcDbEntity
  8
SUNPOU
100
AcDbCircle
 10
108.138523
 20
285.084207
 30
0.0
 40
25.165446
100
AcDbArc
 50
25.0
 51
90.0
  0
ENDSEC
  0
SECTION
  2
OBJECTS
  0
DICTIONARY
  5
C
100
AcDbDictionary
280
     0
281
     1
  3
ACAD_COLOR
350
C0E
  3
ACAD_GROUP
350
D
  3
ACAD_LAYOUT
350
C11
  3
ACAD_MATERIAL
350
C0D
  3
ACAD_MLINESTYLE
350
E
  3
ACAD_PLOTSETTINGS
350
C12
  3
ACAD_PLOTSTYLENAME
350
C0B
  3
ACAD_TABLESTYLE
350
C0F
  3
ACDBHEADERROUNDTRIPXREC
350
F8C
  3
ACDBVARIABLEDICTIONARY
350
5D
  0
DICTIONARY
  5
D
102
{ACAD_REACTORS
330
C
102
}
100
AcDbDictionary
280
     0
281
     1
  0
DICTIONARY
  5
E
102
{ACAD_REACTORS
330
C
102
}
100
AcDbDictionary
280
     0
281
     1
  3
STANDARD
350
13
  0
MLINESTYLE
  5
13
102
{ACAD_REACTORS
330
E
102
}
100
AcDbMlineStyle
  2
STANDARD
 70
     0
  3

 62
     0
 51
90.0
 52
90.0
 71
     2
 49
0.5
 62
   256
  6
ByLayer
 49
-0.5
 62
   256
  6
ByLayer
  0
DICTIONARY
  5
5D
102
{ACAD_REACTORS
330
C
102
}
100
AcDbDictionary
280
     0
281
     1
  3
CTABLESTYLE
350
D98
  3
DIMADEC
350
5E
  3
DIMASSOC
350
F93
  3
PROJECTNAME
350
F94
  0
DICTIONARYVAR
  5
5E
102
{ACAD_REACTORS
330
5D
102
}
100
DictionaryVariables
280
     0
  1
0
  0
ACDBDICTIONARYWDFLT
  5
C0B
102
{ACAD_REACTORS
330
C
102
}
100
AcDbDictionary
281
     1
  3
Normal
350
C0C
100
AcDbDictionaryWithDefault
340
C0C
  0
ACDBPLACEHOLDER
  5
C0C
102
{ACAD_REACTORS
330
C0B
102
}
  0
DICTIONARY
  5
C0D
102
{ACAD_REACTORS
330
C
102
}
100
AcDbDictionary
280
     0
281
     1
  0
DICTIONARY
  5
C0E
102
{ACAD_REACTORS
330
C
102
}
100
AcDbDictionary
280
     0
281
     1
  0
DICTIONARY
  5
C0F
102
{ACAD_REACTORS
330
C
102
}
100
AcDbDictionary
280
     0
281
     1
  3
Standard
350
C10
  0
ACAD_PROXY_OBJECT
  5
C10
102
{ACAD_REACTORS
330
C0F
102
}
330
C0F
100
AcDbProxyObject
 90
      499
 91
      503
 95
        0
 70
     0
 93
     1841
310
4214DD185B99185C9928000000000000F83F0000000000003E0FC00000000000004901028000000C1008070000C3001FDFF8000000C1003FBFF000000182007F7FE00000030400FEFFC00000060801FDFF8000000C1003FBFF000000182000000000000000C2020B0000001820100E000186003FBFF000000182007F7FE000
310
00030400FEFFC00000060801FDFF8000000C1003FBFF000000182007F7FE0000003040000000000000012404160000003040201C00030C007F7FE00000030400FEFFC00000060801FDFF8000000C1003FBFF000000182007F7FE00000030400FEFFC000000608000
340
10
340
10
340
10
 94
        0
  0
DICTIONARY
  5
C11
102
{ACAD_REACTORS
330
C
102
}
100
AcDbDictionary
280
     0
281
     1
  3
Model
350
C13
  3
レイアウト1
350
C14
  0
DICTIONARY
  5
C12
102
{ACAD_REACTORS
330
C
102
}
100
AcDbDictionary
280
     0
281
     1
  0
LAYOUT
  5
C13
102
{ACAD_XDICTIONARY
360
F8F
102
}
102
{ACAD_REACTORS
330
C11
102
}
100
AcDbPlotSettings
  1

  2
HP DesignJet 430 (D/A1) by HP
  4

  6

 40
0.0
 41
0.0
 42
0.0
 43
0.0
 44
0.0
 45
0.0
 46
0.0
 47
0.0
 48
0.0
 49
0.0
140
0.0
141
0.0
142
1.0
143
1.0
 70
  1712
 72
     0
 73
     0
 74
     0
  7

 75
     0
147
1.0
148
0.0
149
0.0
100
AcDbLayout
  1
Model
 70
     1
 71
     0
 10
0.0
 20
0.0
 11
12.0
 21
9.0
 12
0.0
 22
0.0
 32
0.0
 14
0.0
 24
0.0
 34
0.0
 15
0.0
 25
0.0
 35
0.0
146
0.0
 13
0.0
 23
0.0
 33
0.0
 16
1.0
 26
0.0
 36
0.0
 17
0.0
 27
1.0
 37
0.0
 76
     0
330
1A
331
0
345
0
346
0
  0
LAYOUT
  5
C14
102
{ACAD_XDICTIONARY
360
F91
102
}
102
{ACAD_REACTORS
330
C11
102
}
100
AcDbPlotSettings
  1

  2
HP DesignJet 430 (D/A1) by HP
  4

  6

 40
0.0
 41
0.0
 42
0.0
 43
0.0
 44
0.0
 45
0.0
 46
0.0
 47
0.0
 48
0.0
 49
0.0
140
0.0
141
0.0
142
1.0
143
1.0
 70
   688
 72
     0
 73
     0
 74
     5
  7

 75
    16
147
1.0
148
0.0
149
0.0
100
AcDbLayout
  1
レイアウト1
 70
     1
 71
     1
 10
0.0
 20
0.0
 11
420.0
 21
297.0
 12
0.0
 22
0.0
 32
0.0
 14
1.000000E+20
 24
1.000000E+20
 34
1.000000E+20
 15
-1.000000E+20
 25
-1.000000E+20
 35
-1.000000E+20
146
0.0
 13
0.0
 23
0.0
 33
0.0
 16
1.0
 26
0.0
 36
0.0
 17
0.0
 27
1.0
 37
0.0
 76
     0
330
17
331
22
345
0
346
0
  0
DICTIONARY
  5
C21
100
AcDbDictionary
280
     1
281
     1
  3
ACAD_LAYERSTATES
350
C22
  0
DICTIONARY
  5
C22
102
{ACAD_REACTORS
330
C21
102
}
100
AcDbDictionary
280
     0
281
     1
  0
DICTIONARY
  5
D81
100
AcDbDictionary
280
     1
281
     1
  3
ACAD_SORTENTS
350
D82
  0
SORTENTSTABLE
  5
D82
102
{ACAD_REACTORS
330
D81
102
}
100
AcDbSortentsTable
330
1A
331
F4A
  5
F4E
331
F30
  5
F34
331
EBD
  5
EC1
331
E9B
  5
E9F
331
0
  5
D8F
331
0
  5
CFD
331
0
  5
D1F
331
F1F
  5
F23
331
F7D
  5
F7D
331
ECE
  5
ED2
331
EAC
  5
EB0
331
E8A
  5
E8A
331
0
  5
D6B
331
EFD
  5
F01
331
0
  5
D0E
331
0
  5
CF2
331
F0E
  5
F12
331
0
  5
D52
331
0
  5
D30
331
EEC
  5
EF0
331
EDB
  5
EDF
331
F48
  5
F4C
331
EBB
  5
EBF
331
E99
  5
E9D
331
ED9
  5
EDD
331
0
  5
D1D
331
0
  5
CFB
331
F1D
  5
F21
331
F7B
  5
F7B
331
ECC
  5
ED0
331
EAA
  5
EAE
331
E88
  5
E88
331
0
  5
D69
331
EFB
  5
EFF
331
0
  5
D0C
331
0
  5
CF0
331
0
  5
D2E
331
EEA
  5
EEE
331
F2E
  5
F32
331
0
  5
D50
331
F0C
  5
F10
331
EB9
  5
EBD
331
ED7
  5
EDB
331
0
  5
D1B
331
0
  5
CF9
331
F1B
  5
F1F
331
F79
  5
F79
331
ECA
  5
ECE
331
EA8
  5
EAC
331
E86
  5
E86
331
0
  5
D5F
331
0
  5
D4B
331
EF9
  5
EFD
331
0
  5
D0A
331
0
  5
CEE
331
0
  5
D2C
331
EE8
  5
EEC
331
0
  5
D4E
331
F0A
  5
F0E
331
F2C
  5
F30
331
E97
  5
E9A
331
0
  5
D8D
331
4FB
  5
4FB
331
0
  5
CF7
331
0
  5
D19
331
F19
  5
F1D
331
F77
  5
F77
331
EC8
  5
ECC
331
EA6
  5
EAA
331
E84
  5
E84
331
0
  5
D85
331
0
  5
D5D
331
0
  5
D49
331
EF7
  5
EFB
331
0
  5
D08
331
0
  5
CEC
331
0
  5
D2A
331
EE6
  5
EEA
331
F08
  5
F0C
331
ED5
  5
ED9
331
F2A
  5
F2E
331
EB7
  5
EBB
331
E95
  5
E98
331
0
  5
D8A
331
4F9
  5
4F9
331
0
  5
CF5
331
EF5
  5
EF9
331
0
  5
D17
331
F17
  5
F1B
331
F53
  5
F5F
331
F75
  5
F75
331
EC6
  5
ECA
331
EA4
  5
EA8
331
0
  5
D92
331
0
  5
D83
331
0
  5
D5B
331
0
  5
D39
331
0
  5
D06
331
0
  5
CEA
331
0
  5
D28
331
F28
  5
F2C
331
EB5
  5
EB9
331
E93
  5
E95
331
0
  5
CE4
331
F06
  5
F0A
331
EE4
  5
EE8
331
ED3
  5
ED7
331
ED1
  5
ED5
331
0
  5
D15
331
F15
  5
F19
331
F37
  5
F3B
331
F51
  5
F5D
331
EC4
  5
EC8
331
EA2
  5
EA6
331
0
  5
D9E
331
0
  5
D73
331
0
  5
D59
331
0
  5
D37
331
EF3
  5
EF7
331
0
  5
D04
331
0
  5
CE8
331
0
  5
D26
331
F26
  5
F2A
331
EB3
  5
EB7
331
E91
  5
E93
331
0
  5
CE2
331
F04
  5
F08
331
EE2
  5
EE6
331
EF1
  5
EF5
331
0
  5
D35
331
F35
  5
F39
331
F4F
  5
F53
331
F71
  5
F6F
331
EC2
  5
EC6
331
EA0
  5
EA4
331
0
  5
D9D
331
0
  5
D71
331
0
  5
D57
331
EE0
  5
EE4
331
0
  5
D24
331
0
  5
D02
331
0
  5
CE6
331
F24
  5
F28
331
F02
  5
F06
331
EB1
  5
EB5
331
E8F
  5
E90
331
0
  5
D13
331
F46
  5
F4A
331
252
  5
252
331
0
  5
D55
331
F33
  5
F37
331
F4D
  5
F51
331
F6F
  5
F70
331
EC0
  5
EC4
331
E9E
  5
EA2
331
0
  5
D93
331
0
  5
D6F
331
EDE
  5
EE2
331
F22
  5
F26
331
F00
  5
F04
331
0
  5
D22
331
0
  5
D00
331
F5E
  5
E92
331
E8D
  5
E8E
331
0
  5
D11
331
EAF
  5
EB3
331
0
  5
D33
331
EEF
  5
EF3
331
F44
  5
F48
331
502
  5
502
331
F31
  5
F35
331
F4B
  5
F4F
331
EBE
  5
EC2
331
E9C
  5
EA0
331
0
  5
D6D
331
0
  5
CFE
331
0
  5
D20
331
F20
  5
F24
331
F5C
  5
E96
331
E8B
  5
E8B
331
0
  5
D6C
331
EFE
  5
F02
331
0
  5
F7E
331
ECF
  5
ED3
331
0
  5
D0F
331
0
  5
CF3
331
EAD
  5
EB1
331
F0F
  5
F13
331
0
  5
D53
331
0
  5
D31
331
EED
  5
EF1
331
EDC
  5
EE0
331
500
  5
500
331
F49
  5
F4D
331
EBC
  5
EC0
331
E9A
  5
E9E
331
0
  5
D8E
331
0
  5
CFC
331
0
  5
D1E
331
F1E
  5
F22
331
ECD
  5
ED1
331
EAB
  5
EAF
331
E89
  5
E89
331
0
  5
D6A
331
EFC
  5
F00
331
0
  5
D0D
331
0
  5
CF1
331
0
  5
D2F
331
EEB
  5
EEF
331
F2F
  5
F33
331
0
  5
D51
331
F0D
  5
F11
331
EDA
  5
EDE
331
EBA
  5
EBE
331
E98
  5
E9C
331
ED8
  5
EDC
331
0
  5
D1C
331
0
  5
CFA
331
F1C
  5
F20
331
F7A
  5
F7A
331
ECB
  5
ECF
331
EA9
  5
EAD
331
E87
  5
E87
331
0
  5
D60
331
0
  5
D4C
331
EFA
  5
EFE
331
0
  5
D0B
331
0
  5
CEF
331
0
  5
D2D
331
EE9
  5
EED
331
F2D
  5
F31
331
0
  5
D4F
331
F0B
  5
F0F
331
EB8
  5
EBC
331
0
  5
CF8
331
0
  5
D1A
331
F1A
  5
F1E
331
0
  5
D5E
331
0
  5
D4A
331
EF8
  5
EFC
331
ED6
  5
EDA
331
F78
  5
F78
331
EC9
  5
ECD
331
EA7
  5
EAB
331
E85
  5
E85
331
0
  5
D86
331
0
  5
D09
331
0
  5
CED
331
0
  5
D2B
331
EE7
  5
EEB
331
0
  5
D4D
331
F09
  5
F0D
331
543
  5
543
331
F2B
  5
F2F
331
E96
  5
E99
331
0
  5
D8C
331
4FA
  5
4FA
331
0
  5
CF6
331
0
  5
D18
331
F18
  5
F1C
331
EC7
  5
ECB
331
EA5
  5
EA9
331
0
  5
D84
331
0
  5
D5C
331
0
  5
D3A
331
EF6
  5
EFA
331
0
  5
D07
331
0
  5
CEB
331
0
  5
D29
331
F29
  5
F2D
331
EB6
  5
EBA
331
E94
  5
E97
331
0
  5
D88
331
F07
  5
F0B
331
EE5
  5
EE9
331
ED4
  5
ED8
331
ED2
  5
ED6
331
EF4
  5
EF8
331
0
  5
D16
331
0
  5
CF4
331
F16
  5
F1A
331
F38
  5
F3C
331
F52
  5
F5E
331
F74
  5
F74
331
EC5
  5
EC9
331
EA3
  5
EA7
331
0
  5
D9F
331
0
  5
D74
331
0
  5
D5A
331
0
  5
D38
331
0
  5
D05
331
0
  5
CE9
331
0
  5
D27
331
F27
  5
F2B
331
EB4
  5
EB8
331
E92
  5
E94
331
0
  5
CE3
331
F05
  5
F09
331
EE3
  5
EE7
331
ED0
  5
ED4
331
0
  5
D14
331
F36
  5
F3A
331
F50
  5
F5C
331
EC3
  5
EC7
331
0
  5
D72
331
0
  5
D58
331
0
  5
D36
331
EF2
  5
EF6
331
EE1
  5
EE5
331
0
  5
D25
331
0
  5
D03
331
0
  5
CE7
331
F47
  5
F4B
331
F25
  5
F29
331
EB2
  5
EB6
331
E90
  5
E91
331
F03
  5
F07
331
EF0
  5
EF4
331
F34
  5
F38
331
F4E
  5
F52
331
F70
  5
F71
331
EC1
  5
EC5
331
E9F
  5
EA3
331
0
  5
D9C
331
0
  5
D70
331
0
  5
D56
331
0
  5
D34
331
EDF
  5
EE3
331
F23
  5
F27
331
F01
  5
F05
331
0
  5
D23
331
0
  5
D01
331
0
  5
CE5
331
E8E
  5
E8F
331
F5F
  5
E8D
331
0
  5
D12
331
EB0
  5
EB4
331
F45
  5
F49
331
0
  5
D54
331
F32
  5
F36
331
F4C
  5
F50
331
F6E
  5
F6E
331
EBF
  5
EC3
331
E9D
  5
EA1
331
0
  5
D91
331
0
  5
D6E
331
0
  5
CFF
331
0
  5
D21
331
F21
  5
F25
331
EFF
  5
F03
331
EDD
  5
EE1
331
F5D
  5
E9B
331
F7F
  5
F7F
331
0
  5
D10
331
0
  5
D32
331
EEE
  5
EF2
331
EAE
  5
EB2
331
E8C
  5
E8C
331
501
  5
501
  0
DICTIONARYVAR
  5
D98
102
{ACAD_REACTORS
330
5D
102
}
100
DictionaryVariables
280
     0
  1
STANDARD
  0
DICTIONARY
  5
F8C
102
{ACAD_REACTORS
330
C
102
}
100
AcDbDictionary
280
     0
281
     1
  0
DICTIONARY
  5
F8D
100
AcDbDictionary
280
     1
281
     1
  3
ACAD_XREC_ROUNDTRIP
350
F8E
  0
XRECORD
  5
F8E
102
{ACAD_REACTORS
330
F8D
102
}
100
AcDbXrecord
280
     1
102
SHADEPLOT
 70
     0
  0
DICTIONARY
  5
F8F
100
AcDbDictionary
280
     1
281
     1
  3
ACAD_XREC_ROUNDTRIP
350
F90
  0
XRECORD
  5
F90
102
{ACAD_REACTORS
330
F8F
102
}
100
AcDbXrecord
280
     1
102
SHADEPLOT
 70
     0
102
SHADEPLOTRESLEVEL
 70
     2
102
SHADEPLOTCUSTOMDPI
 70
   300
  0
DICTIONARY
  5
F91
100
AcDbDictionary
280
     1
281
     1
  3
ACAD_XREC_ROUNDTRIP
350
F92
  0
XRECORD
  5
F92
102
{ACAD_REACTORS
330
F91
102
}
100
AcDbXrecord
280
     1
102
SHADEPLOT
 70
     0
102
SHADEPLOTRESLEVEL
 70
     2
102
SHADEPLOTCUSTOMDPI
 70
   300
  0
DICTIONARYVAR
  5
F93
102
{ACAD_REACTORS
330
5D
102
}
100
DictionaryVariables
280
     0
  1
1
  0
DICTIONARYVAR
  5
F94
102
{ACAD_REACTORS
330
5D
102
}
100
DictionaryVariables
280
     0
  1

  0
ENDSEC
  0
EOF
