  0
SECTION
  2
HEADER
  9
$ACADVER
  1
AC1015
  9
$ACADMAINTVER
 70
     6
  9
$DWGCODEPAGE
  3
DOS932
  9
$INSBASE
 10
0.0
 20
0.0
 30
0.0
  9
$EXTMIN
 10
0.0
 20
0.0
 30
0.0
  9
$EXTMAX
 10
570.0
 20
396.0
 30
0.0
  9
$LIMMIN
 10
0.0
 20
0.0
  9
$LIMMAX
 10
570.0
 20
396.0
  9
$ORTHOMODE
 70
     0
  9
$REGENMODE
 70
     1
  9
$FILLMODE
 70
     1
  9
$QTEXTMODE
 70
     0
  9
$MIRRTEXT
 70
     1
  9
$LTSCALE
 40
1.333333
  9
$ATTMODE
 70
     1
  9
$TEXTSIZE
 40
5.0
  9
$TRACEWID
 40
1.0
  9
$TEXTSTYLE
  7
STANDARD
  9
$CLAYER
  8
0
  9
$CELTYPE
  6
ByLayer
  9
$CECOLOR
 62
   256
  9
$CELTSCALE
 40
1.0
  9
$DISPSILH
 70
     0
  9
$DIMSCALE
 40
1.0
  9
$DIMASZ
 40
2.5
  9
$DIMEXO
 40
0.625
  9
$DIMDLI
 40
3.75
  9
$DIMRND
 40
0.0
  9
$DIMDLE
 40
0.0
  9
$DIMEXE
 40
1.25
  9
$DIMTP
 40
0.0
  9
$DIMTM
 40
0.0
  9
$DIMTXT
 40
6.0
  9
$DIMCEN
 40
2.5
  9
$DIMTSZ
 40
0.0
  9
$DIMTOL
 70
     0
  9
$DIMLIM
 70
     0
  9
$DIMTIH
 70
     0
  9
$DIMTOH
 70
     0
  9
$DIMSE1
 70
     0
  9
$DIMSE2
 70
     0
  9
$DIMTAD
 70
     1
  9
$DIMZIN
 70
     8
  9
$DIMBLK
  1

  9
$DIMASO
 70
     1
  9
$DIMSHO
 70
     1
  9
$DIMPOST
  1

  9
$DIMAPOST
  1

  9
$DIMALT
 70
     0
  9
$DIMALTD
 70
     4
  9
$DIMALTF
 40
0.0394
  9
$DIMLFAC
 40
1.0
  9
$DIMTOFL
 70
     1
  9
$DIMTVP
 40
0.0
  9
$DIMTIX
 70
     0
  9
$DIMSOXD
 70
     0
  9
$DIMSAH
 70
     1
  9
$DIMBLK1
  1
_NONE
  9
$DIMBLK2
  1
_NONE
  9
$DIMSTYLE
  2
STANDARD
  9
$DIMCLRD
 70
     0
  9
$DIMCLRE
 70
     0
  9
$DIMCLRT
 70
     0
  9
$DIMTFAC
 40
1.0
  9
$DIMGAP
 40
0.625
  9
$DIMJUST
 70
     0
  9
$DIMSD1
 70
     0
  9
$DIMSD2
 70
     0
  9
$DIMTOLJ
 70
     1
  9
$DIMTZIN
 70
     0
  9
$DIMALTZ
 70
     0
  9
$DIMALTTZ
 70
     0
  9
$DIMUPT
 70
     0
  9
$DIMDEC
 70
     4
  9
$DIMTDEC
 70
     4
  9
$DIMALTU
 70
     8
  9
$DIMALTTD
 70
     4
  9
$DIMTXSTY
  7
STANDARD
  9
$DIMAUNIT
 70
     0
  9
$DIMADEC
 70
     0
  9
$DIMALTRND
 40
0.0
  9
$DIMAZIN
 70
     0
  9
$DIMDSEP
 70
    46
  9
$DIMATFIT
 70
     3
  9
$DIMFRAC
 70
     0
  9
$DIMLDRBLK
  1

  9
$DIMLUNIT
 70
     6
  9
$DIMLWD
 70
    -2
  9
$DIMLWE
 70
    -2
  9
$DIMTMOVE
 70
     0
  9
$LUNITS
 70
     2
  9
$LUPREC
 70
     4
  9
$SKETCHINC
 40
1.0
  9
$FILLETRAD
 40
13.333333
  9
$AUNITS
 70
     0
  9
$AUPREC
 70
     0
  9
$MENU
  1
.
  9
$ELEVATION
 40
0.0
  9
$PELEVATION
 40
0.0
  9
$THICKNESS
 40
0.0
  9
$LIMCHECK
 70
     0
  9
$CHAMFERA
 40
13.333333
  9
$CHAMFERB
 40
13.333333
  9
$CHAMFERC
 40
26.666667
  9
$CHAMFERD
 40
0.0
  9
$SKPOLY
 70
     1
  9
$TDCREATE
 40
2451654.235702639
  9
$TDUCREATE
 40
0.000000000
  9
$TDUPDATE
 40
2455657.305793565
  9
$TDUUPDATE
 40
0.000000000
  9
$TDINDWG
 40
0.3239460301
  9
$TDUSRTIMER
 40
0.3239460301
  9
$USRTIMER
 70
     1
  9
$ANGBASE
 50
0.0
  9
$ANGDIR
 70
     0
  9
$PDMODE
 70
     0
  9
$PDSIZE
 40
0.0
  9
$PLINEWID
 40
0.0
  9
$SPLFRAME
 70
     0
  9
$SPLINETYPE
 70
     6
  9
$SPLINESEGS
 70
     8
  9
$HANDSEED
  5
DBE
  9
$SURFTAB1
 70
     6
  9
$SURFTAB2
 70
     6
  9
$SURFTYPE
 70
     6
  9
$SURFU
 70
     6
  9
$SURFV
 70
     6
  9
$UCSBASE
  2

  9
$UCSNAME
  2

  9
$UCSORG
 10
0.0
 20
0.0
 30
0.0
  9
$UCSXDIR
 10
1.0
 20
0.0
 30
0.0
  9
$UCSYDIR
 10
0.0
 20
1.0
 30
0.0
  9
$UCSORTHOREF
  2

  9
$UCSORTHOVIEW
 70
     0
  9
$UCSORGTOP
 10
0.0
 20
0.0
 30
0.0
  9
$UCSORGBOTTOM
 10
0.0
 20
0.0
 30
0.0
  9
$UCSORGLEFT
 10
0.0
 20
0.0
 30
0.0
  9
$UCSORGRIGHT
 10
0.0
 20
0.0
 30
0.0
  9
$UCSORGFRONT
 10
0.0
 20
0.0
 30
0.0
  9
$UCSORGBACK
 10
0.0
 20
0.0
 30
0.0
  9
$PUCSBASE
  2

  9
$PUCSNAME
  2

  9
$PUCSORG
 10
0.0
 20
0.0
 30
0.0
  9
$PUCSXDIR
 10
1.0
 20
0.0
 30
0.0
  9
$PUCSYDIR
 10
0.0
 20
1.0
 30
0.0
  9
$PUCSORTHOREF
  2

  9
$PUCSORTHOVIEW
 70
     0
  9
$PUCSORGTOP
 10
0.0
 20
0.0
 30
0.0
  9
$PUCSORGBOTTOM
 10
0.0
 20
0.0
 30
0.0
  9
$PUCSORGLEFT
 10
0.0
 20
0.0
 30
0.0
  9
$PUCSORGRIGHT
 10
0.0
 20
0.0
 30
0.0
  9
$PUCSORGFRONT
 10
0.0
 20
0.0
 30
0.0
  9
$PUCSORGBACK
 10
0.0
 20
0.0
 30
0.0
  9
$USERI1
 70
     0
  9
$USERI2
 70
     0
  9
$USERI3
 70
     0
  9
$USERI4
 70
     0
  9
$USERI5
 70
     0
  9
$USERR1
 40
0.0
  9
$USERR2
 40
0.0
  9
$USERR3
 40
0.0
  9
$USERR4
 40
0.0
  9
$USERR5
 40
0.0
  9
$WORLDVIEW
 70
     1
  9
$SHADEDGE
 70
     3
  9
$SHADEDIF
 70
    70
  9
$TILEMODE
 70
     1
  9
$MAXACTVP
 70
    48
  9
$PINSBASE
 10
0.0
 20
0.0
 30
0.0
  9
$PLIMCHECK
 70
     0
  9
$PEXTMIN
 10
1.000000E+20
 20
1.000000E+20
 30
1.000000E+20
  9
$PEXTMAX
 10
-1.000000E+20
 20
-1.000000E+20
 30
-1.000000E+20
  9
$PLIMMIN
 10
0.0
 20
0.0
  9
$PLIMMAX
 10
420.0
 20
297.0
  9
$UNITMODE
 70
     0
  9
$VISRETAIN
 70
     1
  9
$PLINEGEN
 70
     0
  9
$PSLTSCALE
 70
     1
  9
$TREEDEPTH
 70
  3020
  9
$CMLSTYLE
  2
STANDARD
  9
$CMLJUST
 70
     0
  9
$CMLSCALE
 40
1.0
  9
$PROXYGRAPHICS
 70
     1
  9
$MEASUREMENT
 70
     1
  9
$CELWEIGHT
370
    -1
  9
$ENDCAPS
280
     0
  9
$JOINSTYLE
280
     0
  9
$LWDISPLAY
290
     0
  9
$INSUNITS
 70
     0
  9
$HYPERLINKBASE
  1

  9
$XEDIT
290
     1
  9
$CEPSNTYPE
380
     0
  9
$PSTYLEMODE
290
     1
  9
$FINGERPRINTGUID
  2
{36D983B9-5386-4704-BA9A-0C14BD99DD58}
  9
$VERSIONGUID
  2
{E748DAE0-C873-477B-ACB3-40B052056CF8}
  9
$EXTNAMES
290
     1
  9
$PSVPSCALE
 40
0.0
  0
ENDSEC
  0
SECTION
  2
CLASSES
  0
CLASS
  1
DICTIONARYVAR
  2
AcDbDictionaryVar
  3
ObjectDBX Classes
 90
        0
280
     0
281
     0
  0
CLASS
  1
LWPOLYLINE
  2
AcDbPolyline
  3
ObjectDBX Classes
 90
        0
280
     0
281
     1
  0
CLASS
  1
ACDBDICTIONARYWDFLT
  2
AcDbDictionaryWithDefault
  3
ObjectDBX Classes
 90
        0
280
     0
281
     0
  0
CLASS
  1
TABLESTYLE
  2
AcDbTableStyle
  3
ObjectDBX Classes
 90
     2047
280
     0
281
     0
  0
CLASS
  1
SORTENTSTABLE
  2
AcDbSortentsTable
  3
ObjectDBX Classes
 90
        0
280
     0
281
     0
  0
CLASS
  1
ACDBPLACEHOLDER
  2
AcDbPlaceHolder
  3
ObjectDBX Classes
 90
        0
280
     0
281
     0
  0
CLASS
  1
LAYOUT
  2
AcDbLayout
  3
ObjectDBX Classes
 90
        0
280
     0
281
     0
  0
CLASS
  1
IMAGE
  2
AcDbRasterImage
  3
ISM
 90
    32895
280
     0
281
     1
  0
CLASS
  1
OLE2FRAME
  2
AcDbOle2Frame
  3
AutoCAD 2000
 90
    32768
280
     0
281
     1
  0
CLASS
  1
HATCH
  2
AcDbHatch
  3
AutoCAD 2000
 90
    32768
280
     0
281
     1
  0
CLASS
  1
RASTERVARIABLES
  2
AcDbRasterVariables
  3
ISM
 90
    32768
280
     0
281
     0
  0
CLASS
  1
IMAGEDEF
  2
AcDbRasterImageDef
  3
ISM
 90
    32768
280
     0
281
     0
  0
CLASS
  1
IMAGEDEF_REACTOR
  2
AcDbRasterImageDefReactor
  3
ISM
 90
    32769
280
     0
281
     0
  0
CLASS
  1
IDBUFFER
  2
AcDbIdBuffer
  3
AutoCAD 2000
 90
    32768
280
     0
281
     0
  0
CLASS
  1
SPATIAL_FILTER
  2
AcDbSpatialFilter
  3
AutoCAD 2000
 90
    32768
280
     0
281
     0
  0
CLASS
  1
XRECORD
  2
AcDbXrecord
  3
AutoCAD 2000
 90
    32768
280
     0
281
     0
  0
CLASS
  1
LAYER_INDEX
  2
AcDbLayerIndex
  3
AutoCAD 2000
 90
    32768
280
     0
281
     0
  0
CLASS
  1
SPATIAL_INDEX
  2
AcDbSpatialIndex
  3
AutoCAD 2000
 90
    32768
280
     0
281
     0
  0
CLASS
  1
OBJECT_PTR
  2
CAseDLPNTableRecord
  3
"ASE-LPNTableRecord"
 90
    32769
280
     0
281
     0
  0
CLASS
  1
PLOTSETTINGS
  2
AcDbPlotSettings
  3
AutoCAD 2000
 90
    32768
280
     0
281
     0
  0
CLASS
  1
VBA_PROJECT
  2
AcDbVbaProject
  3
acadvba
 90
    32768
280
     0
281
     0
  0
CLASS
  1
RTEXT
  2
RText
  3
RText|AutoCAD Express Tool|expresstools@autodesk.com
 90
    32768
280
     0
281
     1
  0
CLASS
  1
ARCALIGNEDTEXT
  2
AcDbArcAlignedText
  3
ATEXT|AutoCAD Express Tool|expresstools@autodesk.com
 90
    32768
280
     0
281
     1
  0
ENDSEC
  0
SECTION
  2
TABLES
  0
TABLE
  2
VPORT
  5
8
100
AcDbSymbolTable
 70
     1
  0
VPORT
  5
DB6
100
AcDbSymbolTableRecord
100
AcDbViewportTableRecord
  2
*Active
 70
    64
 10
0.0
 20
0.0
 11
1.0
 21
1.0
 12
285.04399
 22
198.024754
 13
0.0
 23
0.0
 14
13.0
 24
13.0
 15
13.0
 25
13.0
 16
0.0
 26
0.0
 36
1.0
 17
0.0
 27
0.0
 37
0.0
 40
398.76013
 41
1.639013
 42
50.0
 43
0.0
 44
0.0
 50
0.0
 51
0.0
 71
     0
 72
   100
 73
     1
 74
     0
 75
     0
 76
     0
 77
     0
 78
     0
281
     0
 65
     1
110
0.0
120
0.0
130
0.0
111
1.0
121
0.0
131
0.0
112
0.0
122
1.0
132
0.0
345
0
346
0
 79
     0
146
0.0
  0
ENDTAB
  0
TABLE
  2
LTYPE
  5
5
100
AcDbSymbolTable
 70
     5
  0
LTYPE
  5
14
100
AcDbSymbolTableRecord
100
AcDbLinetypeTableRecord
  2
ByBlock
 70
    64
  3

 72
    65
 73
     0
 40
0.0
  0
LTYPE
  5
15
100
AcDbSymbolTableRecord
100
AcDbLinetypeTableRecord
  2
ByLayer
 70
    64
  3

 72
    65
 73
     0
 40
0.0
  0
LTYPE
  5
16
100
AcDbSymbolTableRecord
100
AcDbLinetypeTableRecord
  2
CONTINUOUS
 70
    64
  3
Solid line
 72
    65
 73
     0
 40
0.0
  0
LTYPE
  5
126
100
AcDbSymbolTableRecord
100
AcDbLinetypeTableRecord
  2
HIDDEN2
 70
    64
  3
Hidden (.5x) _ _ _ _ _ _ _ _ _ _ _ _ _ _ _ _ _
 72
    65
 73
     2
 40
4.7625
 49
3.175
 74
     0
 49
-1.5875
 74
     0
  0
LTYPE
  5
127
100
AcDbSymbolTableRecord
100
AcDbLinetypeTableRecord
  2
DASHED2
 70
    64
  3
Dashed (.5x) _ _ _ _ _ _ _ _ _ _ _ _ _ _ _ _ _
 72
    65
 73
     2
 40
9.525
 49
6.35
 74
     0
 49
-3.175
 74
     0
  0
ENDTAB
  0
TABLE
  2
LAYER
  5
2
100
AcDbSymbolTable
 70
     6
  0
LAYER
  5
F
100
AcDbSymbolTableRecord
100
AcDbLayerTableRecord
  2
0
 70
    64
 62
     7
  6
CONTINUOUS
290
     1
370
    -3
390
C0C
  0
LAYER
  5
128
100
AcDbSymbolTableRecord
100
AcDbLayerTableRecord
  2
STRINGA
 70
    64
 62
     7
  6
CONTINUOUS
290
     1
370
    -3
390
C0C
  0
LAYER
  5
129
100
AcDbSymbolTableRecord
100
AcDbLayerTableRecord
  2
WAKU
 70
    64
 62
     4
  6
CONTINUOUS
290
     1
370
    -3
390
C0C
  0
LAYER
  5
12A
100
AcDbSymbolTableRecord
100
AcDbLayerTableRecord
  2
PANEL
 70
    64
 62
     6
  6
CONTINUOUS
290
     1
370
    -3
390
C0C
  0
LAYER
  5
12B
100
AcDbSymbolTableRecord
100
AcDbLayerTableRecord
  2
SUNPOU
 70
    64
 62
     3
  6
CONTINUOUS
290
     1
370
    -3
390
C0C
  0
LAYER
  5
2C2
100
AcDbSymbolTableRecord
100
AcDbLayerTableRecord
  2
DEFPOINTS
 70
    64
 62
     7
  6
CONTINUOUS
290
     0
370
    -3
390
C0C
  0
ENDTAB
  0
TABLE
  2
STYLE
  5
3
100
AcDbSymbolTable
 70
     1
  0
STYLE
  5
10
100
AcDbSymbolTableRecord
100
AcDbTextStyleTableRecord
  2
STANDARD
 70
    64
 40
6.0
 41
1.0
 50
0.0
 71
     0
 42
5.0
  3
txt.shx
  4
bigfont.shx
  0
ENDTAB
  0
TABLE
  2
VIEW
  5
6
100
AcDbSymbolTable
 70
     0
  0
ENDTAB
  0
TABLE
  2
UCS
  5
7
100
AcDbSymbolTable
 70
     0
  0
ENDTAB
  0
TABLE
  2
APPID
  5
9
100
AcDbSymbolTable
 70
     2
  0
APPID
  5
11
100
AcDbSymbolTableRecord
100
AcDbRegAppTableRecord
  2
ACAD
 70
    64
  0
APPID
  5
C20
100
AcDbSymbolTableRecord
100
AcDbRegAppTableRecord
  2
ACAD_PSEXT
 70
    64
  0
ENDTAB
  0
TABLE
  2
DIMSTYLE
  5
A
100
AcDbSymbolTable
 70
     1
100
AcDbDimStyleTable
 71
     0
  0
DIMSTYLE
105
1D
100
AcDbSymbolTableRecord
100
AcDbDimStyleTableRecord
  2
STANDARD
 70
    64
  3

  4

 40
1.0
 41
2.5
 42
0.625
 43
3.75
 44
1.25
 45
0.0
 46
0.0
 47
0.0
 48
0.0
 71
     0
 72
     0
 73
     0
 74
     0
 75
     0
 76
     0
 77
     1
 78
     8
 79
     0
140
2.5
141
2.5
142
0.0
143
0.0394
144
1.0
145
0.0
146
1.0
147
0.625
148
0.0
170
     0
171
     4
172
     1
173
     0
174
     0
175
     0
176
     0
177
     0
178
     0
179
     0
271
     4
272
     4
273
     8
274
     4
275
     0
276
     0
277
     6
278
    46
279
     0
280
     0
281
     0
282
     0
283
     1
284
     0
285
     0
286
     0
288
     0
340
10
341
0
342
0
343
0
344
0
371
    -2
372
    -2
  0
ENDTAB
  0
TABLE
  2
BLOCK_RECORD
  5
1
100
AcDbSymbolTable
 70
     1
  0
BLOCK_RECORD
  5
1A
102
{ACAD_XDICTIONARY
360
D81
102
}
100
AcDbSymbolTableRecord
100
AcDbBlockTableRecord
  2
*MODEL_SPACE
340
C13
  0
BLOCK_RECORD
  5
17
100
AcDbSymbolTableRecord
100
AcDbBlockTableRecord
  2
*PAPER_SPACE
340
C14
  0
BLOCK_RECORD
  5
294
100
AcDbSymbolTableRecord
100
AcDbBlockTableRecord
  2
_NONE
340
0
  0
ENDTAB
  0
ENDSEC
  0
SECTION
  2
BLOCKS
  0
BLOCK
  5
1B
100
AcDbEntity
  8
0
100
AcDbBlockBegin
  2
*MODEL_SPACE
 70
    64
 10
0.0
 20
0.0
 30
0.0
  3
*MODEL_SPACE
  1

  0
ENDBLK
  5
1C
100
AcDbEntity
  8
0
100
AcDbBlockEnd
  0
BLOCK
  5
18
100
AcDbEntity
 67
     1
  8
0
100
AcDbBlockBegin
  2
*PAPER_SPACE
 70
    64
 10
0.0
 20
0.0
 30
0.0
  3
*PAPER_SPACE
  1

  0
ENDBLK
  5
19
100
AcDbEntity
 67
     1
  8
0
100
AcDbBlockEnd
  0
BLOCK
  5
295
100
AcDbEntity
  8
0
100
AcDbBlockBegin
  2
_NONE
 70
    64
 10
0.0
 20
0.0
 30
0.0
  3
_NONE
  1

  0
CIRCLE
  5
296
100
AcDbEntity
  8
0
  6
ByBlock
 62
     0
100
AcDbCircle
 10
0.0
 20
0.0
 30
0.0
 40
0.25
  0
ENDBLK
  5
297
100
AcDbEntity
  8
0
100
AcDbBlockEnd
  0
ENDSEC
  0
SECTION
  2
ENTITIES
  0
VIEWPORT
  5
22
102
{ACAD_XDICTIONARY
360
DB8
102
}
100
AcDbEntity
 67
     1
  8
0
100
AcDbViewport
 10
261.517699
 20
148.5
 30
0.0
 40
523.035398
 41
297.0
 68
     1
 69
     1
 12
261.517699
 22
148.5
 13
0.0
 23
0.0
 14
1.0
 24
1.0
 15
10.0
 25
10.0
 16
0.0
 26
0.0
 36
1.0
 17
0.0
 27
0.0
 37
0.0
 42
50.0
 43
0.0
 44
0.0
 45
297.0
 50
0.0
 51
0.0
 72
   100
 90
    32800
340
0
  1

281
     0
 71
     1
 74
     0
110
0.0
120
0.0
130
0.0
111
1.0
121
0.0
131
0.0
112
0.0
122
1.0
132
0.0
345
0
346
0
 79
     0
146
0.0
  0
LWPOLYLINE
  5
252
100
AcDbEntity
  8
WAKU
100
AcDbPolyline
 90
        4
 70
     1
 10
0.0
 20
0.0
 10
570.0
 20
0.0
 10
570.0
 20
396.0
 10
0.0
 20
396.0
  0
LINE
  5
4F9
100
AcDbEntity
  8
WAKU
100
AcDbLine
 10
5.0
 20
391.0
 30
0.0
 11
565.0
 21
391.0
 31
0.0
  0
LINE
  5
4FA
100
AcDbEntity
  8
WAKU
  6
CONTINUOUS
100
AcDbLine
 10
5.0
 20
5.0
 30
0.0
 11
565.0
 21
5.0
 31
0.0
  0
LINE
  5
4FB
100
AcDbEntity
  8
WAKU
  6
CONTINUOUS
100
AcDbLine
 10
5.0
 20
25.0
 30
0.0
 11
565.0
 21
25.0
 31
0.0
  0
LINE
  5
500
100
AcDbEntity
  8
WAKU
100
AcDbLine
 10
5.0
 20
5.0
 30
0.0
 11
5.0
 21
391.0
 31
0.0
  0
TEXT
  5
501
100
AcDbEntity
  8
WAKU
100
AcDbText
 10
15.0
 20
8.0
 30
0.0
 40
12.0
  1
ビルパネ　PS-7530
100
AcDbText
  0
LINE
  5
502
100
AcDbEntity
  8
WAKU
  6
CONTINUOUS
100
AcDbLine
 10
195.0
 20
5.0
 30
0.0
 11
195.0
 21
25.0
 31
0.0
  0
LINE
  5
543
100
AcDbEntity
  8
WAKU
100
AcDbLine
 10
565.0
 20
391.0
 30
0.0
 11
565.0
 21
5.0
 31
0.0
  0
LINE
  5
872
100
AcDbEntity
  8
SUNPOU
100
AcDbLine
 10
392.870666
 20
256.60301
 30
0.0
 11
392.870666
 21
272.22801
 31
0.0
  0
LINE
  5
873
100
AcDbEntity
  8
SUNPOU
100
AcDbLine
 10
423.270666
 20
256.60301
 30
0.0
 11
423.270666
 21
272.22801
 31
0.0
  0
LINE
  5
874
100
AcDbEntity
  8
SUNPOU
100
AcDbLine
 10
392.870666
 20
270.97801
 30
0.0
 11
423.270666
 21
270.97801
 31
0.0
  0
MTEXT
  5
875
100
AcDbEntity
  8
SUNPOU
100
AcDbMText
 10
408.070666
 20
274.60301
 30
0.0
 40
6.0
 41
0.0
 71
     5
 72
     5
  1
\A1;30.4
 73
     1
 44
1.0
1001
ACAD
1000
MTEXTBEGIN
1070
    73
1070
     1
1070
    44
1040
1.0
1070
    74
1070
     0
1000
MTEXTEND
  0
LINE
  5
879
100
AcDbEntity
  8
SUNPOU
100
AcDbLine
 10
357.445666
 20
170.97801
 30
0.0
 11
341.820666
 21
170.97801
 31
0.0
  0
LINE
  5
87A
100
AcDbEntity
  8
SUNPOU
100
AcDbLine
 10
392.245666
 20
255.97801
 30
0.0
 11
341.820666
 21
255.97801
 31
0.0
  0
LINE
  5
87B
100
AcDbEntity
  8
SUNPOU
100
AcDbLine
 10
343.070666
 20
170.97801
 30
0.0
 11
343.070666
 21
255.97801
 31
0.0
  0
MTEXT
  5
87C
100
AcDbEntity
  8
SUNPOU
100
AcDbMText
 10
339.445666
 20
213.47801
 30
0.0
 40
6.0
 41
0.0
 71
     5
 72
     5
  1
\A1;85
 11
0.0
 21
1.0
 31
0.0
 73
     1
 44
1.0
1001
ACAD
1000
MTEXTBEGIN
1070
    73
1070
     1
1070
    44
1040
1.0
1070
    74
1070
     0
1000
MTEXTEND
  0
LINE
  5
880
100
AcDbEntity
  8
SUNPOU
100
AcDbLine
 10
390.070666
 20
170.953016
 30
0.0
 11
390.070666
 21
154.72801
 31
0.0
  0
LINE
  5
881
100
AcDbEntity
  8
SUNPOU
100
AcDbLine
 10
426.070666
 20
170.953016
 30
0.0
 11
426.070666
 21
154.72801
 31
0.0
  0
LINE
  5
882
100
AcDbEntity
  8
SUNPOU
100
AcDbLine
 10
390.070666
 20
155.97801
 30
0.0
 11
426.070666
 21
155.97801
 31
0.0
  0
MTEXT
  5
883
100
AcDbEntity
  8
SUNPOU
100
AcDbMText
 10
408.070666
 20
159.60301
 30
0.0
 40
6.0
 41
0.0
 71
     5
 72
     5
  1
\A1;36
 73
     1
 44
1.0
1001
ACAD
1000
MTEXTBEGIN
1070
    73
1070
     1
1070
    44
1040
1.0
1070
    74
1070
     0
1000
MTEXTEND
  0
LINE
  5
A30
100
AcDbEntity
  8
STRINGA
  6
HIDDEN2
100
AcDbLine
 10
426.070666
 20
220.97801
 30
0.0
 11
426.070666
 21
171.578016
 31
0.0
  0
LINE
  5
A31
100
AcDbEntity
  8
STRINGA
  6
CONTINUOUS
100
AcDbLine
 10
424.770666
 20
224.47801
 30
0.0
 11
424.770666
 21
222.708005
 31
0.0
  0
LINE
  5
A32
100
AcDbEntity
  8
STRINGA
  6
HIDDEN2
100
AcDbLine
 10
390.070666
 20
220.97801
 30
0.0
 11
390.070666
 21
171.578016
 31
0.0
  0
LINE
  5
A33
100
AcDbEntity
  8
STRINGA
  6
CONTINUOUS
100
AcDbLine
 10
391.370666
 20
224.47801
 30
0.0
 11
391.370666
 21
222.708005
 31
0.0
  0
LINE
  5
A34
100
AcDbEntity
  8
PANEL
  6
DASHED2
100
AcDbLine
 10
458.070666
 20
171.578016
 30
0.0
 11
358.070666
 21
171.578016
 31
0.0
  0
LINE
  5
A35
100
AcDbEntity
  8
PANEL
  6
CONTINUOUS
100
AcDbLine
 10
458.070666
 20
170.97801
 30
0.0
 11
358.070666
 21
170.97801
 31
0.0
  0
LINE
  5
A36
100
AcDbEntity
  8
STRINGA
  6
HIDDEN2
100
AcDbLine
 10
391.370666
 20
171.578016
 30
0.0
 11
390.070666
 21
171.578016
 31
0.0
  0
LINE
  5
A37
100
AcDbEntity
  8
STRINGA
  6
HIDDEN2
100
AcDbLine
 10
426.070666
 20
171.578016
 30
0.0
 11
424.770666
 21
171.578016
 31
0.0
  0
LINE
  5
A38
100
AcDbEntity
  8
PANEL
  6
CONTINUOUS
100
AcDbLine
 10
358.070666
 20
222.708005
 30
0.0
 11
458.070666
 21
222.708005
 31
0.0
  0
LINE
  5
A39
100
AcDbEntity
  8
PANEL
  6
DASHED2
100
AcDbLine
 10
358.070666
 20
222.107999
 30
0.0
 11
458.070666
 21
222.107999
 31
0.0
  0
LINE
  5
A3A
100
AcDbEntity
  8
STRINGA
  6
CONTINUOUS
100
AcDbLine
 10
419.770666
 20
247.97801
 30
0.0
 11
419.770666
 21
246.97801
 31
0.0
  0
LINE
  5
A3B
100
AcDbEntity
  8
STRINGA
  6
CONTINUOUS
100
AcDbLine
 10
396.370666
 20
247.97801
 30
0.0
 11
396.370666
 21
246.97801
 31
0.0
  0
LINE
  5
A3C
100
AcDbEntity
  8
STRINGA
  6
CONTINUOUS
100
AcDbLine
 10
423.270666
 20
255.97801
 30
0.0
 11
423.270666
 21
239.97801
 31
0.0
  0
LINE
  5
A3D
100
AcDbEntity
  8
STRINGA
  6
CONTINUOUS
100
AcDbLine
 10
392.870666
 20
255.97801
 30
0.0
 11
392.870666
 21
239.97801
 31
0.0
  0
LINE
  5
A3E
100
AcDbEntity
  8
STRINGA
  6
HIDDEN2
100
AcDbLine
 10
389.870666
 20
221.97801
 30
0.0
 11
389.870666
 21
222.708005
 31
0.0
  0
LINE
  5
A3F
100
AcDbEntity
  8
STRINGA
  6
CONTINUOUS
100
AcDbLine
 10
392.870666
 20
225.97801
 30
0.0
 11
392.870666
 21
224.47801
 31
0.0
  0
LINE
  5
A40
100
AcDbEntity
  8
STRINGA
  6
CONTINUOUS
100
AcDbLine
 10
392.870666
 20
224.47801
 30
0.0
 11
391.370666
 21
224.47801
 31
0.0
  0
LINE
  5
A41
100
AcDbEntity
  8
STRINGA
  6
HIDDEN2
100
AcDbLine
 10
390.070666
 20
220.97801
 30
0.0
 11
389.870666
 21
221.97801
 31
0.0
  0
LINE
  5
A44
100
AcDbEntity
  8
STRINGA
  6
CONTINUOUS
100
AcDbLine
 10
391.370666
 20
225.97801
 30
0.0
 11
391.370666
 21
238.47801
 31
0.0
  0
LINE
  5
A45
100
AcDbEntity
  8
STRINGA
  6
CONTINUOUS
100
AcDbLine
 10
392.870666
 20
225.97801
 30
0.0
 11
391.370666
 21
225.97801
 31
0.0
  0
LINE
  5
A46
100
AcDbEntity
  8
STRINGA
  6
CONTINUOUS
100
AcDbLine
 10
394.370666
 20
238.47801
 30
0.0
 11
391.370666
 21
238.47801
 31
0.0
  0
LINE
  5
A47
100
AcDbEntity
  8
STRINGA
  6
CONTINUOUS
100
AcDbLine
 10
392.870666
 20
239.97801
 30
0.0
 11
389.870666
 21
239.97801
 31
0.0
  0
LINE
  5
A48
100
AcDbEntity
  8
STRINGA
  6
CONTINUOUS
100
AcDbLine
 10
394.370666
 20
246.97801
 30
0.0
 11
394.370666
 21
238.47801
 31
0.0
  0
LINE
  5
A49
100
AcDbEntity
  8
STRINGA
  6
CONTINUOUS
100
AcDbLine
 10
396.370666
 20
246.97801
 30
0.0
 11
394.370666
 21
246.97801
 31
0.0
  0
LINE
  5
A4A
100
AcDbEntity
  8
STRINGA
  6
HIDDEN2
100
AcDbLine
 10
426.270666
 20
221.97801
 30
0.0
 11
426.270666
 21
222.708005
 31
0.0
  0
LINE
  5
A4B
100
AcDbEntity
  8
STRINGA
  6
CONTINUOUS
100
AcDbLine
 10
423.270666
 20
225.97801
 30
0.0
 11
423.270666
 21
224.47801
 31
0.0
  0
LINE
  5
A4C
100
AcDbEntity
  8
STRINGA
  6
CONTINUOUS
100
AcDbLine
 10
424.770666
 20
224.47801
 30
0.0
 11
423.270666
 21
224.47801
 31
0.0
  0
LINE
  5
A4D
100
AcDbEntity
  8
STRINGA
  6
HIDDEN2
100
AcDbLine
 10
426.070666
 20
220.97801
 30
0.0
 11
426.270666
 21
221.97801
 31
0.0
  0
LINE
  5
A50
100
AcDbEntity
  8
STRINGA
  6
CONTINUOUS
100
AcDbLine
 10
424.770666
 20
225.97801
 30
0.0
 11
423.270666
 21
225.97801
 31
0.0
  0
LINE
  5
A51
100
AcDbEntity
  8
STRINGA
  6
CONTINUOUS
100
AcDbLine
 10
424.770666
 20
225.97801
 30
0.0
 11
424.770666
 21
238.47801
 31
0.0
  0
LINE
  5
A52
100
AcDbEntity
  8
STRINGA
  6
CONTINUOUS
100
AcDbLine
 10
424.770666
 20
238.47801
 30
0.0
 11
421.770666
 21
238.47801
 31
0.0
  0
LINE
  5
A53
100
AcDbEntity
  8
STRINGA
  6
CONTINUOUS
100
AcDbLine
 10
426.270666
 20
239.97801
 30
0.0
 11
423.270666
 21
239.97801
 31
0.0
  0
LINE
  5
A54
100
AcDbEntity
  8
STRINGA
  6
CONTINUOUS
100
AcDbLine
 10
421.770666
 20
246.97801
 30
0.0
 11
419.770666
 21
246.97801
 31
0.0
  0
LINE
  5
A55
100
AcDbEntity
  8
STRINGA
  6
CONTINUOUS
100
AcDbLine
 10
421.770666
 20
246.97801
 30
0.0
 11
421.770666
 21
238.47801
 31
0.0
  0
LINE
  5
A56
100
AcDbEntity
  8
STRINGA
  6
CONTINUOUS
100
AcDbLine
 10
421.770666
 20
254.47801
 30
0.0
 11
394.370666
 21
254.47801
 31
0.0
  0
LINE
  5
A57
100
AcDbEntity
  8
STRINGA
  6
CONTINUOUS
100
AcDbLine
 10
423.270666
 20
255.97801
 30
0.0
 11
392.870666
 21
255.97801
 31
0.0
  0
LINE
  5
A58
100
AcDbEntity
  8
STRINGA
  6
CONTINUOUS
100
AcDbLine
 10
394.370666
 20
254.47801
 30
0.0
 11
394.370666
 21
247.97801
 31
0.0
  0
LINE
  5
A59
100
AcDbEntity
  8
STRINGA
  6
CONTINUOUS
100
AcDbLine
 10
396.370666
 20
247.97801
 30
0.0
 11
394.370666
 21
247.97801
 31
0.0
  0
LINE
  5
A5A
100
AcDbEntity
  8
STRINGA
  6
CONTINUOUS
100
AcDbLine
 10
421.770666
 20
254.47801
 30
0.0
 11
421.770666
 21
247.97801
 31
0.0
  0
LINE
  5
A5B
100
AcDbEntity
  8
STRINGA
  6
CONTINUOUS
100
AcDbLine
 10
421.770666
 20
247.97801
 30
0.0
 11
419.770666
 21
247.97801
 31
0.0
  0
LINE
  5
CD3
100
AcDbEntity
  8
STRINGA
100
AcDbLine
 10
193.848197
 20
85.5
 30
0.0
 11
193.848197
 21
310.5
 31
0.0
  0
LINE
  5
CD4
100
AcDbEntity
  8
STRINGA
100
AcDbLine
 10
182.848197
 20
310.5
 30
0.0
 11
182.848197
 21
85.5
 31
0.0
  0
LINE
  5
CD5
100
AcDbEntity
  8
STRINGA
100
AcDbLine
 10
166.06872
 20
95.05002
 30
0.0
 11
166.06872
 21
85.5
 31
0.0
  0
LINE
  5
CE1
100
AcDbEntity
  8
STRINGA
100
AcDbLine
 10
166.06872
 20
170.05002
 30
0.0
 11
166.06872
 21
150.94998
 31
0.0
  0
ARC
  5
CE2
100
AcDbEntity
  8
STRINGA
100
AcDbCircle
 10
161.06872
 20
150.94998
 30
0.0
 40
5.0
100
AcDbArc
 50
210.000605
 51
360.0
  0
ARC
  5
CE3
100
AcDbEntity
  8
STRINGA
100
AcDbCircle
 10
119.56872
 20
88.121099
 30
0.0
 40
9.5
100
AcDbArc
 50
150.000605
 51
239.995688
  0
ARC
  5
CE4
100
AcDbEntity
  8
STRINGA
100
AcDbCircle
 10
151.81872
 20
143.981099
 30
0.0
 40
9.5
100
AcDbArc
 50
60.000605
 51
150.000605
  0
LINE
  5
CE5
100
AcDbEntity
  8
STRINGA
100
AcDbLine
 10
111.341429
 20
92.871012
 30
0.0
 11
121.716239
 21
110.841149
 31
0.0
  0
ARC
  5
CE6
100
AcDbEntity
  8
STRINGA
100
AcDbCircle
 10
122.58227
 20
110.341158
 30
0.0
 40
1.0
100
AcDbArc
 50
60.000605
 51
150.000605
  0
LINE
  5
CE7
100
AcDbEntity
  8
STRINGA
100
AcDbLine
 10
133.216029
 20
130.759854
 30
0.0
 11
143.591429
 21
148.731012
 31
0.0
  0
ARC
  5
CE8
100
AcDbEntity
  8
STRINGA
100
AcDbCircle
 10
134.082059
 20
130.259863
 30
0.0
 40
1.0
100
AcDbArc
 50
150.000605
 51
240.000605
  0
LINE
  5
CE9
100
AcDbEntity
  8
STRINGA
100
AcDbLine
 10
126.228482
 20
104.656518
 30
0.0
 11
130.778399
 21
112.537397
 31
0.0
  0
ARC
  5
CEA
100
AcDbEntity
  8
STRINGA
100
AcDbCircle
 10
129.912368
 20
113.037388
 30
0.0
 40
1.0
100
AcDbArc
 50
330.000605
 51
420.000605
  0
ARC
  5
CEB
100
AcDbEntity
  8
STRINGA
100
AcDbCircle
 10
125.016039
 20
105.356505
 30
0.0
 40
1.4
100
AcDbArc
 50
150.000605
 51
330.000605
  0
LINE
  5
CEC
100
AcDbEntity
  8
STRINGA
100
AcDbLine
 10
136.278298
 20
122.063734
 30
0.0
 11
140.828215
 21
129.944613
 31
0.0
  0
ARC
  5
CED
100
AcDbEntity
  8
STRINGA
100
AcDbCircle
 10
139.615772
 20
130.644601
 30
0.0
 40
1.4
100
AcDbArc
 50
330.000605
 51
510.000605
  0
LINE
  5
CEE
100
AcDbEntity
  8
STRINGA
100
AcDbLine
 10
129.180289
 20
115.769431
 30
0.0
 11
132.680225
 21
121.831645
 31
0.0
  0
LINE
  5
CEF
100
AcDbEntity
  8
STRINGA
100
AcDbLine
 10
123.803596
 20
106.056492
 30
0.0
 11
125.353568
 21
108.741187
 31
0.0
  0
ARC
  5
CF0
100
AcDbEntity
  8
STRINGA
100
AcDbCircle
 10
124.487537
 20
109.241178
 30
0.0
 40
1.0
100
AcDbArc
 50
330.000605
 51
420.000605
  0
LINE
  5
CF1
100
AcDbEntity
  8
STRINGA
100
AcDbLine
 10
136.853358
 20
128.659893
 30
0.0
 11
138.403329
 21
131.344588
 31
0.0
  0
ARC
  5
CF2
100
AcDbEntity
  8
STRINGA
100
AcDbCircle
 10
135.987327
 20
129.159884
 30
0.0
 40
1.0
100
AcDbArc
 50
240.000605
 51
330.000605
  0
LINE
  5
CF3
100
AcDbEntity
  8
STRINGA
100
AcDbLine
 10
155.568652
 20
150.476329
 30
0.0
 11
156.568633
 21
152.20839
 31
0.0
  0
LINE
  5
CF4
100
AcDbEntity
  8
STRINGA
100
AcDbLine
 10
133.582069
 20
129.393833
 30
0.0
 11
135.487336
 21
128.293853
 31
0.0
  0
LINE
  5
CF5
100
AcDbEntity
  8
STRINGA
100
AcDbLine
 10
123.08226
 20
111.207189
 30
0.0
 11
124.987528
 21
110.107209
 31
0.0
  0
LINE
  5
CF6
100
AcDbEntity
  8
STRINGA
100
AcDbLine
 10
134.046246
 20
122.197685
 30
0.0
 11
134.912277
 21
121.697694
 31
0.0
  0
ARC
  5
CF7
100
AcDbEntity
  8
STRINGA
100
AcDbCircle
 10
135.412268
 20
122.563725
 30
0.0
 40
1.0
100
AcDbArc
 50
240.000605
 51
330.000605
  0
ARC
  5
CF8
100
AcDbEntity
  8
STRINGA
100
AcDbCircle
 10
133.546255
 20
121.331655
 30
0.0
 40
1.0
100
AcDbArc
 50
60.000605
 51
150.000605
  0
LINE
  5
CF9
100
AcDbEntity
  8
STRINGA
100
AcDbLine
 10
129.546328
 20
114.403409
 30
0.0
 11
130.412359
 21
113.903418
 31
0.0
  0
ARC
  5
CFA
100
AcDbEntity
  8
STRINGA
100
AcDbCircle
 10
130.046319
 20
115.26944
 30
0.0
 40
1.0
100
AcDbArc
 50
150.000605
 51
240.000605
  0
LINE
  5
CFB
100
AcDbEntity
  8
STRINGA
100
AcDbLine
 10
114.818101
 20
79.894215
 30
0.0
 11
117.318098
 21
84.224343
 31
0.0
  0
ARC
  5
CFC
100
AcDbEntity
  8
STRINGA
100
AcDbCircle
 10
156.06872
 20
95.05002
 30
0.0
 40
10.0
100
AcDbArc
 50
0.0
 51
120.0
  0
LINE
  5
CFD
100
AcDbEntity
  8
STRINGA
100
AcDbLine
 10
117.318098
 20
84.224343
 30
0.0
 11
151.06872
 21
103.710274
 31
0.0
  0
LINE
  5
CFE
100
AcDbEntity
  8
STRINGA
100
AcDbLine
 10
156.738619
 20
148.449934
 30
0.0
 11
155.568652
 21
150.476329
 31
0.0
  0
LINE
  5
CFF
100
AcDbEntity
  8
STRINGA
100
AcDbLine
 10
166.06872
 20
245.05002
 30
0.0
 11
166.06872
 21
225.94998
 31
0.0
  0
ARC
  5
D00
100
AcDbEntity
  8
STRINGA
100
AcDbCircle
 10
161.06872
 20
225.94998
 30
0.0
 40
5.0
100
AcDbArc
 50
210.000605
 51
360.0
  0
ARC
  5
D01
100
AcDbEntity
  8
STRINGA
100
AcDbCircle
 10
119.56872
 20
163.121099
 30
0.0
 40
9.5
100
AcDbArc
 50
150.000605
 51
239.995688
  0
ARC
  5
D02
100
AcDbEntity
  8
STRINGA
100
AcDbCircle
 10
151.81872
 20
218.981099
 30
0.0
 40
9.5
100
AcDbArc
 50
60.000605
 51
150.000605
  0
LINE
  5
D03
100
AcDbEntity
  8
STRINGA
100
AcDbLine
 10
111.341429
 20
167.871012
 30
0.0
 11
121.716239
 21
185.841149
 31
0.0
  0
ARC
  5
D04
100
AcDbEntity
  8
STRINGA
100
AcDbCircle
 10
122.58227
 20
185.341158
 30
0.0
 40
1.0
100
AcDbArc
 50
60.000605
 51
150.000605
  0
LINE
  5
D05
100
AcDbEntity
  8
STRINGA
100
AcDbLine
 10
133.216029
 20
205.759854
 30
0.0
 11
143.591429
 21
223.731012
 31
0.0
  0
ARC
  5
D06
100
AcDbEntity
  8
STRINGA
100
AcDbCircle
 10
134.082059
 20
205.259863
 30
0.0
 40
1.0
100
AcDbArc
 50
150.000605
 51
240.000605
  0
LINE
  5
D07
100
AcDbEntity
  8
STRINGA
100
AcDbLine
 10
126.228482
 20
179.656518
 30
0.0
 11
130.778399
 21
187.537397
 31
0.0
  0
ARC
  5
D08
100
AcDbEntity
  8
STRINGA
100
AcDbCircle
 10
129.912368
 20
188.037388
 30
0.0
 40
1.0
100
AcDbArc
 50
330.000605
 51
420.000605
  0
ARC
  5
D09
100
AcDbEntity
  8
STRINGA
100
AcDbCircle
 10
125.016039
 20
180.356505
 30
0.0
 40
1.4
100
AcDbArc
 50
150.000605
 51
330.000605
  0
LINE
  5
D0A
100
AcDbEntity
  8
STRINGA
100
AcDbLine
 10
136.278298
 20
197.063734
 30
0.0
 11
140.828215
 21
204.944613
 31
0.0
  0
ARC
  5
D0B
100
AcDbEntity
  8
STRINGA
100
AcDbCircle
 10
139.615772
 20
205.644601
 30
0.0
 40
1.4
100
AcDbArc
 50
330.000605
 51
510.000605
  0
LINE
  5
D0C
100
AcDbEntity
  8
STRINGA
100
AcDbLine
 10
129.180289
 20
190.769431
 30
0.0
 11
132.680225
 21
196.831645
 31
0.0
  0
LINE
  5
D0D
100
AcDbEntity
  8
STRINGA
100
AcDbLine
 10
123.803596
 20
181.056492
 30
0.0
 11
125.353568
 21
183.741187
 31
0.0
  0
ARC
  5
D0E
100
AcDbEntity
  8
STRINGA
100
AcDbCircle
 10
124.487537
 20
184.241178
 30
0.0
 40
1.0
100
AcDbArc
 50
330.000605
 51
420.000605
  0
LINE
  5
D0F
100
AcDbEntity
  8
STRINGA
100
AcDbLine
 10
136.853358
 20
203.659893
 30
0.0
 11
138.403329
 21
206.344588
 31
0.0
  0
ARC
  5
D10
100
AcDbEntity
  8
STRINGA
100
AcDbCircle
 10
135.987327
 20
204.159884
 30
0.0
 40
1.0
100
AcDbArc
 50
240.000605
 51
330.000605
  0
LINE
  5
D11
100
AcDbEntity
  8
STRINGA
100
AcDbLine
 10
155.568652
 20
225.476329
 30
0.0
 11
156.568633
 21
227.20839
 31
0.0
  0
LINE
  5
D12
100
AcDbEntity
  8
STRINGA
100
AcDbLine
 10
133.582069
 20
204.393833
 30
0.0
 11
135.487336
 21
203.293853
 31
0.0
  0
LINE
  5
D13
100
AcDbEntity
  8
STRINGA
100
AcDbLine
 10
123.08226
 20
186.207189
 30
0.0
 11
124.987528
 21
185.107209
 31
0.0
  0
LINE
  5
D14
100
AcDbEntity
  8
STRINGA
100
AcDbLine
 10
134.046246
 20
197.197685
 30
0.0
 11
134.912277
 21
196.697694
 31
0.0
  0
ARC
  5
D15
100
AcDbEntity
  8
STRINGA
100
AcDbCircle
 10
135.412268
 20
197.563725
 30
0.0
 40
1.0
100
AcDbArc
 50
240.000605
 51
330.000605
  0
ARC
  5
D16
100
AcDbEntity
  8
STRINGA
100
AcDbCircle
 10
133.546255
 20
196.331655
 30
0.0
 40
1.0
100
AcDbArc
 50
60.000605
 51
150.000605
  0
LINE
  5
D17
100
AcDbEntity
  8
STRINGA
100
AcDbLine
 10
129.546328
 20
189.403409
 30
0.0
 11
130.412359
 21
188.903418
 31
0.0
  0
ARC
  5
D18
100
AcDbEntity
  8
STRINGA
100
AcDbCircle
 10
130.046319
 20
190.26944
 30
0.0
 40
1.0
100
AcDbArc
 50
150.000605
 51
240.000605
  0
LINE
  5
D19
100
AcDbEntity
  8
STRINGA
100
AcDbLine
 10
114.818101
 20
154.894215
 30
0.0
 11
117.318098
 21
159.224343
 31
0.0
  0
ARC
  5
D1A
100
AcDbEntity
  8
STRINGA
100
AcDbCircle
 10
156.06872
 20
170.05002
 30
0.0
 40
10.0
100
AcDbArc
 50
0.0
 51
120.0
  0
LINE
  5
D1B
100
AcDbEntity
  8
STRINGA
100
AcDbLine
 10
117.318098
 20
159.224343
 30
0.0
 11
151.06872
 21
178.710274
 31
0.0
  0
LINE
  5
D1C
100
AcDbEntity
  8
STRINGA
100
AcDbLine
 10
156.738619
 20
223.449934
 30
0.0
 11
155.568652
 21
225.476329
 31
0.0
  0
LINE
  5
D1D
100
AcDbEntity
  8
STRINGA
100
AcDbLine
 10
166.06872
 20
310.5
 30
0.0
 11
166.06872
 21
300.94998
 31
0.0
  0
ARC
  5
D1E
100
AcDbEntity
  8
STRINGA
100
AcDbCircle
 10
161.06872
 20
300.94998
 30
0.0
 40
5.0
100
AcDbArc
 50
210.000605
 51
360.0
  0
ARC
  5
D1F
100
AcDbEntity
  8
STRINGA
100
AcDbCircle
 10
119.56872
 20
238.121099
 30
0.0
 40
9.5
100
AcDbArc
 50
150.000605
 51
239.995688
  0
ARC
  5
D20
100
AcDbEntity
  8
STRINGA
100
AcDbCircle
 10
151.81872
 20
293.981099
 30
0.0
 40
9.5
100
AcDbArc
 50
60.000605
 51
150.000605
  0
LINE
  5
D21
100
AcDbEntity
  8
STRINGA
100
AcDbLine
 10
111.341429
 20
242.871012
 30
0.0
 11
121.716239
 21
260.841149
 31
0.0
  0
ARC
  5
D22
100
AcDbEntity
  8
STRINGA
100
AcDbCircle
 10
122.58227
 20
260.341158
 30
0.0
 40
1.0
100
AcDbArc
 50
60.000605
 51
150.000605
  0
LINE
  5
D23
100
AcDbEntity
  8
STRINGA
100
AcDbLine
 10
133.216029
 20
280.759854
 30
0.0
 11
143.591429
 21
298.731012
 31
0.0
  0
ARC
  5
D24
100
AcDbEntity
  8
STRINGA
100
AcDbCircle
 10
134.082059
 20
280.259863
 30
0.0
 40
1.0
100
AcDbArc
 50
150.000605
 51
240.000605
  0
LINE
  5
D25
100
AcDbEntity
  8
STRINGA
100
AcDbLine
 10
126.228482
 20
254.656518
 30
0.0
 11
130.778399
 21
262.537397
 31
0.0
  0
ARC
  5
D26
100
AcDbEntity
  8
STRINGA
100
AcDbCircle
 10
129.912368
 20
263.037388
 30
0.0
 40
1.0
100
AcDbArc
 50
330.000605
 51
420.000605
  0
ARC
  5
D27
100
AcDbEntity
  8
STRINGA
100
AcDbCircle
 10
125.016039
 20
255.356505
 30
0.0
 40
1.4
100
AcDbArc
 50
150.000605
 51
330.000605
  0
LINE
  5
D28
100
AcDbEntity
  8
STRINGA
100
AcDbLine
 10
136.278298
 20
272.063734
 30
0.0
 11
140.828215
 21
279.944613
 31
0.0
  0
ARC
  5
D29
100
AcDbEntity
  8
STRINGA
100
AcDbCircle
 10
139.615772
 20
280.644601
 30
0.0
 40
1.4
100
AcDbArc
 50
330.000605
 51
510.000605
  0
LINE
  5
D2A
100
AcDbEntity
  8
STRINGA
100
AcDbLine
 10
129.180289
 20
265.769431
 30
0.0
 11
132.680225
 21
271.831645
 31
0.0
  0
LINE
  5
D2B
100
AcDbEntity
  8
STRINGA
100
AcDbLine
 10
123.803596
 20
256.056492
 30
0.0
 11
125.353568
 21
258.741187
 31
0.0
  0
ARC
  5
D2C
100
AcDbEntity
  8
STRINGA
100
AcDbCircle
 10
124.487537
 20
259.241178
 30
0.0
 40
1.0
100
AcDbArc
 50
330.000605
 51
420.000605
  0
LINE
  5
D2D
100
AcDbEntity
  8
STRINGA
100
AcDbLine
 10
136.853358
 20
278.659893
 30
0.0
 11
138.403329
 21
281.344588
 31
0.0
  0
ARC
  5
D2E
100
AcDbEntity
  8
STRINGA
100
AcDbCircle
 10
135.987327
 20
279.159884
 30
0.0
 40
1.0
100
AcDbArc
 50
240.000605
 51
330.000605
  0
LINE
  5
D2F
100
AcDbEntity
  8
STRINGA
100
AcDbLine
 10
155.568652
 20
300.476329
 30
0.0
 11
156.568633
 21
302.20839
 31
0.0
  0
LINE
  5
D30
100
AcDbEntity
  8
STRINGA
100
AcDbLine
 10
133.582069
 20
279.393833
 30
0.0
 11
135.487336
 21
278.293853
 31
0.0
  0
LINE
  5
D31
100
AcDbEntity
  8
STRINGA
100
AcDbLine
 10
123.08226
 20
261.207189
 30
0.0
 11
124.987528
 21
260.107209
 31
0.0
  0
LINE
  5
D32
100
AcDbEntity
  8
STRINGA
100
AcDbLine
 10
134.046246
 20
272.197685
 30
0.0
 11
134.912277
 21
271.697694
 31
0.0
  0
ARC
  5
D33
100
AcDbEntity
  8
STRINGA
100
AcDbCircle
 10
135.412268
 20
272.563725
 30
0.0
 40
1.0
100
AcDbArc
 50
240.000605
 51
330.000605
  0
ARC
  5
D34
100
AcDbEntity
  8
STRINGA
100
AcDbCircle
 10
133.546255
 20
271.331655
 30
0.0
 40
1.0
100
AcDbArc
 50
60.000605
 51
150.000605
  0
LINE
  5
D35
100
AcDbEntity
  8
STRINGA
100
AcDbLine
 10
129.546328
 20
264.403409
 30
0.0
 11
130.412359
 21
263.903418
 31
0.0
  0
ARC
  5
D36
100
AcDbEntity
  8
STRINGA
100
AcDbCircle
 10
130.046319
 20
265.26944
 30
0.0
 40
1.0
100
AcDbArc
 50
150.000605
 51
240.000605
  0
LINE
  5
D37
100
AcDbEntity
  8
STRINGA
100
AcDbLine
 10
114.818101
 20
229.894215
 30
0.0
 11
117.318098
 21
234.224343
 31
0.0
  0
ARC
  5
D38
100
AcDbEntity
  8
STRINGA
100
AcDbCircle
 10
156.06872
 20
245.05002
 30
0.0
 40
10.0
100
AcDbArc
 50
0.0
 51
120.0
  0
LINE
  5
D39
100
AcDbEntity
  8
STRINGA
100
AcDbLine
 10
117.318098
 20
234.224343
 30
0.0
 11
151.06872
 21
253.710274
 31
0.0
  0
LINE
  5
D3A
100
AcDbEntity
  8
STRINGA
100
AcDbLine
 10
156.738619
 20
298.449934
 30
0.0
 11
155.568652
 21
300.476329
 31
0.0
  0
ARC
  5
D49
100
AcDbEntity
  8
PANEL
100
AcDbCircle
 10
151.340601
 20
221.153006
 30
0.0
 40
8.6
100
AcDbArc
 50
30.000605
 51
150.000605
  0
LINE
  5
D4A
100
AcDbEntity
  8
PANEL
100
AcDbLine
 10
143.892737
 20
225.452928
 30
0.0
 11
110.000333
 21
166.748131
 31
0.0
  0
ARC
  5
D4B
100
AcDbEntity
  8
PANEL
100
AcDbCircle
 10
117.448197
 20
162.44821
 30
0.0
 40
8.6
100
AcDbArc
 50
150.000605
 51
270.000605
  0
LINE
  5
D4C
100
AcDbEntity
  8
PANEL
100
AcDbLine
 10
117.448287
 20
153.84821
 30
0.0
 11
121.027859
 21
153.848248
 31
0.0
  0
LINE
  5
D4D
100
AcDbEntity
  8
PANEL
100
AcDbLine
 10
121.027859
 20
153.848248
 30
0.0
 11
121.027853
 21
154.448248
 31
0.0
  0
LINE
  5
D4E
100
AcDbEntity
  8
PANEL
100
AcDbLine
 10
121.027853
 20
154.448248
 30
0.0
 11
117.448281
 21
154.44821
 31
0.0
  0
ARC
  5
D4F
100
AcDbEntity
  8
PANEL
100
AcDbCircle
 10
117.448197
 20
162.44821
 30
0.0
 40
8.0
100
AcDbArc
 50
150.000605
 51
270.000605
  0
LINE
  5
D50
100
AcDbEntity
  8
PANEL
100
AcDbLine
 10
110.519951
 20
166.448137
 30
0.0
 11
144.412355
 21
225.152933
 31
0.0
  0
ARC
  5
D51
100
AcDbEntity
  8
PANEL
100
AcDbCircle
 10
151.340601
 20
221.153006
 30
0.0
 40
8.0
100
AcDbArc
 50
30.000605
 51
150.000605
  0
LINE
  5
D52
100
AcDbEntity
  8
PANEL
100
AcDbLine
 10
158.268762
 20
225.153079
 30
0.0
 11
160.05858
 21
222.053098
 31
0.0
  0
LINE
  5
D53
100
AcDbEntity
  8
PANEL
100
AcDbLine
 10
160.05858
 20
222.053098
 30
0.0
 11
160.578192
 21
222.353104
 31
0.0
  0
LINE
  5
D54
100
AcDbEntity
  8
PANEL
100
AcDbLine
 10
160.578192
 20
222.353104
 30
0.0
 11
158.788374
 21
225.453085
 31
0.0
  0
ARC
  5
D55
100
AcDbEntity
  8
PANEL
100
AcDbCircle
 10
151.340601
 20
296.153006
 30
0.0
 40
8.6
100
AcDbArc
 50
30.000605
 51
150.000605
  0
LINE
  5
D56
100
AcDbEntity
  8
PANEL
100
AcDbLine
 10
143.892737
 20
300.452928
 30
0.0
 11
110.000333
 21
241.748131
 31
0.0
  0
ARC
  5
D57
100
AcDbEntity
  8
PANEL
100
AcDbCircle
 10
117.448197
 20
237.44821
 30
0.0
 40
8.6
100
AcDbArc
 50
150.000605
 51
270.000605
  0
LINE
  5
D58
100
AcDbEntity
  8
PANEL
100
AcDbLine
 10
117.448287
 20
228.84821
 30
0.0
 11
121.027859
 21
228.848248
 31
0.0
  0
LINE
  5
D59
100
AcDbEntity
  8
PANEL
100
AcDbLine
 10
121.027859
 20
228.848248
 30
0.0
 11
121.027853
 21
229.448248
 31
0.0
  0
LINE
  5
D5A
100
AcDbEntity
  8
PANEL
100
AcDbLine
 10
121.027853
 20
229.448248
 30
0.0
 11
117.448281
 21
229.44821
 31
0.0
  0
ARC
  5
D5B
100
AcDbEntity
  8
PANEL
100
AcDbCircle
 10
117.448197
 20
237.44821
 30
0.0
 40
8.0
100
AcDbArc
 50
150.000605
 51
270.000605
  0
LINE
  5
D5C
100
AcDbEntity
  8
PANEL
100
AcDbLine
 10
110.519951
 20
241.448137
 30
0.0
 11
144.412355
 21
300.152933
 31
0.0
  0
ARC
  5
D5D
100
AcDbEntity
  8
PANEL
100
AcDbCircle
 10
151.340601
 20
296.153006
 30
0.0
 40
8.0
100
AcDbArc
 50
30.000605
 51
150.000605
  0
LINE
  5
D5E
100
AcDbEntity
  8
PANEL
100
AcDbLine
 10
158.268762
 20
300.153079
 30
0.0
 11
160.05858
 21
297.053098
 31
0.0
  0
LINE
  5
D5F
100
AcDbEntity
  8
PANEL
100
AcDbLine
 10
160.05858
 20
297.053098
 30
0.0
 11
160.578192
 21
297.353104
 31
0.0
  0
LINE
  5
D60
100
AcDbEntity
  8
PANEL
100
AcDbLine
 10
160.578192
 20
297.353104
 30
0.0
 11
158.788374
 21
300.453085
 31
0.0
  0
ARC
  5
D69
100
AcDbEntity
  8
PANEL
100
AcDbCircle
 10
151.340601
 20
146.153006
 30
0.0
 40
8.6
100
AcDbArc
 50
30.000605
 51
150.000605
  0
LINE
  5
D6A
100
AcDbEntity
  8
PANEL
100
AcDbLine
 10
143.892737
 20
150.452928
 30
0.0
 11
110.000333
 21
91.748131
 31
0.0
  0
ARC
  5
D6B
100
AcDbEntity
  8
PANEL
100
AcDbCircle
 10
117.448197
 20
87.44821
 30
0.0
 40
8.6
100
AcDbArc
 50
150.000605
 51
270.000605
  0
LINE
  5
D6C
100
AcDbEntity
  8
PANEL
100
AcDbLine
 10
117.448287
 20
78.84821
 30
0.0
 11
121.027859
 21
78.848248
 31
0.0
  0
LINE
  5
D6D
100
AcDbEntity
  8
PANEL
100
AcDbLine
 10
121.027859
 20
78.848248
 30
0.0
 11
121.027853
 21
79.448248
 31
0.0
  0
LINE
  5
D6E
100
AcDbEntity
  8
PANEL
100
AcDbLine
 10
121.027853
 20
79.448248
 30
0.0
 11
117.448281
 21
79.44821
 31
0.0
  0
ARC
  5
D6F
100
AcDbEntity
  8
PANEL
100
AcDbCircle
 10
117.448197
 20
87.44821
 30
0.0
 40
8.0
100
AcDbArc
 50
150.000605
 51
270.000605
  0
LINE
  5
D70
100
AcDbEntity
  8
PANEL
100
AcDbLine
 10
110.519951
 20
91.448137
 30
0.0
 11
144.412355
 21
150.152933
 31
0.0
  0
ARC
  5
D71
100
AcDbEntity
  8
PANEL
100
AcDbCircle
 10
151.340601
 20
146.153006
 30
0.0
 40
8.0
100
AcDbArc
 50
30.000605
 51
150.000605
  0
LINE
  5
D72
100
AcDbEntity
  8
PANEL
100
AcDbLine
 10
158.268762
 20
150.153079
 30
0.0
 11
160.05858
 21
147.053098
 31
0.0
  0
LINE
  5
D73
100
AcDbEntity
  8
PANEL
100
AcDbLine
 10
160.05858
 20
147.053098
 30
0.0
 11
160.578192
 21
147.353104
 31
0.0
  0
LINE
  5
D74
100
AcDbEntity
  8
PANEL
100
AcDbLine
 10
160.578192
 20
147.353104
 30
0.0
 11
158.788374
 21
150.453085
 31
0.0
  0
LINE
  5
D83
100
AcDbEntity
  8
SUNPOU
100
AcDbLine
 10
193.848197
 20
311.125
 30
0.0
 11
193.848197
 21
334.092187
 31
0.0
  0
LINE
  5
D84
100
AcDbEntity
  8
SUNPOU
100
AcDbLine
 10
108.848201
 20
244.077611
 30
0.0
 11
108.848201
 21
334.092187
 31
0.0
  0
LINE
  5
D85
100
AcDbEntity
  8
SUNPOU
100
AcDbLine
 10
193.848197
 20
332.842187
 30
0.0
 11
108.848201
 21
332.842187
 31
0.0
  0
MTEXT
  5
D86
100
AcDbEntity
  8
SUNPOU
100
AcDbMText
 10
151.348199
 20
336.467187
 30
0.0
 40
6.0
 41
0.0
 71
     5
 72
     5
  1
\A1;85
 73
     1
 44
1.0
1001
ACAD
1000
MTEXTBEGIN
1070
    73
1070
     1
1070
    44
1040
1.0
1070
    74
1070
     0
1000
MTEXTEND
  0
ARC
  5
D89
100
AcDbEntity
  8
SUNPOU
100
AcDbCircle
 10
108.848201
 20
246.766323
 30
0.0
 40
41.662819
100
AcDbArc
 50
55.172206
 51
90.0
  0
MTEXT
  5
D8A
100
AcDbEntity
  8
SUNPOU
100
AcDbMText
 10
122.36044
 20
291.892485
 30
0.0
 40
6.0
 41
0.0
 71
     5
 72
     5
  1
30
 73
     1
 44
1.0
1001
ACAD
1000
MTEXTBEGIN
1070
    73
1070
     1
1070
    44
1040
1.0
1070
    74
1070
     0
1000
MTEXTEND
  0
LINE
  5
D8C
100
AcDbEntity
  8
SUNPOU
100
AcDbLine
 10
120.402859
 20
153.848248
 30
0.0
 11
78.829602
 21
153.848248
 31
0.0
  0
LINE
  5
D8D
100
AcDbEntity
  8
SUNPOU
100
AcDbLine
 10
80.079602
 20
228.848248
 30
0.0
 11
80.079602
 21
153.848248
 31
0.0
  0
MTEXT
  5
D8E
100
AcDbEntity
  8
SUNPOU
100
AcDbMText
 10
76.454602
 20
191.348248
 30
0.0
 40
6.0
 41
0.0
 71
     5
 72
     5
  1
75
 11
0.0
 21
1.0
 31
0.0
 73
     1
 44
1.0
1001
ACAD
1000
MTEXTBEGIN
1070
    73
1070
     1
1070
    44
1040
1.0
1070
    74
1070
     0
1000
MTEXTEND
  0
LINE
  5
D8F
100
AcDbEntity
  8
SUNPOU
100
AcDbLine
 10
148.790841
 20
304.753006
 30
0.0
 11
78.829602
 21
304.753006
 31
0.0
  0
LINE
  5
D91
100
AcDbEntity
  8
SUNPOU
100
AcDbLine
 10
80.079602
 20
305.203969
 30
0.0
 11
80.079602
 21
228.848248
 31
0.0
  0
MTEXT
  5
D92
100
AcDbEntity
  8
SUNPOU
100
AcDbMText
 10
76.454602
 20
267.026109
 30
0.0
 40
6.0
 41
0.0
 71
     5
 72
     5
  1
76
 11
0.0
 21
1.0
 31
0.0
 73
     1
 44
1.0
1001
ACAD
1000
MTEXTBEGIN
1070
    73
1070
     1
1070
    44
1040
1.0
1070
    74
1070
     0
1000
MTEXTEND
  0
LINE
  5
D93
100
AcDbEntity
  8
SUNPOU
100
AcDbLine
 10
120.402859
 20
228.848248
 30
0.0
 11
78.829602
 21
228.848248
 31
0.0
  0
LINE
  5
D9C
100
AcDbEntity
  8
STRINGA
  6
CONTINUOUS
100
AcDbLine
 10
426.270666
 20
222.708005
 30
0.0
 11
426.270666
 21
239.97801
 31
0.0
  0
LINE
  5
D9D
100
AcDbEntity
  8
STRINGA
  6
HIDDEN2
100
AcDbLine
 10
424.770666
 20
222.708005
 30
0.0
 11
424.770666
 21
171.578016
 31
0.0
  0
LINE
  5
D9E
100
AcDbEntity
  8
STRINGA
  6
CONTINUOUS
100
AcDbLine
 10
389.870666
 20
222.708005
 30
0.0
 11
389.870666
 21
239.97801
 31
0.0
  0
LINE
  5
D9F
100
AcDbEntity
  8
STRINGA
  6
HIDDEN2
100
AcDbLine
 10
391.370666
 20
222.708005
 30
0.0
 11
391.370666
 21
171.578016
 31
0.0
  0
ENDSEC
  0
SECTION
  2
OBJECTS
  0
DICTIONARY
  5
C
100
AcDbDictionary
280
     0
281
     1
  3
ACAD_COLOR
350
C0E
  3
ACAD_GROUP
350
D
  3
ACAD_LAYOUT
350
C11
  3
ACAD_MATERIAL
350
C0D
  3
ACAD_MLINESTYLE
350
E
  3
ACAD_PLOTSETTINGS
350
C12
  3
ACAD_PLOTSTYLENAME
350
C0B
  3
ACAD_TABLESTYLE
350
C0F
  3
ACDBHEADERROUNDTRIPXREC
350
DB7
  3
ACDBVARIABLEDICTIONARY
350
5D
  0
DICTIONARY
  5
D
102
{ACAD_REACTORS
330
C
102
}
100
AcDbDictionary
280
     0
281
     1
  0
DICTIONARY
  5
E
102
{ACAD_REACTORS
330
C
102
}
100
AcDbDictionary
280
     0
281
     1
  3
STANDARD
350
13
  0
MLINESTYLE
  5
13
102
{ACAD_REACTORS
330
E
102
}
100
AcDbMlineStyle
  2
STANDARD
 70
     0
  3

 62
     0
 51
90.0
 52
90.0
 71
     2
 49
0.5
 62
   256
  6
ByLayer
 49
-0.5
 62
   256
  6
ByLayer
  0
DICTIONARY
  5
5D
102
{ACAD_REACTORS
330
C
102
}
100
AcDbDictionary
280
     0
281
     1
  3
CTABLESTYLE
350
D98
  3
DIMADEC
350
5E
  3
DIMASSOC
350
DB0
  3
PROJECTNAME
350
DB1
  0
DICTIONARYVAR
  5
5E
102
{ACAD_REACTORS
330
5D
102
}
100
DictionaryVariables
280
     0
  1
0
  0
ACDBDICTIONARYWDFLT
  5
C0B
102
{ACAD_REACTORS
330
C
102
}
100
AcDbDictionary
281
     1
  3
Normal
350
C0C
100
AcDbDictionaryWithDefault
340
C0C
  0
ACDBPLACEHOLDER
  5
C0C
102
{ACAD_REACTORS
330
C0B
102
}
  0
DICTIONARY
  5
C0D
102
{ACAD_REACTORS
330
C
102
}
100
AcDbDictionary
280
     0
281
     1
  0
DICTIONARY
  5
C0E
102
{ACAD_REACTORS
330
C
102
}
100
AcDbDictionary
280
     0
281
     1
  0
DICTIONARY
  5
C0F
102
{ACAD_REACTORS
330
C
102
}
100
AcDbDictionary
280
     0
281
     1
  3
Standard
350
C10
  0
ACAD_PROXY_OBJECT
  5
C10
102
{ACAD_REACTORS
330
C0F
102
}
330
C0F
100
AcDbProxyObject
 90
      499
 91
      503
 95
        0
 70
     0
 93
     1841
310
4214DD185B99185C9928000000000000F83F0000000000003E0FC00000000000004901028000000C1008070000C3001FDFF8000000C1003FBFF000000182007F7FE00000030400FEFFC00000060801FDFF8000000C1003FBFF000000182000000000000000C2020B0000001820100E000186003FBFF000000182007F7FE000
310
00030400FEFFC00000060801FDFF8000000C1003FBFF000000182007F7FE0000003040000000000000012404160000003040201C00030C007F7FE00000030400FEFFC00000060801FDFF8000000C1003FBFF000000182007F7FE00000030400FEFFC000000608000
340
10
340
10
340
10
 94
        0
  0
DICTIONARY
  5
C11
102
{ACAD_REACTORS
330
C
102
}
100
AcDbDictionary
280
     0
281
     1
  3
Model
350
C13
  3
レイアウト1
350
C14
  0
DICTIONARY
  5
C12
102
{ACAD_REACTORS
330
C
102
}
100
AcDbDictionary
280
     0
281
     1
  0
LAYOUT
  5
C13
102
{ACAD_XDICTIONARY
360
DBA
102
}
102
{ACAD_REACTORS
330
C11
102
}
100
AcDbPlotSettings
  1

  2
HP DesignJet 430 (D/A1) by HP
  4

  6

 40
0.0
 41
0.0
 42
0.0
 43
0.0
 44
0.0
 45
0.0
 46
0.0
 47
0.0
 48
0.0
 49
0.0
140
0.0
141
0.0
142
1.0
143
1.0
 70
  1712
 72
     0
 73
     0
 74
     0
  7

 75
     0
147
1.0
148
0.0
149
0.0
100
AcDbLayout
  1
Model
 70
     1
 71
     0
 10
0.0
 20
0.0
 11
12.0
 21
9.0
 12
0.0
 22
0.0
 32
0.0
 14
0.0
 24
0.0
 34
0.0
 15
0.0
 25
0.0
 35
0.0
146
0.0
 13
0.0
 23
0.0
 33
0.0
 16
1.0
 26
0.0
 36
0.0
 17
0.0
 27
1.0
 37
0.0
 76
     0
330
1A
331
0
345
0
346
0
  0
LAYOUT
  5
C14
102
{ACAD_XDICTIONARY
360
DBC
102
}
102
{ACAD_REACTORS
330
C11
102
}
100
AcDbPlotSettings
  1

  2
HP DesignJet 430 (D/A1) by HP
  4

  6

 40
0.0
 41
0.0
 42
0.0
 43
0.0
 44
0.0
 45
0.0
 46
0.0
 47
0.0
 48
0.0
 49
0.0
140
0.0
141
0.0
142
1.0
143
1.0
 70
   688
 72
     0
 73
     0
 74
     5
  7

 75
    16
147
1.0
148
0.0
149
0.0
100
AcDbLayout
  1
レイアウト1
 70
     1
 71
     1
 10
0.0
 20
0.0
 11
420.0
 21
297.0
 12
0.0
 22
0.0
 32
0.0
 14
1.000000E+20
 24
1.000000E+20
 34
1.000000E+20
 15
-1.000000E+20
 25
-1.000000E+20
 35
-1.000000E+20
146
0.0
 13
0.0
 23
0.0
 33
0.0
 16
1.0
 26
0.0
 36
0.0
 17
0.0
 27
1.0
 37
0.0
 76
     0
330
17
331
22
345
0
346
0
  0
DICTIONARY
  5
C21
100
AcDbDictionary
280
     1
281
     1
  3
ACAD_LAYERSTATES
350
C22
  0
DICTIONARY
  5
C22
102
{ACAD_REACTORS
330
C21
102
}
100
AcDbDictionary
280
     0
281
     1
  0
DICTIONARY
  5
D81
100
AcDbDictionary
280
     1
281
     1
  3
ACAD_SORTENTS
350
D82
  0
SORTENTSTABLE
  5
D82
102
{ACAD_REACTORS
330
D81
102
}
100
AcDbSortentsTable
330
1A
331
D38
  5
D4A
331
87B
  5
87B
331
CF9
  5
CFD
331
883
  5
883
331
D01
  5
D05
331
D50
  5
D54
331
A33
  5
A34
331
D09
  5
D0D
331
D8F
  5
D9D
331
D58
  5
D5C
331
A3B
  5
A3D
331
D11
  5
D15
331
D9F
  5
A35
331
D60
  5
D6C
331
CE2
  5
CE6
331
D19
  5
D1D
331
D21
  5
D25
331
CEA
  5
CEE
331
A4B
  5
A4F
331
D70
  5
D74
331
874
  5
874
331
A53
  5
A57
331
CF2
  5
CF6
331
D29
  5
D2D
331
A5B
  5
CE1
331
D31
  5
D35
331
87C
  5
87C
331
CFA
  5
CFE
331
D39
  5
D4B
331
D49
  5
D4D
331
D02
  5
D06
331
D51
  5
D55
331
A34
  5
A36
331
D0A
  5
D0E
331
D12
  5
D16
331
A3C
  5
A3E
331
CD3
  5
CE2
331
D59
  5
D5D
331
CE3
  5
CE7
331
A44
  5
A47
331
D1A
  5
D1E
331
D69
  5
D6D
331
CEB
  5
CEF
331
A4C
  5
A50
331
D22
  5
D26
331
D71
  5
D83
331
875
  5
875
331
A54
  5
A58
331
CF3
  5
CF7
331
D2A
  5
D2E
331
D32
  5
D36
331
CFB
  5
CFF
331
D3A
  5
D4C
331
D89
  5
D8E
331
D03
  5
D07
331
D4A
  5
D4E
331
D52
  5
D56
331
A35
  5
A37
331
D0B
  5
D0F
331
D91
  5
D9E
331
D5A
  5
D5E
331
CD4
  5
CE3
331
A3D
  5
A3F
331
D13
  5
D17
331
CE4
  5
CE8
331
A45
  5
A48
331
D1B
  5
D1F
331
D6A
  5
D6E
331
D23
  5
D27
331
A4D
  5
A51
331
CEC
  5
CF0
331
D72
  5
D84
331
A55
  5
A59
331
CF4
  5
CF8
331
D2B
  5
D2F
331
D33
  5
D37
331
CFC
  5
D00
331
D4B
  5
D4F
331
D04
  5
D08
331
D8A
  5
D8F
331
D92
  5
D9F
331
D0C
  5
D10
331
D53
  5
D57
331
A36
  5
A38
331
D14
  5
D18
331
A3E
  5
A40
331
CD5
  5
CE4
331
D5B
  5
D5F
331
CE5
  5
CE9
331
A46
  5
A49
331
D1C
  5
D20
331
D6B
  5
D6F
331
CED
  5
CF1
331
D24
  5
D28
331
D73
  5
D85
331
A56
  5
A5A
331
CF5
  5
CF9
331
D2C
  5
D30
331
D34
  5
D38
331
CFD
  5
D01
331
D83
  5
D88
331
D05
  5
D09
331
D4C
  5
D50
331
D54
  5
D58
331
A37
  5
A39
331
D0D
  5
D11
331
D93
  5
D92
331
D5C
  5
D60
331
A3F
  5
A42
331
D15
  5
D19
331
500
  5
500
331
D1D
  5
D21
331
CE6
  5
CEA
331
A47
  5
A4A
331
D6C
  5
D70
331
D25
  5
D29
331
CEE
  5
CF2
331
D74
  5
D86
331
A57
  5
A5B
331
CF6
  5
CFA
331
D2D
  5
D31
331
D35
  5
D39
331
880
  5
880
331
CFE
  5
D02
331
D84
  5
D8A
331
D8C
  5
D91
331
D4D
  5
D51
331
A30
  5
A30
331
D06
  5
D0A
331
D0E
  5
D12
331
D55
  5
D59
331
4F9
  5
4F9
331
A38
  5
A3A
331
D9C
  5
A4E
331
D16
  5
D1A
331
D5D
  5
D69
331
501
  5
501
331
A40
  5
A43
331
CE7
  5
CEB
331
A48
  5
A4B
331
D1E
  5
D22
331
D6D
  5
D71
331
CEF
  5
CF3
331
A50
  5
A54
331
D26
  5
D2A
331
D2E
  5
D32
331
A58
  5
CD3
331
CF7
  5
CFB
331
D36
  5
D3A
331
252
  5
252
331
879
  5
879
331
CFF
  5
D03
331
D85
  5
D8C
331
881
  5
881
331
D8D
  5
D93
331
A31
  5
A31
331
D07
  5
D0B
331
D4E
  5
D52
331
D56
  5
D5A
331
4FA
  5
4FA
331
A39
  5
A3B
331
D0F
  5
D13
331
D9D
  5
A32
331
D5E
  5
D6A
331
D17
  5
D1B
331
502
  5
502
331
A41
  5
A44
331
D1F
  5
D23
331
CE8
  5
CEC
331
A49
  5
A4C
331
D6E
  5
D72
331
872
  5
872
331
A51
  5
A55
331
CF0
  5
CF4
331
D27
  5
D2B
331
A59
  5
CD4
331
D2F
  5
D33
331
D37
  5
D49
331
87A
  5
87A
331
CF8
  5
CFC
331
882
  5
882
331
D00
  5
D04
331
D86
  5
D8D
331
D8E
  5
D9C
331
D4F
  5
D53
331
A32
  5
A33
331
D08
  5
D0C
331
D10
  5
D14
331
D57
  5
D5B
331
4FB
  5
4FB
331
A3A
  5
A3C
331
D9E
  5
A41
331
D5F
  5
D6B
331
CE1
  5
CE5
331
D18
  5
D1C
331
CE9
  5
CED
331
543
  5
543
331
A4A
  5
A4D
331
D20
  5
D24
331
D6F
  5
D73
331
873
  5
873
331
A52
  5
A56
331
CF1
  5
CF5
331
D28
  5
D2C
331
D30
  5
D34
331
A5A
  5
CD5
  0
DICTIONARYVAR
  5
D98
102
{ACAD_REACTORS
330
5D
102
}
100
DictionaryVariables
280
     0
  1
STANDARD
  0
DICTIONARYVAR
  5
DB0
102
{ACAD_REACTORS
330
5D
102
}
100
DictionaryVariables
280
     0
  1
1
  0
DICTIONARYVAR
  5
DB1
102
{ACAD_REACTORS
330
5D
102
}
100
DictionaryVariables
280
     0
  1

  0
DICTIONARY
  5
DB7
102
{ACAD_REACTORS
330
C
102
}
100
AcDbDictionary
280
     0
281
     1
  0
DICTIONARY
  5
DB8
100
AcDbDictionary
280
     1
281
     1
  3
ACAD_XREC_ROUNDTRIP
350
DB9
  0
XRECORD
  5
DB9
102
{ACAD_REACTORS
330
DB8
102
}
100
AcDbXrecord
280
     1
102
SHADEPLOT
 70
     0
  0
DICTIONARY
  5
DBA
100
AcDbDictionary
280
     1
281
     1
  3
ACAD_XREC_ROUNDTRIP
350
DBB
  0
XRECORD
  5
DBB
102
{ACAD_REACTORS
330
DBA
102
}
100
AcDbXrecord
280
     1
102
SHADEPLOT
 70
     0
102
SHADEPLOTRESLEVEL
 70
     2
102
SHADEPLOTCUSTOMDPI
 70
   300
  0
DICTIONARY
  5
DBC
100
AcDbDictionary
280
     1
281
     1
  3
ACAD_XREC_ROUNDTRIP
350
DBD
  0
XRECORD
  5
DBD
102
{ACAD_REACTORS
330
DBC
102
}
100
AcDbXrecord
280
     1
102
SHADEPLOT
 70
     0
102
SHADEPLOTRESLEVEL
 70
     2
102
SHADEPLOTCUSTOMDPI
 70
   300
  0
ENDSEC
  0
EOF
