  0
SECTION
  2
HEADER
  9
$ACADVER
  1
AC1009
  9
$INSBASE
 10
0.0
 20
0.0
 30
0.0
  9
$EXTMIN
 10
0.0000003468733212
 20
0.0000000450061179
 30
0.0
  9
$EXTMAX
 10
570.0
 20
396.0
 30
0.0
  9
$LIMMIN
 10
0.0
 20
0.0
  9
$LIMMAX
 10
570.0
 20
396.0
  9
$ORTHOMODE
 70
     0
  9
$REGENMODE
 70
     1
  9
$FILLMODE
 70
     1
  9
$QTEXTMODE
 70
     0
  9
$MIRRTEXT
 70
     1
  9
$DRAGMODE
 70
     2
  9
$LTSCALE
 40
1.333333333333333
  9
$OSMODE
 70
   255
  9
$ATTMODE
 70
     1
  9
$TEXTSIZE
 40
5.0
  9
$TRACEWID
 40
1.0
  9
$TEXTSTYLE
  7
STANDARD
  9
$CLAYER
  8
STRINGA
  9
$CELTYPE
  6
BYLAYER
  9
$CECOLOR
 62
   256
  9
$DIMSCALE
 40
1.0
  9
$DIMASZ
 40
2.5
  9
$DIMEXO
 40
0.625
  9
$DIMDLI
 40
3.75
  9
$DIMRND
 40
0.0
  9
$DIMDLE
 40
0.0
  9
$DIMEXE
 40
1.25
  9
$DIMTP
 40
0.0
  9
$DIMTM
 40
0.0
  9
$DIMTXT
 40
6.0
  9
$DIMCEN
 40
2.5
  9
$DIMTSZ
 40
0.0
  9
$DIMTOL
 70
     0
  9
$DIMLIM
 70
     0
  9
$DIMTIH
 70
     0
  9
$DIMTOH
 70
     0
  9
$DIMSE1
 70
     0
  9
$DIMSE2
 70
     0
  9
$DIMTAD
 70
     1
  9
$DIMZIN
 70
     8
  9
$DIMBLK
  1

  9
$DIMASO
 70
     1
  9
$DIMSHO
 70
     1
  9
$DIMPOST
  1

  9
$DIMAPOST
  1

  9
$DIMALT
 70
     0
  9
$DIMALTD
 70
     4
  9
$DIMALTF
 40
0.0394
  9
$DIMLFAC
 40
1.0
  9
$DIMTOFL
 70
     1
  9
$DIMTVP
 40
0.0
  9
$DIMTIX
 70
     0
  9
$DIMSOXD
 70
     0
  9
$DIMSAH
 70
     1
  9
$DIMBLK1
  1
NONE
  9
$DIMBLK2
  1
NONE
  9
$DIMSTYLE
  2
STANDARD
  9
$DIMCLRD
 70
     0
  9
$DIMCLRE
 70
     0
  9
$DIMCLRT
 70
     0
  9
$DIMTFAC
 40
1.0
  9
$DIMGAP
 40
0.625
  9
$LUNITS
 70
     2
  9
$LUPREC
 70
     4
  9
$SKETCHINC
 40
1.0
  9
$FILLETRAD
 40
13.33333333333333
  9
$AUNITS
 70
     0
  9
$AUPREC
 70
     0
  9
$MENU
  1
.
  9
$ELEVATION
 40
0.0
  9
$PELEVATION
 40
0.0
  9
$THICKNESS
 40
0.0
  9
$LIMCHECK
 70
     0
  9
$BLIPMODE
 70
     0
  9
$CHAMFERA
 40
13.33333333333333
  9
$CHAMFERB
 40
13.33333333333333
  9
$SKPOLY
 70
     1
  9
$TDCREATE
 40
2451654.610702639
  9
$TDUPDATE
 40
2455666.6727145021
  9
$TDINDWG
 40
0.3222778125
  9
$TDUSRTIMER
 40
0.3222778125
  9
$USRTIMER
 70
     1
  9
$ANGBASE
 50
0.0
  9
$ANGDIR
 70
     0
  9
$PDMODE
 70
     0
  9
$PDSIZE
 40
0.0
  9
$PLINEWID
 40
0.0
  9
$COORDS
 70
     1
  9
$SPLFRAME
 70
     0
  9
$SPLINETYPE
 70
     6
  9
$SPLINESEGS
 70
     8
  9
$ATTDIA
 70
     0
  9
$ATTREQ
 70
     1
  9
$HANDLING
 70
     1
  9
$HANDSEED
  5
9AC
  9
$SURFTAB1
 70
     6
  9
$SURFTAB2
 70
     6
  9
$SURFTYPE
 70
     6
  9
$SURFU
 70
     6
  9
$SURFV
 70
     6
  9
$UCSNAME
  2

  9
$UCSORG
 10
0.0
 20
0.0
 30
0.0
  9
$UCSXDIR
 10
1.0
 20
0.0
 30
0.0
  9
$UCSYDIR
 10
0.0
 20
1.0
 30
0.0
  9
$PUCSNAME
  2

  9
$PUCSORG
 10
0.0
 20
0.0
 30
0.0
  9
$PUCSXDIR
 10
1.0
 20
0.0
 30
0.0
  9
$PUCSYDIR
 10
0.0
 20
1.0
 30
0.0
  9
$USERI1
 70
     0
  9
$USERI2
 70
     0
  9
$USERI3
 70
     0
  9
$USERI4
 70
     0
  9
$USERI5
 70
     0
  9
$USERR1
 40
0.0
  9
$USERR2
 40
0.0
  9
$USERR3
 40
0.0
  9
$USERR4
 40
0.0
  9
$USERR5
 40
0.0
  9
$WORLDVIEW
 70
     1
  9
$SHADEDGE
 70
     3
  9
$SHADEDIF
 70
    70
  9
$TILEMODE
 70
     1
  9
$MAXACTVP
 70
    48
  9
$PLIMCHECK
 70
     0
  9
$PEXTMIN
 10
1.0000000000000000E+020
 20
1.0000000000000000E+020
 30
1.0000000000000000E+020
  9
$PEXTMAX
 10
-1.0000000000000000E+020
 20
-1.0000000000000000E+020
 30
-1.0000000000000000E+020
  9
$PLIMMIN
 10
0.0
 20
0.0
  9
$PLIMMAX
 10
420.0
 20
297.0
  9
$UNITMODE
 70
     0
  9
$VISRETAIN
 70
     1
  9
$PLINEGEN
 70
     0
  9
$PSLTSCALE
 70
     1
  0
ENDSEC
  0
SECTION
  2
TABLES
  0
TABLE
  2
VPORT
 70
     2
  0
VPORT
  2
*ACTIVE
 70
     0
 10
0.0
 20
0.0
 11
1.0
 21
1.0
 12
284.96637363118231
 22
198.0158858915006
 13
0.0
 23
0.0
 14
13.0
 24
13.0
 15
13.0
 25
13.0
 16
0.0
 26
0.0
 36
1.0
 17
0.0
 27
0.0
 37
0.0
 40
398.84595572899872
 41
1.6390134529147979
 42
50.0
 43
0.0
 44
0.0
 50
0.0
 51
0.0
 71
     0
 72
   100
 73
     1
 74
     0
 75
     0
 76
     0
 77
     0
 78
     0
  0
ENDTAB
  0
TABLE
  2
LTYPE
 70
     3
  0
LTYPE
  2
CONTINUOUS
 70
     0
  3
Solid line
 72
    65
 73
     0
 40
0.0
  0
LTYPE
  2
HIDDEN2
 70
     0
  3
Hidden (.5x) _ _ _ _ _ _ _ _ _ _ _ _ _ _ _ _ _
 72
    65
 73
     2
 40
4.7624999999999993
 49
3.1749999999999989
 49
-1.587499999999999
  0
LTYPE
  2
DASHED2
 70
     0
  3
Dashed (.5x) _ _ _ _ _ _ _ _ _ _ _ _ _ _ _ _ _
 72
    65
 73
     2
 40
9.5249999999999986
 49
6.3499999999999988
 49
-3.1749999999999989
  0
ENDTAB
  0
TABLE
  2
LAYER
 70
     6
  0
LAYER
  2
0
 70
     0
 62
     7
  6
CONTINUOUS
  0
LAYER
  2
STRINGA
 70
     0
 62
     7
  6
CONTINUOUS
  0
LAYER
  2
WAKU
 70
     0
 62
     4
  6
CONTINUOUS
  0
LAYER
  2
PANEL
 70
     0
 62
     6
  6
CONTINUOUS
  0
LAYER
  2
SUNPOU
 70
     0
 62
     3
  6
CONTINUOUS
  0
LAYER
  2
DEFPOINTS
 70
     0
 62
     7
  6
CONTINUOUS
  0
ENDTAB
  0
TABLE
  2
STYLE
 70
     1
  0
STYLE
  2
STANDARD
 70
     0
 40
6.0
 41
1.0
 50
0.0
 71
     0
 42
5.0
  3
txt.shx
  4
bigfont.shx
  0
ENDTAB
  0
TABLE
  2
VIEW
 70
     0
  0
ENDTAB
  0
TABLE
  2
UCS
 70
     0
  0
ENDTAB
  0
TABLE
  2
APPID
 70
     2
  0
APPID
  2
ACAD
 70
     0
  0
APPID
  2
ACAD_PSEXT
 70
     0
  0
ENDTAB
  0
TABLE
  2
DIMSTYLE
 70
     1
  0
DIMSTYLE
  2
STANDARD
 70
     0
  3

  4

  5

  6

  7

 40
1.0
 41
2.5
 42
0.625
 43
3.75
 44
1.25
 45
0.0
 46
0.0
 47
0.0
 48
0.0
140
2.5
141
2.5
142
0.0
143
0.0394
144
1.0
145
0.0
146
1.0
147
0.625
 71
     0
 72
     0
 73
     0
 74
     0
 75
     0
 76
     0
 77
     1
 78
     8
170
     0
171
     4
172
     1
173
     0
174
     0
175
     0
176
     0
177
     0
178
     0
  0
ENDTAB
  0
ENDSEC
  0
SECTION
  2
BLOCKS
  0
BLOCK
  8
0
  2
$MODEL_SPACE
 70
     0
 10
0.0
 20
0.0
 30
0.0
  3
$MODEL_SPACE
  1

  0
ENDBLK
  5
1C
  8
0
  0
BLOCK
 67
     1
  8
0
  2
$PAPER_SPACE
 70
     0
 10
0.0
 20
0.0
 30
0.0
  3
$PAPER_SPACE
  1

  0
ENDBLK
  5
19
 67
     1
  8
0
  0
BLOCK
  8
0
  2
_NONE
 70
     0
 10
0.0
 20
0.0
 30
0.0
  3
_NONE
  1

  0
CIRCLE
  5
296
  8
0
  6
BYBLOCK
 62
     0
 10
0.0
 20
0.0
 30
0.0
 40
0.25
  0
ENDBLK
  5
297
  8
0
  0
BLOCK
  8
0
  2
*U1
 70
     1
 10
0.0
 20
0.0
 30
0.0
  3
*U1
  1

  0
TEXT
  5
98D
  8
SUNPOU
 10
399.57066241960791
 20
254.60304684056041
 30
0.0
 40
6.0
  1
30.4
  0
ENDBLK
  5
98F
  8
0
  0
BLOCK
  8
0
  2
*U2
 70
     1
 10
0.0
 20
0.0
 30
0.0
  3
*U2
  1

  0
TEXT
  5
991
  8
SUNPOU
 10
342.44568527042929
 20
207.47804684056129
 30
0.0
 40
6.0
  1
53
 50
90.0
  0
ENDBLK
  5
993
  8
0
  0
BLOCK
  8
0
  2
*U3
 70
     1
 10
0.0
 20
0.0
 30
0.0
  3
*U3
  1

  0
TEXT
  5
995
  8
SUNPOU
 10
399.07066241960791
 20
171.60304684056209
 30
0.0
 40
6.0
  1
36.4
  0
ENDBLK
  5
997
  8
0
  0
BLOCK
  8
0
  2
*U4
 70
     1
 10
0.0
 20
0.0
 30
0.0
  3
*U4
  1

  0
TEXT
  5
999
  8
SUNPOU
 10
162.3480902325864
 20
374.06969743191382
 30
0.0
 40
6.0
  1
53
  0
ENDBLK
  5
99B
  8
0
  0
BLOCK
  8
0
  2
*U5
 70
     1
 10
0.0
 20
0.0
 30
0.0
  3
*U5
  1

  0
TEXT
  5
99D
  8
SUNPOU
 10
110.2231888425106
 20
192.77750465326679
 30
0.0
 40
6.0
  1
158
 50
90.0
  0
ENDBLK
  5
99F
  8
0
  0
BLOCK
  8
0
  2
*U6
 70
     1
 10
0.0
 20
0.0
 30
0.0
  3
*U6
  1

  0
TEXT
  5
9A1
  8
SUNPOU
 10
125.2231888425106
 20
273.77750560694108
 30
0.0
 40
6.0
  1
84
 50
90.0
  0
ENDBLK
  5
9A3
  8
0
  0
BLOCK
  8
0
  2
*U7
 70
     1
 10
0.0
 20
0.0
 30
0.0
  3
*U7
  1

  0
TEXT
  5
9A5
  8
SUNPOU
 10
125.2231888425106
 20
194.77750560694099
 30
0.0
 40
6.0
  1
74
 50
90.0
  0
ENDBLK
  5
9A7
  8
0
  0
ENDSEC
  0
SECTION
  2
ENTITIES
  0
LINE
  5
1C3
  8
WAKU
  6
CONTINUOUS
 10
5.0000003468733212
 20
25.000000045006121
 30
0.0
 11
565.0
 21
25.000000045006121
 31
0.0
  0
LINE
  5
1C4
  8
WAKU
  6
CONTINUOUS
 10
5.0000003468733212
 20
5.0000000450061171
 30
0.0
 11
565.0
 21
5.0000000450061179
 31
0.0
  0
LINE
  5
1CB
  8
WAKU
  6
CONTINUOUS
 10
195.00000034687329
 20
5.0000000450061171
 30
0.0
 11
195.00000034687341
 21
25.000000045006129
 31
0.0
  0
POLYLINE
  5
252
  8
WAKU
 66
     1
 10
0.0
 20
0.0
 30
0.0
 70
     1
  0
VERTEX
  5
987
  8
WAKU
 10
0.0000003468733212
 20
0.0000000450061179
 30
0.0
  0
VERTEX
  5
988
  8
WAKU
 10
570.0
 20
0.0000000450061179
 30
0.0
  0
VERTEX
  5
989
  8
WAKU
 10
570.0
 20
396.0
 30
0.0
  0
VERTEX
  5
98A
  8
WAKU
 10
0.0000003468733212
 20
396.0
 30
0.0
  0
SEQEND
  5
98B
  8
WAKU
  0
LINE
  5
255
  8
WAKU
 10
5.0000003468733212
 20
5.0000000450061171
 30
0.0
 11
5.0000003468733212
 21
391.00000000000011
 31
0.0
  0
LINE
  5
256
  8
WAKU
 10
5.0000003468733212
 20
391.00000000000011
 30
0.0
 11
565.0
 21
391.0
 31
0.0
  0
LINE
  5
257
  8
WAKU
 10
565.0
 20
391.0
 30
0.0
 11
565.0
 21
5.0000000450061171
 31
0.0
  0
TEXT
  5
4CC
  8
WAKU
 10
15.000000346873319
 20
8.0000000450061162
 30
0.0
 40
12.0
  1
ビルパネ　PS-158
  0
LINE
  5
515
  8
PANEL
  6
CONTINUOUS
 10
358.07066238224581
 20
185.97804684056209
 30
0.0
 11
458.07066238224559
 21
185.97804684056209
 31
0.0
  0
LINE
  5
516
  8
PANEL
  6
DASHED2
 10
358.07066238224581
 20
186.57804684056211
 30
0.0
 11
458.07066238224559
 21
186.57804684056211
 31
0.0
  0
LINE
  5
517
  8
PANEL
  6
CONTINUOUS
 10
358.07066238224581
 20
201.97804684056209
 30
0.0
 11
458.07066238224559
 21
201.97804684056209
 31
0.0
  0
LINE
  5
518
  8
STRINGA
  6
CONTINUOUS
 10
394.37066241960798
 20
217.47804684056089
 30
0.0
 11
391.17066241960788
 21
217.4780468405603
 31
0.0
  0
LINE
  5
519
  8
STRINGA
  6
CONTINUOUS
 10
423.2706624196079
 20
238.97804684056041
 30
0.0
 11
392.87066241960792
 21
238.97804684056041
 31
0.0
  0
LINE
  5
51A
  8
STRINGA
  6
CONTINUOUS
 10
392.87066241960792
 20
238.97804684056041
 30
0.0
 11
392.8706624196081
 21
218.97804684056189
 31
0.0
  0
LINE
  5
51B
  8
STRINGA
  6
CONTINUOUS
 10
391.17066241960788
 20
217.4780468405603
 30
0.0
 11
391.17066241960788
 21
201.97804684056209
 31
0.0
  0
LINE
  5
51C
  8
STRINGA
  6
CONTINUOUS
 10
389.87066241960798
 20
218.97804684056109
 30
0.0
 11
389.87066241960832
 21
201.9780468405622
 31
0.0
  0
LINE
  5
51D
  8
STRINGA
  6
HIDDEN2
 10
391.17066241960811
 20
201.97804684056209
 30
0.0
 11
391.17066241960799
 21
186.57804684056211
 31
0.0
  0
LINE
  5
51E
  8
STRINGA
  6
HIDDEN2
 10
389.87066241960798
 20
195.478046840562
 30
0.0
 11
389.87066241960781
 21
201.97804684056209
 31
0.0
  0
LINE
  5
51F
  8
STRINGA
  6
HIDDEN2
 10
388.17066241960799
 20
195.47804684056041
 30
0.0
 11
388.17066241960799
 21
193.97804684056049
 31
0.0
  0
LINE
  5
520
  8
STRINGA
  6
HIDDEN2
 10
389.87066241960798
 20
193.97804684056049
 30
0.0
 11
388.17066241960799
 21
193.97804684056041
 31
0.0
  0
LINE
  5
521
  8
STRINGA
  6
HIDDEN2
 10
389.87066241960798
 20
195.47804684056041
 30
0.0
 11
388.17066241960799
 21
195.47804684056041
 31
0.0
  0
LINE
  5
522
  8
STRINGA
  6
HIDDEN2
 10
391.17066241960788
 20
186.57804684056339
 30
0.0
 11
389.87066241960781
 21
186.57804684056029
 31
0.0
  0
LINE
  5
523
  8
STRINGA
  6
HIDDEN2
 10
389.87066241960798
 20
193.97804684056089
 30
0.0
 11
389.87066241960798
 21
186.57804684056211
 31
0.0
  0
LINE
  5
524
  8
STRINGA
  6
CONTINUOUS
 10
392.8706624196081
 20
218.97804684056189
 30
0.0
 11
389.87066241960798
 21
218.97804684056109
 31
0.0
  0
LINE
  5
525
  8
STRINGA
  6
CONTINUOUS
 10
423.2706624196079
 20
238.97804684056041
 30
0.0
 11
423.27066241960779
 21
218.97804684055981
 31
0.0
  0
LINE
  5
526
  8
STRINGA
  6
CONTINUOUS
 10
419.77066241960779
 20
230.97804684056231
 30
0.0
 11
419.77066241960779
 21
229.97804684056109
 31
0.0
  0
LINE
  5
527
  8
STRINGA
  6
CONTINUOUS
 10
396.37066241960798
 20
230.9780468405616
 30
0.0
 11
396.37066241960798
 21
229.97804684056271
 31
0.0
  0
LINE
  5
528
  8
STRINGA
  6
CONTINUOUS
 10
426.2706624196079
 20
218.97804684056041
 30
0.0
 11
423.27066241960779
 21
218.97804684055981
 31
0.0
  0
LINE
  5
529
  8
STRINGA
  6
HIDDEN2
 10
426.2706624196079
 20
186.57804684056211
 30
0.0
 11
424.97066241960778
 21
186.5780468405631
 31
0.0
  0
LINE
  5
52A
  8
STRINGA
  6
CONTINUOUS
 10
424.97066241960778
 20
217.4780468405599
 30
0.0
 11
424.97066241960789
 21
201.97804684056209
 31
0.0
  0
LINE
  5
52B
  8
STRINGA
  6
HIDDEN2
 10
424.97066241960778
 20
201.97804684056209
 30
0.0
 11
424.97066241960778
 21
186.57804684056211
 31
0.0
  0
LINE
  5
52C
  8
STRINGA
  6
CONTINUOUS
 10
394.37066241960792
 20
229.97804684056291
 30
0.0
 11
394.37066241960798
 21
217.47804684056089
 31
0.0
  0
LINE
  5
52D
  8
STRINGA
  6
CONTINUOUS
 10
396.37066241960792
 20
229.9780468405603
 30
0.0
 11
394.37066241960792
 21
229.97804684056041
 31
0.0
  0
LINE
  5
52E
  8
STRINGA
  6
CONTINUOUS
 10
421.7706624196079
 20
229.97804684056089
 30
0.0
 11
421.77066241960767
 21
217.47804684055981
 31
0.0
  0
LINE
  5
52F
  8
STRINGA
  6
CONTINUOUS
 10
424.97066241960778
 20
217.4780468405599
 30
0.0
 11
421.77066241960767
 21
217.47804684055981
 31
0.0
  0
LINE
  5
530
  8
STRINGA
  6
CONTINUOUS
 10
421.7706624196079
 20
229.97804684056041
 30
0.0
 11
419.77066241960779
 21
229.9780468405603
 31
0.0
  0
LINE
  5
531
  8
STRINGA
  6
CONTINUOUS
 10
426.2706624196079
 20
218.97804684056041
 30
0.0
 11
426.2706624196079
 21
201.97804684056209
 31
0.0
  0
LINE
  5
532
  8
STRINGA
  6
HIDDEN2
 10
426.27066241960802
 20
195.47804684055961
 30
0.0
 11
426.27066241960853
 21
201.97804684056209
 31
0.0
  0
LINE
  5
533
  8
STRINGA
  6
HIDDEN2
 10
427.97066241960778
 20
195.47804684056041
 30
0.0
 11
427.97066241960778
 21
193.97804684056049
 31
0.0
  0
LINE
  5
534
  8
STRINGA
  6
HIDDEN2
 10
427.97066241960778
 20
193.97804684056041
 30
0.0
 11
426.2706624196079
 21
193.97804684056049
 31
0.0
  0
LINE
  5
535
  8
STRINGA
  6
HIDDEN2
 10
427.97066241960778
 20
195.47804684056041
 30
0.0
 11
426.2706624196079
 21
195.47804684056041
 31
0.0
  0
LINE
  5
536
  8
STRINGA
  6
HIDDEN2
 10
426.27066241960802
 20
193.97804684056041
 30
0.0
 11
426.2706624196079
 21
186.57804684056211
 31
0.0
  0
LINE
  5
537
  8
STRINGA
  6
CONTINUOUS
 10
421.77066241960767
 20
237.47804684056041
 30
0.0
 11
394.37066241960792
 21
237.47804684056021
 31
0.0
  0
LINE
  5
538
  8
STRINGA
  6
CONTINUOUS
 10
396.37066241960792
 20
230.97804684056049
 30
0.0
 11
394.37066241960792
 21
230.97804684056041
 31
0.0
  0
LINE
  5
539
  8
STRINGA
  6
CONTINUOUS
 10
394.37066241960792
 20
237.47804684056021
 30
0.0
 11
394.37066241960792
 21
230.97804684056149
 31
0.0
  0
LINE
  5
53A
  8
STRINGA
  6
CONTINUOUS
 10
421.77066241960767
 20
237.47804684056041
 30
0.0
 11
421.7706624196079
 21
230.97804684056231
 31
0.0
  0
LINE
  5
53B
  8
STRINGA
  6
CONTINUOUS
 10
421.7706624196079
 20
230.97804684056041
 30
0.0
 11
419.77066241960779
 21
230.97804684056049
 31
0.0
  0
LINE
  5
620
  8
STRINGA
  6
CONTINUOUS
 10
193.8480911862606
 20
357.77750465326687
 30
0.0
 11
193.84809118626089
 21
41.777504653266931
 31
0.0
  0
LINE
  5
6A7
  8
SUNPOU
 10
392.87066241960792
 20
239.60304684056049
 30
0.0
 11
392.87066241960792
 21
255.22804684056049
 31
0.0
  0
LINE
  5
6A8
  8
SUNPOU
 10
423.2706624196079
 20
239.60304684056049
 30
0.0
 11
423.2706624196079
 21
255.22804684056049
 31
0.0
  0
LINE
  5
6A9
  8
SUNPOU
 10
392.87066241960792
 20
253.97804684056041
 30
0.0
 11
423.2706624196079
 21
253.97804684056041
 31
0.0
  0
INSERT
  5
6AA
  8
STRINGA
  2
*U1
 10
0.0
 20
0.0
 30
0.0
  0
LINE
  5
6AE
  8
SUNPOU
 10
357.44566238224581
 20
185.97804684056209
 30
0.0
 11
341.82068527042929
 21
185.97804684056209
 31
0.0
  0
LINE
  5
6AF
  8
SUNPOU
 10
392.24566241960792
 20
238.97804684056041
 30
0.0
 11
341.82068527042929
 21
238.97804684056041
 31
0.0
  0
LINE
  5
6B0
  8
SUNPOU
 10
343.07068527042929
 20
185.97804684056209
 30
0.0
 11
343.07068527042929
 21
238.97804684056041
 31
0.0
  0
INSERT
  5
6B1
  8
STRINGA
  2
*U2
 10
0.0
 20
0.0
 30
0.0
  0
POINT
  5
6B2
  8
DEFPOINTS
  6
BYBLOCK
 62
     0
 10
358.07066238224581
 20
185.97804684056209
 30
0.0
  0
LINE
  5
6B5
  8
SUNPOU
 10
389.87066241960798
 20
185.95304684056219
 30
0.0
 11
389.87066241960798
 21
169.72804684056209
 31
0.0
  0
LINE
  5
6B6
  8
SUNPOU
 10
426.2706624196079
 20
185.95304684056219
 30
0.0
 11
426.2706624196079
 21
169.72804684056209
 31
0.0
  0
LINE
  5
6B7
  8
SUNPOU
 10
389.87066241960798
 20
170.97804684056209
 30
0.0
 11
426.2706624196079
 21
170.97804684056209
 31
0.0
  0
INSERT
  5
6B8
  8
STRINGA
  2
*U3
 10
0.0
 20
0.0
 30
0.0
  0
LINE
  5
6BC
  8
SUNPOU
 10
140.848089278912
 20
317.10646044743038
 30
0.0
 11
140.848089278912
 21
374.69469743191382
 31
0.0
  0
LINE
  5
6BD
  8
SUNPOU
 10
193.84809118626069
 20
359.86408981963791
 30
0.0
 11
193.84809118626069
 21
374.69469743191382
 31
0.0
  0
LINE
  5
6BE
  8
SUNPOU
 10
140.848089278912
 20
373.44469743191382
 30
0.0
 11
193.84809118626069
 21
373.44469743191382
 31
0.0
  0
INSERT
  5
6BF
  8
STRINGA
  2
*U4
 10
0.0
 20
0.0
 30
0.0
  0
LINE
  5
6C3
  8
SUNPOU
 10
140.22309118626069
 20
278.77750465326687
 30
0.0
 11
109.5981888425106
 21
278.77750465326687
 31
0.0
  0
LINE
  5
6C4
  8
SUNPOU
 10
140.22309118626069
 20
120.7775046532667
 30
0.0
 11
109.5981888425106
 21
120.7775046532667
 31
0.0
  0
LINE
  5
6C5
  8
SUNPOU
 10
110.8481888425105
 20
278.77750465326687
 30
0.0
 11
110.8481888425105
 21
120.7775046532667
 31
0.0
  0
INSERT
  5
6C6
  8
STRINGA
  2
*U5
 10
0.0
 20
0.0
 30
0.0
  0
LINE
  5
6CA
  8
SUNPOU
 10
148.22309118626069
 20
320.77750656061539
 30
0.0
 11
124.5981888425106
 21
320.77750656061539
 31
0.0
  0
LINE
  5
6CB
  8
SUNPOU
 10
148.22309118626069
 20
236.7775046532667
 30
0.0
 11
124.5981888425106
 21
236.7775046532667
 31
0.0
  0
LINE
  5
6CC
  8
SUNPOU
 10
125.8481888425106
 20
320.77750656061539
 30
0.0
 11
125.8481888425106
 21
236.7775046532667
 31
0.0
  0
INSERT
  5
6CD
  8
STRINGA
  2
*U6
 10
0.0
 20
0.0
 30
0.0
  0
LINE
  5
6D1
  8
SUNPOU
 10
148.22309118626069
 20
236.7775046532667
 30
0.0
 11
124.5981888425106
 21
236.7775046532667
 31
0.0
  0
LINE
  5
6D2
  8
SUNPOU
 10
148.22309118626069
 20
162.77750656061531
 30
0.0
 11
124.5981888425106
 21
162.77750656061531
 31
0.0
  0
LINE
  5
6D3
  8
SUNPOU
 10
125.8481888425106
 20
236.7775046532667
 30
0.0
 11
125.8481888425106
 21
162.77750656061519
 31
0.0
  0
INSERT
  5
6D4
  8
STRINGA
  2
*U7
 10
0.0
 20
0.0
 30
0.0
  0
LINE
  5
836
  8
STRINGA
 10
160.8480911862649
 20
174.7775046532671
 30
0.0
 11
160.8480911862649
 21
150.77750465326599
 31
0.0
  0
LINE
  5
837
  8
STRINGA
 10
141.44809118626489
 20
152.53448118631431
 30
0.0
 11
141.44809118626489
 21
132.2775836215736
 31
0.0
  0
ARC
  5
838
  8
STRINGA
 10
150.94809118626489
 20
152.53448118631439
 30
0.0
 40
9.5
 50
90.0
 51
180.0
  0
LINE
  5
839
  8
STRINGA
 10
150.94809118626489
 20
162.03448118631431
 30
0.0
 11
150.94809118626489
 21
150.77750465326619
 31
0.0
  0
ARC
  5
83A
  8
STRINGA
 10
152.94809118626489
 20
150.77750465326619
 30
0.0
 40
2.0
 50
180.0
 51
270.0
  0
LINE
  5
83B
  8
STRINGA
 10
160.84809118626151
 20
90.777504653267812
 30
0.0
 11
160.84809118626151
 21
66.777504653266675
 31
0.0
  0
ARC
  5
83C
  8
STRINGA
 10
150.94809118626489
 20
89.020528120219254
 30
0.0
 40
9.5
 50
180.0
 51
270.0
  0
LINE
  5
83D
  8
STRINGA
 10
150.94809118626489
 20
90.777504653267584
 30
0.0
 11
150.94809118626489
 21
79.520528120219211
 31
0.0
  0
ARC
  5
83E
  8
STRINGA
 10
152.94809118626489
 20
90.777504653267627
 30
0.0
 40
2.0
 50
90.0
 51
180.0
  0
LINE
  5
83F
  8
STRINGA
 10
141.44809118938289
 20
109.2775046595028
 30
0.0
 11
141.44809118626489
 21
89.020528120219211
 31
0.0
  0
ARC
  5
840
  8
STRINGA
 10
142.44809118314689
 20
132.2775046532667
 30
0.0
 40
1.0
 50
179.99547544929001
 51
269.99999999998698
  0
LINE
  5
841
  8
STRINGA
 10
142.44809118314669
 20
131.2775046532667
 30
0.0
 11
144.64809118314699
 21
131.27750465326639
 31
0.0
  0
LINE
  5
842
  8
STRINGA
 10
145.64809118314699
 20
135.37750465326661
 30
0.0
 11
145.64809118314699
 21
132.27750465326639
 31
0.0
  0
ARC
  5
843
  8
STRINGA
 10
144.64809118314651
 20
132.2775046532665
 30
0.0
 40
1.0
 50
270.0
 51
0.0000000000130346
  0
ARC
  5
844
  8
STRINGA
 10
147.0480911831466
 20
135.37750465326661
 30
0.0
 40
1.399999999999987
 50
0.0000000000130346
 51
180.0000000000131
  0
LINE
  5
845
  8
STRINGA
 10
148.44809118314669
 20
135.37750465326661
 30
0.0
 11
148.44809119252409
 21
126.27750466264401
 31
0.0
  0
ARC
  5
846
  8
STRINGA
 10
147.44809119252429
 20
126.2775046626443
 30
0.0
 40
1.0
 50
269.99999999998698
 51
0.000000000000007
  0
LINE
  5
847
  8
STRINGA
 10
146.4480911831472
 20
125.2775046532669
 30
0.0
 11
147.44809119252409
 21
125.27750466264401
 31
0.0
  0
ARC
  5
848
  8
STRINGA
 10
146.44809118314689
 20
124.2775046532667
 30
0.0
 40
1.0
 50
90.0
 51
180.0
  0
LINE
  5
849
  8
STRINGA
 10
145.4480911831472
 20
124.2775046532667
 30
0.0
 11
145.44809118314669
 21
117.2775046532666
 31
0.0
  0
ARC
  5
84A
  8
STRINGA
 10
146.44809118314669
 20
117.2775046532667
 30
0.0
 40
1.0
 50
180.0
 51
270.0
  0
LINE
  5
84B
  8
STRINGA
 10
146.44809118314669
 20
116.2775046532666
 30
0.0
 11
147.44809118314669
 21
116.2775046532669
 31
0.0
  0
LINE
  5
84C
  8
STRINGA
 10
148.44809118314669
 20
115.2775046532669
 30
0.0
 11
148.44809118314669
 21
106.17750465326669
 31
0.0
  0
ARC
  5
84D
  8
STRINGA
 10
147.44809118314689
 20
115.2775046532669
 30
0.0
 40
1.0
 50
0.000000000000007
 51
90.0
  0
ARC
  5
84E
  8
STRINGA
 10
142.44809118938289
 20
109.2775046595029
 30
0.0
 40
1.0
 50
90.0
 51
180.0
  0
LINE
  5
84F
  8
STRINGA
 10
145.64809118412111
 20
109.2775046542407
 30
0.0
 11
145.64809118314679
 21
106.17750465326669
 31
0.0
  0
ARC
  5
850
  8
STRINGA
 10
144.64809118412111
 20
109.277504654241
 30
0.0
 40
1.0
 50
0.000000000000007
 51
89.999999888340867
  0
ARC
  5
851
  8
STRINGA
 10
147.0480911831466
 20
106.17750465326699
 30
0.0
 40
1.400000000000067
 50
180.0000000000131
 51
0.000000000000007
  0
LINE
  5
852
  8
STRINGA
 10
142.44809118938269
 20
110.2775046595028
 30
0.0
 11
144.6480911860701
 21
110.2775046542409
 31
0.0
  0
LINE
  5
853
  8
STRINGA
 10
160.84809118626151
 20
66.777504653266675
 30
0.0
 11
161.1480911862615
 21
66.777504653266675
 31
0.0
  0
LINE
  5
854
  8
STRINGA
 10
152.94809118626489
 20
148.77750465326619
 30
0.0
 11
158.8480911862649
 21
148.77750465326599
 31
0.0
  0
ARC
  5
855
  8
STRINGA
 10
158.8480911862649
 20
150.77750465326599
 30
0.0
 40
2.0
 50
270.0
 51
0.000000000000007
  0
LINE
  5
856
  8
STRINGA
 10
152.94809118626489
 20
92.777504653267584
 30
0.0
 11
158.8480911862649
 21
92.777504653267798
 31
0.0
  0
ARC
  5
857
  8
STRINGA
 10
158.8480911862649
 20
90.777504653267854
 30
0.0
 40
2.0
 50
0.000000000000007
 51
90.0
  0
ARC
  5
858
  8
PANEL
 10
149.44809118626509
 20
154.1775046532666
 30
0.0
 40
8.6000000000000032
 50
60.000000000000071
 51
180.0
  0
LINE
  5
859
  8
PANEL
 10
140.84809118626501
 20
154.1775046532666
 30
0.0
 11
140.84809118626501
 21
87.377504653266826
 31
0.0
  0
ARC
  5
85A
  8
PANEL
 10
149.44809118626509
 20
87.377504653266826
 30
0.0
 40
8.6000000000001364
 50
180.0
 51
300.0
  0
LINE
  5
85B
  8
PANEL
 10
153.7480911862651
 20
79.929686180720608
 30
0.0
 11
156.84809118626501
 21
81.719472015208538
 31
0.0
  0
LINE
  5
85C
  8
PANEL
 10
156.84809118626501
 20
81.719472015208538
 30
0.0
 11
156.548091186265
 21
82.239087257479213
 31
0.0
  0
LINE
  5
85D
  8
PANEL
 10
156.548091186265
 20
82.239087257479213
 30
0.0
 11
153.44809118626489
 21
80.449301422991354
 31
0.0
  0
ARC
  5
85E
  8
PANEL
 10
149.44809118626489
 20
87.377504653266826
 30
0.0
 40
7.9999999999999671
 50
180.0
 51
300.0
  0
LINE
  5
85F
  8
PANEL
 10
141.44809118626489
 20
87.377504653266826
 30
0.0
 11
141.44809118626489
 21
154.17750465326671
 31
0.0
  0
ARC
  5
860
  8
PANEL
 10
149.44809118626489
 20
154.17750465326671
 30
0.0
 40
8.0
 50
60.000000000000071
 51
180.0
  0
LINE
  5
861
  8
PANEL
 10
153.44809118626489
 20
161.10570788354229
 30
0.0
 11
156.54809118626531
 21
159.31592204905431
 31
0.0
  0
LINE
  5
862
  8
PANEL
 10
156.54809118626531
 20
159.31592204905431
 30
0.0
 11
156.84809118626501
 21
159.83553729132501
 31
0.0
  0
LINE
  5
863
  8
PANEL
 10
156.84809118626501
 20
159.83553729132501
 30
0.0
 11
153.7480911862651
 21
161.6253231258128
 31
0.0
  0
LINE
  5
864
  8
STRINGA
 10
150.94809118626489
 20
162.03448118631431
 30
0.0
 11
150.94809118626489
 21
79.520528120219268
 31
0.0
  0
LINE
  5
865
  8
STRINGA
 10
149.44809118626239
 20
161.91531270596079
 30
0.0
 11
149.44809118626239
 21
79.639696600572819
 31
0.0
  0
LINE
  5
866
  8
STRINGA
 10
160.8480911862649
 20
174.7775046532671
 30
0.0
 11
161.1480911862615
 21
174.7775046532671
 31
0.0
  0
LINE
  5
867
  8
STRINGA
 10
161.1480911862615
 20
224.7775046532667
 30
0.0
 11
161.1480911862615
 21
174.7775046532671
 31
0.0
  0
LINE
  5
868
  8
STRINGA
 10
160.84809118626151
 20
224.7775046532667
 30
0.0
 11
161.1480911862615
 21
224.7775046532667
 31
0.0
  0
LINE
  5
904
  8
STRINGA
 10
160.8480911862649
 20
332.77750465326721
 30
0.0
 11
160.8480911862649
 21
308.77750465326602
 31
0.0
  0
LINE
  5
905
  8
STRINGA
 10
141.44809118626489
 20
310.53448118631439
 30
0.0
 11
141.44809118626489
 21
290.27758362157368
 31
0.0
  0
ARC
  5
906
  8
STRINGA
 10
150.94809118626489
 20
310.53448118631439
 30
0.0
 40
9.5
 50
90.0
 51
180.0
  0
LINE
  5
907
  8
STRINGA
 10
150.94809118626489
 20
320.03448118631439
 30
0.0
 11
150.94809118626489
 21
308.77750465326631
 31
0.0
  0
ARC
  5
908
  8
STRINGA
 10
152.94809118626489
 20
308.77750465326631
 30
0.0
 40
2.0
 50
180.0
 51
270.0
  0
LINE
  5
909
  8
STRINGA
 10
160.84809118626151
 20
248.7775046532679
 30
0.0
 11
160.84809118626151
 21
224.7775046532667
 31
0.0
  0
ARC
  5
90A
  8
STRINGA
 10
150.94809118626489
 20
247.0205281202193
 30
0.0
 40
9.5
 50
180.0
 51
270.0
  0
LINE
  5
90B
  8
STRINGA
 10
150.94809118626489
 20
248.77750465326761
 30
0.0
 11
150.94809118626489
 21
237.52052812021921
 31
0.0
  0
ARC
  5
90C
  8
STRINGA
 10
152.94809118626489
 20
248.77750465326761
 30
0.0
 40
2.0
 50
90.0
 51
180.0
  0
LINE
  5
90D
  8
STRINGA
 10
141.44809118938289
 20
267.27750465950288
 30
0.0
 11
141.44809118626489
 21
247.0205281202193
 31
0.0
  0
ARC
  5
90E
  8
STRINGA
 10
142.44809118314689
 20
290.2775046532667
 30
0.0
 40
1.0
 50
179.99547544929001
 51
269.99999999998698
  0
LINE
  5
90F
  8
STRINGA
 10
142.44809118314669
 20
289.2775046532667
 30
0.0
 11
144.64809118314699
 21
289.27750465326648
 31
0.0
  0
LINE
  5
910
  8
STRINGA
 10
145.64809118314699
 20
293.37750465326661
 30
0.0
 11
145.64809118314699
 21
290.27750465326648
 31
0.0
  0
ARC
  5
911
  8
STRINGA
 10
144.64809118314651
 20
290.27750465326648
 30
0.0
 40
1.0
 50
270.0
 51
0.0000000000130346
  0
ARC
  5
912
  8
STRINGA
 10
147.0480911831466
 20
293.37750465326661
 30
0.0
 40
1.399999999999987
 50
0.0000000000130346
 51
180.0000000000131
  0
LINE
  5
913
  8
STRINGA
 10
148.44809118314669
 20
293.37750465326661
 30
0.0
 11
148.44809119252409
 21
284.27750466264399
 31
0.0
  0
ARC
  5
914
  8
STRINGA
 10
147.44809119252429
 20
284.27750466264428
 30
0.0
 40
1.0
 50
269.99999999998698
 51
0.000000000000007
  0
LINE
  5
915
  8
STRINGA
 10
146.4480911831472
 20
283.27750465326687
 30
0.0
 11
147.44809119252409
 21
283.27750466264411
 31
0.0
  0
ARC
  5
916
  8
STRINGA
 10
146.44809118314689
 20
282.2775046532667
 30
0.0
 40
1.0
 50
90.0
 51
180.0
  0
LINE
  5
917
  8
STRINGA
 10
145.4480911831472
 20
282.2775046532667
 30
0.0
 11
145.44809118314669
 21
275.2775046532667
 31
0.0
  0
ARC
  5
918
  8
STRINGA
 10
146.44809118314669
 20
275.2775046532667
 30
0.0
 40
1.0
 50
180.0
 51
270.0
  0
LINE
  5
919
  8
STRINGA
 10
146.44809118314669
 20
274.2775046532667
 30
0.0
 11
147.44809118314669
 21
274.27750465326687
 31
0.0
  0
LINE
  5
91A
  8
STRINGA
 10
148.44809118314669
 20
273.27750465326687
 30
0.0
 11
148.44809118314669
 21
264.17750465326679
 31
0.0
  0
ARC
  5
91B
  8
STRINGA
 10
147.44809118314689
 20
273.27750465326687
 30
0.0
 40
1.0
 50
0.000000000000007
 51
90.0
  0
ARC
  5
91C
  8
STRINGA
 10
142.44809118938289
 20
267.27750465950288
 30
0.0
 40
1.0
 50
90.0
 51
180.0
  0
LINE
  5
91D
  8
STRINGA
 10
145.64809118412111
 20
267.27750465424077
 30
0.0
 11
145.64809118314679
 21
264.17750465326679
 31
0.0
  0
ARC
  5
91E
  8
STRINGA
 10
144.64809118412111
 20
267.277504654241
 30
0.0
 40
1.0
 50
0.000000000000007
 51
89.999999888340867
  0
ARC
  5
91F
  8
STRINGA
 10
147.0480911831466
 20
264.17750465326702
 30
0.0
 40
1.400000000000067
 50
180.0000000000131
 51
0.000000000000007
  0
LINE
  5
920
  8
STRINGA
 10
142.44809118938269
 20
268.27750465950288
 30
0.0
 11
144.6480911860701
 21
268.277504654241
 31
0.0
  0
LINE
  5
921
  8
STRINGA
 10
152.94809118626489
 20
306.77750465326631
 30
0.0
 11
158.8480911862649
 21
306.77750465326602
 31
0.0
  0
ARC
  5
922
  8
STRINGA
 10
158.8480911862649
 20
308.77750465326602
 30
0.0
 40
2.0
 50
270.0
 51
0.000000000000007
  0
LINE
  5
923
  8
STRINGA
 10
152.94809118626489
 20
250.77750465326761
 30
0.0
 11
158.8480911862649
 21
250.77750465326781
 31
0.0
  0
ARC
  5
924
  8
STRINGA
 10
158.8480911862649
 20
248.7775046532679
 30
0.0
 40
2.0
 50
0.000000000000007
 51
90.0
  0
ARC
  5
925
  8
PANEL
 10
149.44809118626509
 20
312.17750465326668
 30
0.0
 40
8.6000000000000032
 50
60.000000000000071
 51
180.0
  0
LINE
  5
926
  8
PANEL
 10
140.84809118626501
 20
312.17750465326668
 30
0.0
 11
140.84809118626501
 21
245.3775046532669
 31
0.0
  0
ARC
  5
927
  8
PANEL
 10
149.44809118626509
 20
245.3775046532669
 30
0.0
 40
8.6000000000001364
 50
180.0
 51
300.0
  0
LINE
  5
928
  8
PANEL
 10
153.7480911862651
 20
237.92968618072061
 30
0.0
 11
156.84809118626501
 21
239.71947201520851
 31
0.0
  0
LINE
  5
929
  8
PANEL
 10
156.84809118626501
 20
239.71947201520851
 30
0.0
 11
156.548091186265
 21
240.23908725747921
 31
0.0
  0
LINE
  5
92A
  8
PANEL
 10
156.548091186265
 20
240.23908725747921
 30
0.0
 11
153.44809118626489
 21
238.4493014229914
 31
0.0
  0
ARC
  5
92B
  8
PANEL
 10
149.44809118626489
 20
245.3775046532669
 30
0.0
 40
7.9999999999999671
 50
180.0
 51
300.0
  0
LINE
  5
92C
  8
PANEL
 10
141.44809118626489
 20
245.3775046532669
 30
0.0
 11
141.44809118626489
 21
312.17750465326668
 31
0.0
  0
ARC
  5
92D
  8
PANEL
 10
149.44809118626489
 20
312.17750465326679
 30
0.0
 40
8.0
 50
60.000000000000071
 51
180.0
  0
LINE
  5
92E
  8
PANEL
 10
153.44809118626489
 20
319.10570788354232
 30
0.0
 11
156.54809118626531
 21
317.31592204905428
 31
0.0
  0
LINE
  5
92F
  8
PANEL
 10
156.54809118626531
 20
317.31592204905428
 30
0.0
 11
156.84809118626501
 21
317.83553729132501
 31
0.0
  0
LINE
  5
930
  8
PANEL
 10
156.84809118626501
 20
317.83553729132501
 30
0.0
 11
153.7480911862651
 21
319.62532312581283
 31
0.0
  0
LINE
  5
931
  8
STRINGA
 10
150.94809118626489
 20
320.03448118631439
 30
0.0
 11
150.94809118626489
 21
237.52052812021921
 31
0.0
  0
LINE
  5
932
  8
STRINGA
 10
149.44809118626239
 20
319.91531270596079
 30
0.0
 11
149.44809118626239
 21
237.63969660057279
 31
0.0
  0
LINE
  5
933
  8
STRINGA
 10
160.8480911862649
 20
332.77750465326721
 30
0.0
 11
161.1480911862615
 21
332.77750465326721
 31
0.0
  0
LINE
  5
938
  8
STRINGA
  6
CONTINUOUS
 10
173.8480911862606
 20
357.77750465326687
 30
0.0
 11
173.84809118626089
 21
41.777504653266931
 31
0.0
  0
LINE
  5
945
  8
STRINGA
 10
161.1480911862615
 20
357.77750465326687
 30
0.0
 11
161.1480911862615
 21
332.77750465326721
 31
0.0
  0
LINE
  5
946
  8
STRINGA
 10
161.14809118626141
 20
66.777504653266675
 30
0.0
 11
161.14809118626141
 21
41.777504653266902
 31
0.0
  0
VIEWPORT
  5
22
 67
     1
  8
0
 10
261.51769911504419
 20
148.5
 30
0.0
 40
523.0353982300885
 41
297.0
 68
     1
 69
     1
1001
ACAD
1000
MVIEW
1002
{
1070
    16
1010
0.0
1020
0.0
1030
0.0
1010
0.0
1020
0.0
1030
1.0
1040
0.0
1040
297.0
1040
261.51769911504419
1040
148.5
1040
50.0
1040
0.0
1040
0.0
1070
     0
1070
   100
1070
     1
1070
     1
1070
     0
1070
     0
1070
     0
1070
     0
1040
0.0
1040
0.0
1040
0.0
1040
1.0
1040
1.0
1040
10.0
1040
10.0
1070
     0
1002
{
1002
}
1002
}
  0
ENDSEC
  0
EOF
