  0
SECTION
  2
HEADER
  9
$ACADVER
  1
AC1015
  9
$ACADMAINTVER
 70
     6
  9
$DWGCODEPAGE
  3
DOS932
  9
$INSBASE
 10
0.0
 20
0.0
 30
0.0
  9
$EXTMIN
 10
-0.103692
 20
-0.076127
 30
0.0
  9
$EXTMAX
 10
570.036439
 20
396.107898
 30
0.0
  9
$LIMMIN
 10
0.0
 20
0.0
  9
$LIMMAX
 10
570.0
 20
396.0
  9
$ORTHOMODE
 70
     0
  9
$REGENMODE
 70
     1
  9
$FILLMODE
 70
     1
  9
$QTEXTMODE
 70
     0
  9
$MIRRTEXT
 70
     1
  9
$LTSCALE
 40
1.333333
  9
$ATTMODE
 70
     1
  9
$TEXTSIZE
 40
5.0
  9
$TRACEWID
 40
1.0
  9
$TEXTSTYLE
  7
STANDARD
  9
$CLAYER
  8
STRINGA
  9
$CELTYPE
  6
ByLayer
  9
$CECOLOR
 62
   256
  9
$CELTSCALE
 40
1.0
  9
$DISPSILH
 70
     0
  9
$DIMSCALE
 40
1.0
  9
$DIMASZ
 40
2.5
  9
$DIMEXO
 40
0.625
  9
$DIMDLI
 40
3.75
  9
$DIMRND
 40
0.0
  9
$DIMDLE
 40
0.0
  9
$DIMEXE
 40
1.25
  9
$DIMTP
 40
0.0
  9
$DIMTM
 40
0.0
  9
$DIMTXT
 40
6.0
  9
$DIMCEN
 40
2.5
  9
$DIMTSZ
 40
0.0
  9
$DIMTOL
 70
     0
  9
$DIMLIM
 70
     0
  9
$DIMTIH
 70
     0
  9
$DIMTOH
 70
     0
  9
$DIMSE1
 70
     0
  9
$DIMSE2
 70
     0
  9
$DIMTAD
 70
     1
  9
$DIMZIN
 70
     8
  9
$DIMBLK
  1

  9
$DIMASO
 70
     1
  9
$DIMSHO
 70
     1
  9
$DIMPOST
  1

  9
$DIMAPOST
  1

  9
$DIMALT
 70
     0
  9
$DIMALTD
 70
     4
  9
$DIMALTF
 40
0.0394
  9
$DIMLFAC
 40
1.0
  9
$DIMTOFL
 70
     1
  9
$DIMTVP
 40
0.0
  9
$DIMTIX
 70
     0
  9
$DIMSOXD
 70
     0
  9
$DIMSAH
 70
     1
  9
$DIMBLK1
  1
_NONE
  9
$DIMBLK2
  1
_NONE
  9
$DIMSTYLE
  2
STANDARD
  9
$DIMCLRD
 70
     0
  9
$DIMCLRE
 70
     0
  9
$DIMCLRT
 70
     0
  9
$DIMTFAC
 40
1.0
  9
$DIMGAP
 40
0.625
  9
$DIMJUST
 70
     0
  9
$DIMSD1
 70
     0
  9
$DIMSD2
 70
     0
  9
$DIMTOLJ
 70
     1
  9
$DIMTZIN
 70
     0
  9
$DIMALTZ
 70
     0
  9
$DIMALTTZ
 70
     0
  9
$DIMUPT
 70
     0
  9
$DIMDEC
 70
     4
  9
$DIMTDEC
 70
     4
  9
$DIMALTU
 70
     8
  9
$DIMALTTD
 70
     4
  9
$DIMTXSTY
  7
STANDARD
  9
$DIMAUNIT
 70
     0
  9
$DIMADEC
 70
     0
  9
$DIMALTRND
 40
0.0
  9
$DIMAZIN
 70
     0
  9
$DIMDSEP
 70
    46
  9
$DIMATFIT
 70
     3
  9
$DIMFRAC
 70
     0
  9
$DIMLDRBLK
  1

  9
$DIMLUNIT
 70
     6
  9
$DIMLWD
 70
    -2
  9
$DIMLWE
 70
    -2
  9
$DIMTMOVE
 70
     0
  9
$LUNITS
 70
     2
  9
$LUPREC
 70
     4
  9
$SKETCHINC
 40
1.0
  9
$FILLETRAD
 40
13.333333
  9
$AUNITS
 70
     0
  9
$AUPREC
 70
     0
  9
$MENU
  1
.
  9
$ELEVATION
 40
0.0
  9
$PELEVATION
 40
0.0
  9
$THICKNESS
 40
0.0
  9
$LIMCHECK
 70
     0
  9
$CHAMFERA
 40
13.333333
  9
$CHAMFERB
 40
13.333333
  9
$CHAMFERC
 40
26.666667
  9
$CHAMFERD
 40
0.0
  9
$SKPOLY
 70
     1
  9
$TDCREATE
 40
2451654.235702639
  9
$TDUCREATE
 40
0.000000000
  9
$TDUPDATE
 40
2455657.276050243
  9
$TDUUPDATE
 40
0.000000000
  9
$TDINDWG
 40
0.3144703125
  9
$TDUSRTIMER
 40
0.3144703125
  9
$USRTIMER
 70
     1
  9
$ANGBASE
 50
0.0
  9
$ANGDIR
 70
     0
  9
$PDMODE
 70
     0
  9
$PDSIZE
 40
0.0
  9
$PLINEWID
 40
0.0
  9
$SPLFRAME
 70
     0
  9
$SPLINETYPE
 70
     6
  9
$SPLINESEGS
 70
     8
  9
$HANDSEED
  5
96B
  9
$SURFTAB1
 70
     6
  9
$SURFTAB2
 70
     6
  9
$SURFTYPE
 70
     6
  9
$SURFU
 70
     6
  9
$SURFV
 70
     6
  9
$UCSBASE
  2

  9
$UCSNAME
  2

  9
$UCSORG
 10
0.0
 20
0.0
 30
0.0
  9
$UCSXDIR
 10
1.0
 20
0.0
 30
0.0
  9
$UCSYDIR
 10
0.0
 20
1.0
 30
0.0
  9
$UCSORTHOREF
  2

  9
$UCSORTHOVIEW
 70
     0
  9
$UCSORGTOP
 10
0.0
 20
0.0
 30
0.0
  9
$UCSORGBOTTOM
 10
0.0
 20
0.0
 30
0.0
  9
$UCSORGLEFT
 10
0.0
 20
0.0
 30
0.0
  9
$UCSORGRIGHT
 10
0.0
 20
0.0
 30
0.0
  9
$UCSORGFRONT
 10
0.0
 20
0.0
 30
0.0
  9
$UCSORGBACK
 10
0.0
 20
0.0
 30
0.0
  9
$PUCSBASE
  2

  9
$PUCSNAME
  2

  9
$PUCSORG
 10
0.0
 20
0.0
 30
0.0
  9
$PUCSXDIR
 10
1.0
 20
0.0
 30
0.0
  9
$PUCSYDIR
 10
0.0
 20
1.0
 30
0.0
  9
$PUCSORTHOREF
  2

  9
$PUCSORTHOVIEW
 70
     0
  9
$PUCSORGTOP
 10
0.0
 20
0.0
 30
0.0
  9
$PUCSORGBOTTOM
 10
0.0
 20
0.0
 30
0.0
  9
$PUCSORGLEFT
 10
0.0
 20
0.0
 30
0.0
  9
$PUCSORGRIGHT
 10
0.0
 20
0.0
 30
0.0
  9
$PUCSORGFRONT
 10
0.0
 20
0.0
 30
0.0
  9
$PUCSORGBACK
 10
0.0
 20
0.0
 30
0.0
  9
$USERI1
 70
     0
  9
$USERI2
 70
     0
  9
$USERI3
 70
     0
  9
$USERI4
 70
     0
  9
$USERI5
 70
     0
  9
$USERR1
 40
0.0
  9
$USERR2
 40
0.0
  9
$USERR3
 40
0.0
  9
$USERR4
 40
0.0
  9
$USERR5
 40
0.0
  9
$WORLDVIEW
 70
     1
  9
$SHADEDGE
 70
     3
  9
$SHADEDIF
 70
    70
  9
$TILEMODE
 70
     1
  9
$MAXACTVP
 70
    48
  9
$PINSBASE
 10
0.0
 20
0.0
 30
0.0
  9
$PLIMCHECK
 70
     0
  9
$PEXTMIN
 10
1.000000E+20
 20
1.000000E+20
 30
1.000000E+20
  9
$PEXTMAX
 10
-1.000000E+20
 20
-1.000000E+20
 30
-1.000000E+20
  9
$PLIMMIN
 10
0.0
 20
0.0
  9
$PLIMMAX
 10
420.0
 20
297.0
  9
$UNITMODE
 70
     0
  9
$VISRETAIN
 70
     1
  9
$PLINEGEN
 70
     0
  9
$PSLTSCALE
 70
     1
  9
$TREEDEPTH
 70
  3020
  9
$CMLSTYLE
  2
STANDARD
  9
$CMLJUST
 70
     0
  9
$CMLSCALE
 40
1.0
  9
$PROXYGRAPHICS
 70
     1
  9
$MEASUREMENT
 70
     1
  9
$CELWEIGHT
370
    -1
  9
$ENDCAPS
280
     0
  9
$JOINSTYLE
280
     0
  9
$LWDISPLAY
290
     0
  9
$INSUNITS
 70
     0
  9
$HYPERLINKBASE
  1

  9
$XEDIT
290
     1
  9
$CEPSNTYPE
380
     0
  9
$PSTYLEMODE
290
     1
  9
$FINGERPRINTGUID
  2
{502B71A8-E9ED-4BE3-BB66-51E4415F2372}
  9
$VERSIONGUID
  2
{B0B04BD0-9DF6-4FB9-AEE3-3CE0DBD7F3DB}
  9
$EXTNAMES
290
     1
  9
$PSVPSCALE
 40
0.0
  0
ENDSEC
  0
SECTION
  2
CLASSES
  0
CLASS
  1
DICTIONARYVAR
  2
AcDbDictionaryVar
  3
ObjectDBX Classes
 90
        0
280
     0
281
     0
  0
CLASS
  1
LWPOLYLINE
  2
AcDbPolyline
  3
ObjectDBX Classes
 90
        0
280
     0
281
     1
  0
CLASS
  1
ACDBDICTIONARYWDFLT
  2
AcDbDictionaryWithDefault
  3
ObjectDBX Classes
 90
        0
280
     0
281
     0
  0
CLASS
  1
TABLESTYLE
  2
AcDbTableStyle
  3
ObjectDBX Classes
 90
     2047
280
     0
281
     0
  0
CLASS
  1
SORTENTSTABLE
  2
AcDbSortentsTable
  3
ObjectDBX Classes
 90
        0
280
     0
281
     0
  0
CLASS
  1
ACDBPLACEHOLDER
  2
AcDbPlaceHolder
  3
ObjectDBX Classes
 90
        0
280
     0
281
     0
  0
CLASS
  1
LAYOUT
  2
AcDbLayout
  3
ObjectDBX Classes
 90
        0
280
     0
281
     0
  0
CLASS
  1
IMAGE
  2
AcDbRasterImage
  3
ISM
 90
    32895
280
     0
281
     1
  0
CLASS
  1
OLE2FRAME
  2
AcDbOle2Frame
  3
AutoCAD 2000
 90
    32768
280
     0
281
     1
  0
CLASS
  1
HATCH
  2
AcDbHatch
  3
AutoCAD 2000
 90
    32768
280
     0
281
     1
  0
CLASS
  1
RASTERVARIABLES
  2
AcDbRasterVariables
  3
ISM
 90
    32768
280
     0
281
     0
  0
CLASS
  1
IMAGEDEF
  2
AcDbRasterImageDef
  3
ISM
 90
    32768
280
     0
281
     0
  0
CLASS
  1
IMAGEDEF_REACTOR
  2
AcDbRasterImageDefReactor
  3
ISM
 90
    32769
280
     0
281
     0
  0
CLASS
  1
IDBUFFER
  2
AcDbIdBuffer
  3
AutoCAD 2000
 90
    32768
280
     0
281
     0
  0
CLASS
  1
SPATIAL_FILTER
  2
AcDbSpatialFilter
  3
AutoCAD 2000
 90
    32768
280
     0
281
     0
  0
CLASS
  1
XRECORD
  2
AcDbXrecord
  3
AutoCAD 2000
 90
    32768
280
     0
281
     0
  0
CLASS
  1
LAYER_INDEX
  2
AcDbLayerIndex
  3
AutoCAD 2000
 90
    32768
280
     0
281
     0
  0
CLASS
  1
SPATIAL_INDEX
  2
AcDbSpatialIndex
  3
AutoCAD 2000
 90
    32768
280
     0
281
     0
  0
CLASS
  1
OBJECT_PTR
  2
CAseDLPNTableRecord
  3
"ASE-LPNTableRecord"
 90
    32769
280
     0
281
     0
  0
CLASS
  1
PLOTSETTINGS
  2
AcDbPlotSettings
  3
AutoCAD 2000
 90
    32768
280
     0
281
     0
  0
CLASS
  1
VBA_PROJECT
  2
AcDbVbaProject
  3
acadvba
 90
    32768
280
     0
281
     0
  0
CLASS
  1
RTEXT
  2
RText
  3
RText|AutoCAD Express Tool|expresstools@autodesk.com
 90
    32768
280
     0
281
     1
  0
CLASS
  1
ARCALIGNEDTEXT
  2
AcDbArcAlignedText
  3
ATEXT|AutoCAD Express Tool|expresstools@autodesk.com
 90
    32768
280
     0
281
     1
  0
ENDSEC
  0
SECTION
  2
TABLES
  0
TABLE
  2
VPORT
  5
8
100
AcDbSymbolTable
 70
     1
  0
VPORT
  5
961
100
AcDbSymbolTableRecord
100
AcDbViewportTableRecord
  2
*Active
 70
    64
 10
0.0
 20
0.0
 11
1.0
 21
1.0
 12
284.966374
 22
198.015886
 13
0.0
 23
0.0
 14
13.0
 24
13.0
 15
13.0
 25
13.0
 16
0.0
 26
0.0
 36
1.0
 17
0.0
 27
0.0
 37
0.0
 40
398.845956
 41
1.639013
 42
50.0
 43
0.0
 44
0.0
 50
0.0
 51
0.0
 71
     0
 72
   100
 73
     1
 74
     0
 75
     0
 76
     0
 77
     0
 78
     0
281
     0
 65
     1
110
0.0
120
0.0
130
0.0
111
1.0
121
0.0
131
0.0
112
0.0
122
1.0
132
0.0
345
0
346
0
 79
     0
146
0.0
  0
ENDTAB
  0
TABLE
  2
LTYPE
  5
5
100
AcDbSymbolTable
 70
     5
  0
LTYPE
  5
14
100
AcDbSymbolTableRecord
100
AcDbLinetypeTableRecord
  2
ByBlock
 70
    64
  3

 72
    65
 73
     0
 40
0.0
  0
LTYPE
  5
15
100
AcDbSymbolTableRecord
100
AcDbLinetypeTableRecord
  2
ByLayer
 70
    64
  3

 72
    65
 73
     0
 40
0.0
  0
LTYPE
  5
16
100
AcDbSymbolTableRecord
100
AcDbLinetypeTableRecord
  2
CONTINUOUS
 70
    64
  3
Solid line
 72
    65
 73
     0
 40
0.0
  0
LTYPE
  5
126
100
AcDbSymbolTableRecord
100
AcDbLinetypeTableRecord
  2
HIDDEN2
 70
    64
  3
Hidden (.5x) _ _ _ _ _ _ _ _ _ _ _ _ _ _ _ _ _
 72
    65
 73
     2
 40
4.7625
 49
3.175
 74
     0
 49
-1.5875
 74
     0
  0
LTYPE
  5
127
100
AcDbSymbolTableRecord
100
AcDbLinetypeTableRecord
  2
DASHED2
 70
    64
  3
Dashed (.5x) _ _ _ _ _ _ _ _ _ _ _ _ _ _ _ _ _
 72
    65
 73
     2
 40
9.525
 49
6.35
 74
     0
 49
-3.175
 74
     0
  0
ENDTAB
  0
TABLE
  2
LAYER
  5
2
100
AcDbSymbolTable
 70
     6
  0
LAYER
  5
F
100
AcDbSymbolTableRecord
100
AcDbLayerTableRecord
  2
0
 70
    64
 62
     7
  6
CONTINUOUS
290
     1
370
    -3
390
6F3
  0
LAYER
  5
128
100
AcDbSymbolTableRecord
100
AcDbLayerTableRecord
  2
STRINGA
 70
    64
 62
     7
  6
CONTINUOUS
290
     1
370
    -3
390
6F3
  0
LAYER
  5
129
100
AcDbSymbolTableRecord
100
AcDbLayerTableRecord
  2
WAKU
 70
    64
 62
     4
  6
CONTINUOUS
290
     1
370
    -3
390
6F3
  0
LAYER
  5
12A
100
AcDbSymbolTableRecord
100
AcDbLayerTableRecord
  2
PANEL
 70
    64
 62
     6
  6
CONTINUOUS
290
     1
370
    -3
390
6F3
  0
LAYER
  5
12B
100
AcDbSymbolTableRecord
100
AcDbLayerTableRecord
  2
SUNPOU
 70
    64
 62
     3
  6
CONTINUOUS
290
     1
370
    -3
390
6F3
  0
LAYER
  5
2C2
100
AcDbSymbolTableRecord
100
AcDbLayerTableRecord
  2
DEFPOINTS
 70
    64
 62
     7
  6
CONTINUOUS
290
     0
370
    -3
390
6F3
  0
ENDTAB
  0
TABLE
  2
STYLE
  5
3
100
AcDbSymbolTable
 70
     1
  0
STYLE
  5
10
100
AcDbSymbolTableRecord
100
AcDbTextStyleTableRecord
  2
STANDARD
 70
    64
 40
6.0
 41
1.0
 50
0.0
 71
     0
 42
5.0
  3
txt.shx
  4
bigfont.shx
  0
ENDTAB
  0
TABLE
  2
VIEW
  5
6
100
AcDbSymbolTable
 70
     0
  0
ENDTAB
  0
TABLE
  2
UCS
  5
7
100
AcDbSymbolTable
 70
     0
  0
ENDTAB
  0
TABLE
  2
APPID
  5
9
100
AcDbSymbolTable
 70
     2
  0
APPID
  5
11
100
AcDbSymbolTableRecord
100
AcDbRegAppTableRecord
  2
ACAD
 70
    64
  0
APPID
  5
707
100
AcDbSymbolTableRecord
100
AcDbRegAppTableRecord
  2
ACAD_PSEXT
 70
    64
  0
ENDTAB
  0
TABLE
  2
DIMSTYLE
  5
A
100
AcDbSymbolTable
 70
     1
100
AcDbDimStyleTable
 71
     0
  0
DIMSTYLE
105
1D
100
AcDbSymbolTableRecord
100
AcDbDimStyleTableRecord
  2
STANDARD
 70
    64
  3

  4

 40
1.0
 41
2.5
 42
0.625
 43
3.75
 44
1.25
 45
0.0
 46
0.0
 47
0.0
 48
0.0
 71
     0
 72
     0
 73
     0
 74
     0
 75
     0
 76
     0
 77
     1
 78
     8
 79
     0
140
2.5
141
2.5
142
0.0
143
0.0394
144
1.0
145
0.0
146
1.0
147
0.625
148
0.0
170
     0
171
     4
172
     1
173
     0
174
     0
175
     0
176
     0
177
     0
178
     0
179
     0
271
     4
272
     4
273
     8
274
     4
275
     0
276
     0
277
     6
278
    46
279
     0
280
     0
281
     0
282
     0
283
     1
284
     0
285
     0
286
     0
288
     0
340
10
341
0
342
0
343
0
344
0
371
    -2
372
    -2
  0
ENDTAB
  0
TABLE
  2
BLOCK_RECORD
  5
1
100
AcDbSymbolTable
 70
     1
  0
BLOCK_RECORD
  5
1A
102
{ACAD_XDICTIONARY
360
8CF
102
}
100
AcDbSymbolTableRecord
100
AcDbBlockTableRecord
  2
*MODEL_SPACE
340
6FA
  0
BLOCK_RECORD
  5
17
100
AcDbSymbolTableRecord
100
AcDbBlockTableRecord
  2
*PAPER_SPACE
340
6FB
  0
BLOCK_RECORD
  5
294
100
AcDbSymbolTableRecord
100
AcDbBlockTableRecord
  2
_NONE
340
0
  0
ENDTAB
  0
ENDSEC
  0
SECTION
  2
BLOCKS
  0
BLOCK
  5
1B
100
AcDbEntity
  8
0
100
AcDbBlockBegin
  2
*MODEL_SPACE
 70
    64
 10
0.0
 20
0.0
 30
0.0
  3
*MODEL_SPACE
  1

  0
ENDBLK
  5
1C
100
AcDbEntity
  8
0
100
AcDbBlockEnd
  0
BLOCK
  5
18
100
AcDbEntity
 67
     1
  8
0
100
AcDbBlockBegin
  2
*PAPER_SPACE
 70
    64
 10
0.0
 20
0.0
 30
0.0
  3
*PAPER_SPACE
  1

  0
ENDBLK
  5
19
100
AcDbEntity
 67
     1
  8
0
100
AcDbBlockEnd
  0
BLOCK
  5
295
100
AcDbEntity
  8
0
100
AcDbBlockBegin
  2
_NONE
 70
    64
 10
0.0
 20
0.0
 30
0.0
  3
_NONE
  1

  0
CIRCLE
  5
296
100
AcDbEntity
  8
0
  6
ByBlock
 62
     0
100
AcDbCircle
 10
0.0
 20
0.0
 30
0.0
 40
0.25
  0
ENDBLK
  5
297
100
AcDbEntity
  8
0
100
AcDbBlockEnd
  0
ENDSEC
  0
SECTION
  2
ENTITIES
  0
VIEWPORT
  5
22
102
{ACAD_XDICTIONARY
360
963
102
}
100
AcDbEntity
 67
     1
  8
0
100
AcDbViewport
 10
261.517699
 20
148.5
 30
0.0
 40
523.035398
 41
297.0
 68
     1
 69
     1
 12
261.517699
 22
148.5
 13
0.0
 23
0.0
 14
1.0
 24
1.0
 15
10.0
 25
10.0
 16
0.0
 26
0.0
 36
1.0
 17
0.0
 27
0.0
 37
0.0
 42
50.0
 43
0.0
 44
0.0
 45
297.0
 50
0.0
 51
0.0
 72
   100
 90
    32800
340
0
  1

281
     0
 71
     1
 74
     0
110
0.0
120
0.0
130
0.0
111
1.0
121
0.0
131
0.0
112
0.0
122
1.0
132
0.0
345
0
346
0
 79
     0
146
0.0
  0
LINE
  5
1C3
100
AcDbEntity
  8
WAKU
  6
CONTINUOUS
100
AcDbLine
 10
5.0
 20
25.0
 30
0.0
 11
565.0
 21
25.0
 31
0.0
  0
LINE
  5
1C4
100
AcDbEntity
  8
WAKU
  6
CONTINUOUS
100
AcDbLine
 10
5.0
 20
5.0
 30
0.0
 11
565.0
 21
5.0
 31
0.0
  0
LINE
  5
1CB
100
AcDbEntity
  8
WAKU
  6
CONTINUOUS
100
AcDbLine
 10
195.0
 20
5.0
 30
0.0
 11
195.0
 21
25.0
 31
0.0
  0
LWPOLYLINE
  5
252
100
AcDbEntity
  8
WAKU
100
AcDbPolyline
 90
        4
 70
     1
 10
0.0
 20
0.0
 10
570.0
 20
0.0
 10
570.0
 20
396.0
 10
0.0
 20
396.0
  0
LINE
  5
255
100
AcDbEntity
  8
WAKU
100
AcDbLine
 10
5.0
 20
5.0
 30
0.0
 11
5.0
 21
391.0
 31
0.0
  0
LINE
  5
256
100
AcDbEntity
  8
WAKU
100
AcDbLine
 10
5.0
 20
391.0
 30
0.0
 11
565.0
 21
391.0
 31
0.0
  0
LINE
  5
257
100
AcDbEntity
  8
WAKU
100
AcDbLine
 10
565.0
 20
391.0
 30
0.0
 11
565.0
 21
5.0
 31
0.0
  0
TEXT
  5
4CC
100
AcDbEntity
  8
WAKU
100
AcDbText
 10
15.0
 20
8.0
 30
0.0
 40
12.0
  1
ビルパネ　PS-147
100
AcDbText
  0
LINE
  5
515
100
AcDbEntity
  8
PANEL
  6
CONTINUOUS
100
AcDbLine
 10
358.070662
 20
185.978047
 30
0.0
 11
458.070662
 21
185.978047
 31
0.0
  0
LINE
  5
516
100
AcDbEntity
  8
PANEL
  6
DASHED2
100
AcDbLine
 10
358.070662
 20
186.578047
 30
0.0
 11
458.070662
 21
186.578047
 31
0.0
  0
LINE
  5
517
100
AcDbEntity
  8
PANEL
  6
CONTINUOUS
100
AcDbLine
 10
358.070662
 20
201.978047
 30
0.0
 11
458.070662
 21
201.978047
 31
0.0
  0
LINE
  5
518
100
AcDbEntity
  8
STRINGA
  6
CONTINUOUS
100
AcDbLine
 10
394.370662
 20
217.478047
 30
0.0
 11
391.170662
 21
217.478047
 31
0.0
  0
LINE
  5
519
100
AcDbEntity
  8
STRINGA
  6
CONTINUOUS
100
AcDbLine
 10
423.270662
 20
238.978047
 30
0.0
 11
392.870662
 21
238.978047
 31
0.0
  0
LINE
  5
51A
100
AcDbEntity
  8
STRINGA
  6
CONTINUOUS
100
AcDbLine
 10
392.870662
 20
238.978047
 30
0.0
 11
392.870662
 21
218.978047
 31
0.0
  0
LINE
  5
51B
100
AcDbEntity
  8
STRINGA
  6
CONTINUOUS
100
AcDbLine
 10
391.170662
 20
217.478047
 30
0.0
 11
391.170662
 21
201.978047
 31
0.0
  0
LINE
  5
51C
100
AcDbEntity
  8
STRINGA
  6
CONTINUOUS
100
AcDbLine
 10
389.870662
 20
218.978047
 30
0.0
 11
389.870662
 21
201.978047
 31
0.0
  0
LINE
  5
51D
100
AcDbEntity
  8
STRINGA
  6
HIDDEN2
100
AcDbLine
 10
391.170662
 20
201.978047
 30
0.0
 11
391.170662
 21
186.578047
 31
0.0
  0
LINE
  5
51E
100
AcDbEntity
  8
STRINGA
  6
HIDDEN2
100
AcDbLine
 10
389.870662
 20
195.478047
 30
0.0
 11
389.870662
 21
201.978047
 31
0.0
  0
LINE
  5
51F
100
AcDbEntity
  8
STRINGA
  6
HIDDEN2
100
AcDbLine
 10
388.170662
 20
195.478047
 30
0.0
 11
388.170662
 21
193.978047
 31
0.0
  0
LINE
  5
520
100
AcDbEntity
  8
STRINGA
  6
HIDDEN2
100
AcDbLine
 10
389.870662
 20
193.978047
 30
0.0
 11
388.170662
 21
193.978047
 31
0.0
  0
LINE
  5
521
100
AcDbEntity
  8
STRINGA
  6
HIDDEN2
100
AcDbLine
 10
389.870662
 20
195.478047
 30
0.0
 11
388.170662
 21
195.478047
 31
0.0
  0
LINE
  5
522
100
AcDbEntity
  8
STRINGA
  6
HIDDEN2
100
AcDbLine
 10
391.170662
 20
186.578047
 30
0.0
 11
389.870662
 21
186.578047
 31
0.0
  0
LINE
  5
523
100
AcDbEntity
  8
STRINGA
  6
HIDDEN2
100
AcDbLine
 10
389.870662
 20
193.978047
 30
0.0
 11
389.870662
 21
186.578047
 31
0.0
  0
LINE
  5
524
100
AcDbEntity
  8
STRINGA
  6
CONTINUOUS
100
AcDbLine
 10
392.870662
 20
218.978047
 30
0.0
 11
389.870662
 21
218.978047
 31
0.0
  0
LINE
  5
525
100
AcDbEntity
  8
STRINGA
  6
CONTINUOUS
100
AcDbLine
 10
423.270662
 20
238.978047
 30
0.0
 11
423.270662
 21
218.978047
 31
0.0
  0
LINE
  5
526
100
AcDbEntity
  8
STRINGA
  6
CONTINUOUS
100
AcDbLine
 10
419.770662
 20
230.978047
 30
0.0
 11
419.770662
 21
229.978047
 31
0.0
  0
LINE
  5
527
100
AcDbEntity
  8
STRINGA
  6
CONTINUOUS
100
AcDbLine
 10
396.370662
 20
230.978047
 30
0.0
 11
396.370662
 21
229.978047
 31
0.0
  0
LINE
  5
528
100
AcDbEntity
  8
STRINGA
  6
CONTINUOUS
100
AcDbLine
 10
426.270662
 20
218.978047
 30
0.0
 11
423.270662
 21
218.978047
 31
0.0
  0
LINE
  5
529
100
AcDbEntity
  8
STRINGA
  6
HIDDEN2
100
AcDbLine
 10
426.270662
 20
186.578047
 30
0.0
 11
424.970662
 21
186.578047
 31
0.0
  0
LINE
  5
52A
100
AcDbEntity
  8
STRINGA
  6
CONTINUOUS
100
AcDbLine
 10
424.970662
 20
217.478047
 30
0.0
 11
424.970662
 21
201.978047
 31
0.0
  0
LINE
  5
52B
100
AcDbEntity
  8
STRINGA
  6
HIDDEN2
100
AcDbLine
 10
424.970662
 20
201.978047
 30
0.0
 11
424.970662
 21
186.578047
 31
0.0
  0
LINE
  5
52C
100
AcDbEntity
  8
STRINGA
  6
CONTINUOUS
100
AcDbLine
 10
394.370662
 20
229.978047
 30
0.0
 11
394.370662
 21
217.478047
 31
0.0
  0
LINE
  5
52D
100
AcDbEntity
  8
STRINGA
  6
CONTINUOUS
100
AcDbLine
 10
396.370662
 20
229.978047
 30
0.0
 11
394.370662
 21
229.978047
 31
0.0
  0
LINE
  5
52E
100
AcDbEntity
  8
STRINGA
  6
CONTINUOUS
100
AcDbLine
 10
421.770662
 20
229.978047
 30
0.0
 11
421.770662
 21
217.478047
 31
0.0
  0
LINE
  5
52F
100
AcDbEntity
  8
STRINGA
  6
CONTINUOUS
100
AcDbLine
 10
424.970662
 20
217.478047
 30
0.0
 11
421.770662
 21
217.478047
 31
0.0
  0
LINE
  5
530
100
AcDbEntity
  8
STRINGA
  6
CONTINUOUS
100
AcDbLine
 10
421.770662
 20
229.978047
 30
0.0
 11
419.770662
 21
229.978047
 31
0.0
  0
LINE
  5
531
100
AcDbEntity
  8
STRINGA
  6
CONTINUOUS
100
AcDbLine
 10
426.270662
 20
218.978047
 30
0.0
 11
426.270662
 21
201.978047
 31
0.0
  0
LINE
  5
532
100
AcDbEntity
  8
STRINGA
  6
HIDDEN2
100
AcDbLine
 10
426.270662
 20
195.478047
 30
0.0
 11
426.270662
 21
201.978047
 31
0.0
  0
LINE
  5
533
100
AcDbEntity
  8
STRINGA
  6
HIDDEN2
100
AcDbLine
 10
427.970662
 20
195.478047
 30
0.0
 11
427.970662
 21
193.978047
 31
0.0
  0
LINE
  5
534
100
AcDbEntity
  8
STRINGA
  6
HIDDEN2
100
AcDbLine
 10
427.970662
 20
193.978047
 30
0.0
 11
426.270662
 21
193.978047
 31
0.0
  0
LINE
  5
535
100
AcDbEntity
  8
STRINGA
  6
HIDDEN2
100
AcDbLine
 10
427.970662
 20
195.478047
 30
0.0
 11
426.270662
 21
195.478047
 31
0.0
  0
LINE
  5
536
100
AcDbEntity
  8
STRINGA
  6
HIDDEN2
100
AcDbLine
 10
426.270662
 20
193.978047
 30
0.0
 11
426.270662
 21
186.578047
 31
0.0
  0
LINE
  5
537
100
AcDbEntity
  8
STRINGA
  6
CONTINUOUS
100
AcDbLine
 10
421.770662
 20
237.478047
 30
0.0
 11
394.370662
 21
237.478047
 31
0.0
  0
LINE
  5
538
100
AcDbEntity
  8
STRINGA
  6
CONTINUOUS
100
AcDbLine
 10
396.370662
 20
230.978047
 30
0.0
 11
394.370662
 21
230.978047
 31
0.0
  0
LINE
  5
539
100
AcDbEntity
  8
STRINGA
  6
CONTINUOUS
100
AcDbLine
 10
394.370662
 20
237.478047
 30
0.0
 11
394.370662
 21
230.978047
 31
0.0
  0
LINE
  5
53A
100
AcDbEntity
  8
STRINGA
  6
CONTINUOUS
100
AcDbLine
 10
421.770662
 20
237.478047
 30
0.0
 11
421.770662
 21
230.978047
 31
0.0
  0
LINE
  5
53B
100
AcDbEntity
  8
STRINGA
  6
CONTINUOUS
100
AcDbLine
 10
421.770662
 20
230.978047
 30
0.0
 11
419.770662
 21
230.978047
 31
0.0
  0
LINE
  5
620
100
AcDbEntity
  8
STRINGA
  6
CONTINUOUS
100
AcDbLine
 10
193.848091
 20
352.990947
 30
0.0
 11
193.848091
 21
58.990947
 31
0.0
  0
LINE
  5
6A7
100
AcDbEntity
  8
SUNPOU
100
AcDbLine
 10
392.870662
 20
239.603047
 30
0.0
 11
392.870662
 21
255.228047
 31
0.0
  0
LINE
  5
6A8
100
AcDbEntity
  8
SUNPOU
100
AcDbLine
 10
423.270662
 20
239.603047
 30
0.0
 11
423.270662
 21
255.228047
 31
0.0
  0
LINE
  5
6A9
100
AcDbEntity
  8
SUNPOU
100
AcDbLine
 10
392.870662
 20
253.978047
 30
0.0
 11
423.270662
 21
253.978047
 31
0.0
  0
MTEXT
  5
6AA
100
AcDbEntity
  8
SUNPOU
100
AcDbMText
 10
408.070662
 20
257.603047
 30
0.0
 40
6.0
 41
0.0
 71
     5
 72
     5
  1
\A1;30.4
 73
     1
 44
1.0
1001
ACAD
1000
MTEXTBEGIN
1070
    73
1070
     1
1070
    44
1040
1.0
1070
    74
1070
     0
1000
MTEXTEND
  0
LINE
  5
6AE
100
AcDbEntity
  8
SUNPOU
100
AcDbLine
 10
357.445662
 20
185.978047
 30
0.0
 11
341.820685
 21
185.978047
 31
0.0
  0
LINE
  5
6AF
100
AcDbEntity
  8
SUNPOU
100
AcDbLine
 10
392.245662
 20
238.978047
 30
0.0
 11
341.820685
 21
238.978047
 31
0.0
  0
LINE
  5
6B0
100
AcDbEntity
  8
SUNPOU
100
AcDbLine
 10
343.070685
 20
185.978047
 30
0.0
 11
343.070685
 21
238.978047
 31
0.0
  0
MTEXT
  5
6B1
100
AcDbEntity
  8
SUNPOU
100
AcDbMText
 10
339.445685
 20
212.478047
 30
0.0
 40
6.0
 41
0.0
 71
     5
 72
     5
  1
\A1;53
 11
0.0
 21
1.0
 31
0.0
 73
     1
 44
1.0
1001
ACAD
1000
MTEXTBEGIN
1070
    73
1070
     1
1070
    44
1040
1.0
1070
    74
1070
     0
1000
MTEXTEND
  0
POINT
  5
6B2
100
AcDbEntity
  8
DEFPOINTS
  6
ByBlock
 62
     0
100
AcDbPoint
 10
358.070662
 20
185.978047
 30
0.0
  0
LINE
  5
6B5
100
AcDbEntity
  8
SUNPOU
100
AcDbLine
 10
389.870662
 20
185.953047
 30
0.0
 11
389.870662
 21
169.728047
 31
0.0
  0
LINE
  5
6B6
100
AcDbEntity
  8
SUNPOU
100
AcDbLine
 10
426.270662
 20
185.953047
 30
0.0
 11
426.270662
 21
169.728047
 31
0.0
  0
LINE
  5
6B7
100
AcDbEntity
  8
SUNPOU
100
AcDbLine
 10
389.870662
 20
170.978047
 30
0.0
 11
426.270662
 21
170.978047
 31
0.0
  0
MTEXT
  5
6B8
100
AcDbEntity
  8
SUNPOU
100
AcDbMText
 10
408.070662
 20
174.603047
 30
0.0
 40
6.0
 41
0.0
 71
     5
 72
     5
  1
\A1;36.4
 73
     1
 44
1.0
1001
ACAD
1000
MTEXTBEGIN
1070
    73
1070
     1
1070
    44
1040
1.0
1070
    74
1070
     0
1000
MTEXTEND
  0
LINE
  5
6BC
100
AcDbEntity
  8
SUNPOU
100
AcDbLine
 10
140.848089
 20
317.819902
 30
0.0
 11
140.848089
 21
375.408139
 31
0.0
  0
LINE
  5
6BD
100
AcDbEntity
  8
SUNPOU
100
AcDbLine
 10
193.848091
 20
355.077532
 30
0.0
 11
193.848091
 21
375.408139
 31
0.0
  0
LINE
  5
6BE
100
AcDbEntity
  8
SUNPOU
100
AcDbLine
 10
140.848089
 20
374.158139
 30
0.0
 11
193.848091
 21
374.158139
 31
0.0
  0
MTEXT
  5
6BF
100
AcDbEntity
  8
SUNPOU
100
AcDbMText
 10
167.34809
 20
377.783139
 30
0.0
 40
6.0
 41
0.0
 71
     5
 72
     5
  1
\A1;53
 73
     1
 44
1.0
1001
ACAD
1000
MTEXTBEGIN
1070
    73
1070
     1
1070
    44
1040
1.0
1070
    74
1070
     0
1000
MTEXTEND
  0
LINE
  5
6C3
100
AcDbEntity
  8
SUNPOU
100
AcDbLine
 10
140.223091
 20
279.490947
 30
0.0
 11
109.598189
 21
279.490947
 31
0.0
  0
LINE
  5
6C4
100
AcDbEntity
  8
SUNPOU
100
AcDbLine
 10
140.223091
 20
132.490947
 30
0.0
 11
109.598189
 21
132.490947
 31
0.0
  0
LINE
  5
6C5
100
AcDbEntity
  8
SUNPOU
100
AcDbLine
 10
110.848189
 20
279.490947
 30
0.0
 11
110.848189
 21
132.490947
 31
0.0
  0
MTEXT
  5
6C6
100
AcDbEntity
  8
SUNPOU
100
AcDbMText
 10
107.223189
 20
205.990947
 30
0.0
 40
6.0
 41
0.0
 71
     5
 72
     5
  1
147
 11
0.0
 21
1.0
 31
0.0
 73
     1
 44
1.0
1001
ACAD
1000
MTEXTBEGIN
1070
    73
1070
     1
1070
    44
1040
1.0
1070
    74
1070
     0
1000
MTEXTEND
  0
LINE
  5
6CA
100
AcDbEntity
  8
SUNPOU
100
AcDbLine
 10
148.223091
 20
321.490948
 30
0.0
 11
124.598189
 21
321.490948
 31
0.0
  0
LINE
  5
6CB
100
AcDbEntity
  8
SUNPOU
100
AcDbLine
 10
148.223091
 20
237.490947
 30
0.0
 11
124.598189
 21
237.490947
 31
0.0
  0
LINE
  5
6CC
100
AcDbEntity
  8
SUNPOU
100
AcDbLine
 10
125.848189
 20
321.490948
 30
0.0
 11
125.848189
 21
237.490947
 31
0.0
  0
MTEXT
  5
6CD
100
AcDbEntity
  8
SUNPOU
100
AcDbMText
 10
122.223189
 20
279.490948
 30
0.0
 40
6.0
 41
0.0
 71
     5
 72
     5
  1
\A1;84
 11
0.0
 21
1.0
 31
0.0
 73
     1
 44
1.0
1001
ACAD
1000
MTEXTBEGIN
1070
    73
1070
     1
1070
    44
1040
1.0
1070
    74
1070
     0
1000
MTEXTEND
  0
LINE
  5
6D1
100
AcDbEntity
  8
SUNPOU
100
AcDbLine
 10
148.223091
 20
237.490947
 30
0.0
 11
124.598189
 21
237.490947
 31
0.0
  0
LINE
  5
6D2
100
AcDbEntity
  8
SUNPOU
100
AcDbLine
 10
148.223091
 20
174.490948
 30
0.0
 11
124.598189
 21
174.490948
 31
0.0
  0
LINE
  5
6D3
100
AcDbEntity
  8
SUNPOU
100
AcDbLine
 10
125.848189
 20
237.490947
 30
0.0
 11
125.848189
 21
174.490948
 31
0.0
  0
MTEXT
  5
6D4
100
AcDbEntity
  8
SUNPOU
100
AcDbMText
 10
122.223189
 20
205.990948
 30
0.0
 40
6.0
 41
0.0
 71
     5
 72
     5
  1
63
 11
0.0
 21
1.0
 31
0.0
 73
     1
 44
1.0
1001
ACAD
1000
MTEXTBEGIN
1070
    73
1070
     1
1070
    44
1040
1.0
1070
    74
1070
     0
1000
MTEXTEND
  0
LINE
  5
836
100
AcDbEntity
  8
STRINGA
100
AcDbLine
 10
160.848091
 20
186.490947
 30
0.0
 11
160.848091
 21
162.490947
 31
0.0
  0
LINE
  5
837
100
AcDbEntity
  8
STRINGA
100
AcDbLine
 10
141.448091
 20
164.247923
 30
0.0
 11
141.448091
 21
143.991026
 31
0.0
  0
ARC
  5
838
100
AcDbEntity
  8
STRINGA
100
AcDbCircle
 10
150.948091
 20
164.247923
 30
0.0
 40
9.5
100
AcDbArc
 50
90.0
 51
180.0
  0
LINE
  5
839
100
AcDbEntity
  8
STRINGA
100
AcDbLine
 10
150.948091
 20
173.747923
 30
0.0
 11
150.948091
 21
162.490947
 31
0.0
  0
ARC
  5
83A
100
AcDbEntity
  8
STRINGA
100
AcDbCircle
 10
152.948091
 20
162.490947
 30
0.0
 40
2.0
100
AcDbArc
 50
180.0
 51
270.0
  0
LINE
  5
83B
100
AcDbEntity
  8
STRINGA
100
AcDbLine
 10
160.848091
 20
102.490947
 30
0.0
 11
160.848091
 21
78.490947
 31
0.0
  0
ARC
  5
83C
100
AcDbEntity
  8
STRINGA
100
AcDbCircle
 10
150.948091
 20
100.73397
 30
0.0
 40
9.5
100
AcDbArc
 50
180.0
 51
270.0
  0
LINE
  5
83D
100
AcDbEntity
  8
STRINGA
100
AcDbLine
 10
150.948091
 20
102.490947
 30
0.0
 11
150.948091
 21
91.23397
 31
0.0
  0
ARC
  5
83E
100
AcDbEntity
  8
STRINGA
100
AcDbCircle
 10
152.948091
 20
102.490947
 30
0.0
 40
2.0
100
AcDbArc
 50
90.0
 51
180.0
  0
LINE
  5
83F
100
AcDbEntity
  8
STRINGA
100
AcDbLine
 10
141.448091
 20
120.990947
 30
0.0
 11
141.448091
 21
100.73397
 31
0.0
  0
ARC
  5
840
100
AcDbEntity
  8
STRINGA
100
AcDbCircle
 10
142.448091
 20
143.990947
 30
0.0
 40
1.0
100
AcDbArc
 50
179.995475
 51
270.0
  0
LINE
  5
841
100
AcDbEntity
  8
STRINGA
100
AcDbLine
 10
142.448091
 20
142.990947
 30
0.0
 11
144.648091
 21
142.990947
 31
0.0
  0
LINE
  5
842
100
AcDbEntity
  8
STRINGA
100
AcDbLine
 10
145.648091
 20
147.090947
 30
0.0
 11
145.648091
 21
143.990947
 31
0.0
  0
ARC
  5
843
100
AcDbEntity
  8
STRINGA
100
AcDbCircle
 10
144.648091
 20
143.990947
 30
0.0
 40
1.0
100
AcDbArc
 50
270.0
 51
360.0
  0
ARC
  5
844
100
AcDbEntity
  8
STRINGA
100
AcDbCircle
 10
147.048091
 20
147.090947
 30
0.0
 40
1.4
100
AcDbArc
 50
0.0
 51
180.0
  0
LINE
  5
845
100
AcDbEntity
  8
STRINGA
100
AcDbLine
 10
148.448091
 20
147.090947
 30
0.0
 11
148.448091
 21
137.990947
 31
0.0
  0
ARC
  5
846
100
AcDbEntity
  8
STRINGA
100
AcDbCircle
 10
147.448091
 20
137.990947
 30
0.0
 40
1.0
100
AcDbArc
 50
270.0
 51
360.0
  0
LINE
  5
847
100
AcDbEntity
  8
STRINGA
100
AcDbLine
 10
146.448091
 20
136.990947
 30
0.0
 11
147.448091
 21
136.990947
 31
0.0
  0
ARC
  5
848
100
AcDbEntity
  8
STRINGA
100
AcDbCircle
 10
146.448091
 20
135.990947
 30
0.0
 40
1.0
100
AcDbArc
 50
90.0
 51
180.0
  0
LINE
  5
849
100
AcDbEntity
  8
STRINGA
100
AcDbLine
 10
145.448091
 20
135.990947
 30
0.0
 11
145.448091
 21
128.990947
 31
0.0
  0
ARC
  5
84A
100
AcDbEntity
  8
STRINGA
100
AcDbCircle
 10
146.448091
 20
128.990947
 30
0.0
 40
1.0
100
AcDbArc
 50
180.0
 51
270.0
  0
LINE
  5
84B
100
AcDbEntity
  8
STRINGA
100
AcDbLine
 10
146.448091
 20
127.990947
 30
0.0
 11
147.448091
 21
127.990947
 31
0.0
  0
LINE
  5
84C
100
AcDbEntity
  8
STRINGA
100
AcDbLine
 10
148.448091
 20
126.990947
 30
0.0
 11
148.448091
 21
117.890947
 31
0.0
  0
ARC
  5
84D
100
AcDbEntity
  8
STRINGA
100
AcDbCircle
 10
147.448091
 20
126.990947
 30
0.0
 40
1.0
100
AcDbArc
 50
0.0
 51
90.0
  0
ARC
  5
84E
100
AcDbEntity
  8
STRINGA
100
AcDbCircle
 10
142.448091
 20
120.990947
 30
0.0
 40
1.0
100
AcDbArc
 50
90.0
 51
180.0
  0
LINE
  5
84F
100
AcDbEntity
  8
STRINGA
100
AcDbLine
 10
145.648091
 20
120.990947
 30
0.0
 11
145.648091
 21
117.890947
 31
0.0
  0
ARC
  5
850
100
AcDbEntity
  8
STRINGA
100
AcDbCircle
 10
144.648091
 20
120.990947
 30
0.0
 40
1.0
100
AcDbArc
 50
0.0
 51
90.0
  0
ARC
  5
851
100
AcDbEntity
  8
STRINGA
100
AcDbCircle
 10
147.048091
 20
117.890947
 30
0.0
 40
1.4
100
AcDbArc
 50
180.0
 51
360.0
  0
LINE
  5
852
100
AcDbEntity
  8
STRINGA
100
AcDbLine
 10
142.448091
 20
121.990947
 30
0.0
 11
144.648091
 21
121.990947
 31
0.0
  0
LINE
  5
853
100
AcDbEntity
  8
STRINGA
100
AcDbLine
 10
160.848091
 20
78.490947
 30
0.0
 11
161.148091
 21
78.490947
 31
0.0
  0
LINE
  5
854
100
AcDbEntity
  8
STRINGA
100
AcDbLine
 10
152.948091
 20
160.490947
 30
0.0
 11
158.848091
 21
160.490947
 31
0.0
  0
ARC
  5
855
100
AcDbEntity
  8
STRINGA
100
AcDbCircle
 10
158.848091
 20
162.490947
 30
0.0
 40
2.0
100
AcDbArc
 50
270.0
 51
360.0
  0
LINE
  5
856
100
AcDbEntity
  8
STRINGA
100
AcDbLine
 10
152.948091
 20
104.490947
 30
0.0
 11
158.848091
 21
104.490947
 31
0.0
  0
ARC
  5
857
100
AcDbEntity
  8
STRINGA
100
AcDbCircle
 10
158.848091
 20
102.490947
 30
0.0
 40
2.0
100
AcDbArc
 50
0.0
 51
90.0
  0
ARC
  5
858
100
AcDbEntity
  8
PANEL
100
AcDbCircle
 10
149.448091
 20
165.890947
 30
0.0
 40
8.6
100
AcDbArc
 50
60.0
 51
180.0
  0
LINE
  5
859
100
AcDbEntity
  8
PANEL
100
AcDbLine
 10
140.848091
 20
165.890947
 30
0.0
 11
140.848091
 21
99.090947
 31
0.0
  0
ARC
  5
85A
100
AcDbEntity
  8
PANEL
100
AcDbCircle
 10
149.448091
 20
99.090947
 30
0.0
 40
8.6
100
AcDbArc
 50
180.0
 51
300.0
  0
LINE
  5
85B
100
AcDbEntity
  8
PANEL
100
AcDbLine
 10
153.748091
 20
91.643128
 30
0.0
 11
156.848091
 21
93.432914
 31
0.0
  0
LINE
  5
85C
100
AcDbEntity
  8
PANEL
100
AcDbLine
 10
156.848091
 20
93.432914
 30
0.0
 11
156.548091
 21
93.952529
 31
0.0
  0
LINE
  5
85D
100
AcDbEntity
  8
PANEL
100
AcDbLine
 10
156.548091
 20
93.952529
 30
0.0
 11
153.448091
 21
92.162743
 31
0.0
  0
ARC
  5
85E
100
AcDbEntity
  8
PANEL
100
AcDbCircle
 10
149.448091
 20
99.090947
 30
0.0
 40
8.0
100
AcDbArc
 50
180.0
 51
300.0
  0
LINE
  5
85F
100
AcDbEntity
  8
PANEL
100
AcDbLine
 10
141.448091
 20
99.090947
 30
0.0
 11
141.448091
 21
165.890947
 31
0.0
  0
ARC
  5
860
100
AcDbEntity
  8
PANEL
100
AcDbCircle
 10
149.448091
 20
165.890947
 30
0.0
 40
8.0
100
AcDbArc
 50
60.0
 51
180.0
  0
LINE
  5
861
100
AcDbEntity
  8
PANEL
100
AcDbLine
 10
153.448091
 20
172.81915
 30
0.0
 11
156.548091
 21
171.029364
 31
0.0
  0
LINE
  5
862
100
AcDbEntity
  8
PANEL
100
AcDbLine
 10
156.548091
 20
171.029364
 30
0.0
 11
156.848091
 21
171.548979
 31
0.0
  0
LINE
  5
863
100
AcDbEntity
  8
PANEL
100
AcDbLine
 10
156.848091
 20
171.548979
 30
0.0
 11
153.748091
 21
173.338765
 31
0.0
  0
LINE
  5
864
100
AcDbEntity
  8
STRINGA
100
AcDbLine
 10
150.948091
 20
173.747923
 30
0.0
 11
150.948091
 21
91.23397
 31
0.0
  0
LINE
  5
865
100
AcDbEntity
  8
STRINGA
100
AcDbLine
 10
149.448091
 20
173.628755
 30
0.0
 11
149.448091
 21
91.353139
 31
0.0
  0
LINE
  5
866
100
AcDbEntity
  8
STRINGA
100
AcDbLine
 10
160.848091
 20
186.490947
 30
0.0
 11
161.148091
 21
186.490947
 31
0.0
  0
LINE
  5
867
100
AcDbEntity
  8
STRINGA
100
AcDbLine
 10
161.148091
 20
225.490947
 30
0.0
 11
161.148091
 21
186.490947
 31
0.0
  0
LINE
  5
868
100
AcDbEntity
  8
STRINGA
100
AcDbLine
 10
160.848091
 20
225.490947
 30
0.0
 11
161.148091
 21
225.490947
 31
0.0
  0
LINE
  5
904
100
AcDbEntity
  8
STRINGA
100
AcDbLine
 10
160.848091
 20
333.490947
 30
0.0
 11
160.848091
 21
309.490947
 31
0.0
  0
LINE
  5
905
100
AcDbEntity
  8
STRINGA
100
AcDbLine
 10
141.448091
 20
311.247923
 30
0.0
 11
141.448091
 21
290.991026
 31
0.0
  0
ARC
  5
906
100
AcDbEntity
  8
STRINGA
100
AcDbCircle
 10
150.948091
 20
311.247923
 30
0.0
 40
9.5
100
AcDbArc
 50
90.0
 51
180.0
  0
LINE
  5
907
100
AcDbEntity
  8
STRINGA
100
AcDbLine
 10
150.948091
 20
320.747923
 30
0.0
 11
150.948091
 21
309.490947
 31
0.0
  0
ARC
  5
908
100
AcDbEntity
  8
STRINGA
100
AcDbCircle
 10
152.948091
 20
309.490947
 30
0.0
 40
2.0
100
AcDbArc
 50
180.0
 51
270.0
  0
LINE
  5
909
100
AcDbEntity
  8
STRINGA
100
AcDbLine
 10
160.848091
 20
249.490947
 30
0.0
 11
160.848091
 21
225.490947
 31
0.0
  0
ARC
  5
90A
100
AcDbEntity
  8
STRINGA
100
AcDbCircle
 10
150.948091
 20
247.73397
 30
0.0
 40
9.5
100
AcDbArc
 50
180.0
 51
270.0
  0
LINE
  5
90B
100
AcDbEntity
  8
STRINGA
100
AcDbLine
 10
150.948091
 20
249.490947
 30
0.0
 11
150.948091
 21
238.23397
 31
0.0
  0
ARC
  5
90C
100
AcDbEntity
  8
STRINGA
100
AcDbCircle
 10
152.948091
 20
249.490947
 30
0.0
 40
2.0
100
AcDbArc
 50
90.0
 51
180.0
  0
LINE
  5
90D
100
AcDbEntity
  8
STRINGA
100
AcDbLine
 10
141.448091
 20
267.990947
 30
0.0
 11
141.448091
 21
247.73397
 31
0.0
  0
ARC
  5
90E
100
AcDbEntity
  8
STRINGA
100
AcDbCircle
 10
142.448091
 20
290.990947
 30
0.0
 40
1.0
100
AcDbArc
 50
179.995475
 51
270.0
  0
LINE
  5
90F
100
AcDbEntity
  8
STRINGA
100
AcDbLine
 10
142.448091
 20
289.990947
 30
0.0
 11
144.648091
 21
289.990947
 31
0.0
  0
LINE
  5
910
100
AcDbEntity
  8
STRINGA
100
AcDbLine
 10
145.648091
 20
294.090947
 30
0.0
 11
145.648091
 21
290.990947
 31
0.0
  0
ARC
  5
911
100
AcDbEntity
  8
STRINGA
100
AcDbCircle
 10
144.648091
 20
290.990947
 30
0.0
 40
1.0
100
AcDbArc
 50
270.0
 51
360.0
  0
ARC
  5
912
100
AcDbEntity
  8
STRINGA
100
AcDbCircle
 10
147.048091
 20
294.090947
 30
0.0
 40
1.4
100
AcDbArc
 50
0.0
 51
180.0
  0
LINE
  5
913
100
AcDbEntity
  8
STRINGA
100
AcDbLine
 10
148.448091
 20
294.090947
 30
0.0
 11
148.448091
 21
284.990947
 31
0.0
  0
ARC
  5
914
100
AcDbEntity
  8
STRINGA
100
AcDbCircle
 10
147.448091
 20
284.990947
 30
0.0
 40
1.0
100
AcDbArc
 50
270.0
 51
360.0
  0
LINE
  5
915
100
AcDbEntity
  8
STRINGA
100
AcDbLine
 10
146.448091
 20
283.990947
 30
0.0
 11
147.448091
 21
283.990947
 31
0.0
  0
ARC
  5
916
100
AcDbEntity
  8
STRINGA
100
AcDbCircle
 10
146.448091
 20
282.990947
 30
0.0
 40
1.0
100
AcDbArc
 50
90.0
 51
180.0
  0
LINE
  5
917
100
AcDbEntity
  8
STRINGA
100
AcDbLine
 10
145.448091
 20
282.990947
 30
0.0
 11
145.448091
 21
275.990947
 31
0.0
  0
ARC
  5
918
100
AcDbEntity
  8
STRINGA
100
AcDbCircle
 10
146.448091
 20
275.990947
 30
0.0
 40
1.0
100
AcDbArc
 50
180.0
 51
270.0
  0
LINE
  5
919
100
AcDbEntity
  8
STRINGA
100
AcDbLine
 10
146.448091
 20
274.990947
 30
0.0
 11
147.448091
 21
274.990947
 31
0.0
  0
LINE
  5
91A
100
AcDbEntity
  8
STRINGA
100
AcDbLine
 10
148.448091
 20
273.990947
 30
0.0
 11
148.448091
 21
264.890947
 31
0.0
  0
ARC
  5
91B
100
AcDbEntity
  8
STRINGA
100
AcDbCircle
 10
147.448091
 20
273.990947
 30
0.0
 40
1.0
100
AcDbArc
 50
0.0
 51
90.0
  0
ARC
  5
91C
100
AcDbEntity
  8
STRINGA
100
AcDbCircle
 10
142.448091
 20
267.990947
 30
0.0
 40
1.0
100
AcDbArc
 50
90.0
 51
180.0
  0
LINE
  5
91D
100
AcDbEntity
  8
STRINGA
100
AcDbLine
 10
145.648091
 20
267.990947
 30
0.0
 11
145.648091
 21
264.890947
 31
0.0
  0
ARC
  5
91E
100
AcDbEntity
  8
STRINGA
100
AcDbCircle
 10
144.648091
 20
267.990947
 30
0.0
 40
1.0
100
AcDbArc
 50
0.0
 51
90.0
  0
ARC
  5
91F
100
AcDbEntity
  8
STRINGA
100
AcDbCircle
 10
147.048091
 20
264.890947
 30
0.0
 40
1.4
100
AcDbArc
 50
180.0
 51
360.0
  0
LINE
  5
920
100
AcDbEntity
  8
STRINGA
100
AcDbLine
 10
142.448091
 20
268.990947
 30
0.0
 11
144.648091
 21
268.990947
 31
0.0
  0
LINE
  5
921
100
AcDbEntity
  8
STRINGA
100
AcDbLine
 10
152.948091
 20
307.490947
 30
0.0
 11
158.848091
 21
307.490947
 31
0.0
  0
ARC
  5
922
100
AcDbEntity
  8
STRINGA
100
AcDbCircle
 10
158.848091
 20
309.490947
 30
0.0
 40
2.0
100
AcDbArc
 50
270.0
 51
360.0
  0
LINE
  5
923
100
AcDbEntity
  8
STRINGA
100
AcDbLine
 10
152.948091
 20
251.490947
 30
0.0
 11
158.848091
 21
251.490947
 31
0.0
  0
ARC
  5
924
100
AcDbEntity
  8
STRINGA
100
AcDbCircle
 10
158.848091
 20
249.490947
 30
0.0
 40
2.0
100
AcDbArc
 50
0.0
 51
90.0
  0
ARC
  5
925
100
AcDbEntity
  8
PANEL
100
AcDbCircle
 10
149.448091
 20
312.890947
 30
0.0
 40
8.6
100
AcDbArc
 50
60.0
 51
180.0
  0
LINE
  5
926
100
AcDbEntity
  8
PANEL
100
AcDbLine
 10
140.848091
 20
312.890947
 30
0.0
 11
140.848091
 21
246.090947
 31
0.0
  0
ARC
  5
927
100
AcDbEntity
  8
PANEL
100
AcDbCircle
 10
149.448091
 20
246.090947
 30
0.0
 40
8.6
100
AcDbArc
 50
180.0
 51
300.0
  0
LINE
  5
928
100
AcDbEntity
  8
PANEL
100
AcDbLine
 10
153.748091
 20
238.643128
 30
0.0
 11
156.848091
 21
240.432914
 31
0.0
  0
LINE
  5
929
100
AcDbEntity
  8
PANEL
100
AcDbLine
 10
156.848091
 20
240.432914
 30
0.0
 11
156.548091
 21
240.952529
 31
0.0
  0
LINE
  5
92A
100
AcDbEntity
  8
PANEL
100
AcDbLine
 10
156.548091
 20
240.952529
 30
0.0
 11
153.448091
 21
239.162743
 31
0.0
  0
ARC
  5
92B
100
AcDbEntity
  8
PANEL
100
AcDbCircle
 10
149.448091
 20
246.090947
 30
0.0
 40
8.0
100
AcDbArc
 50
180.0
 51
300.0
  0
LINE
  5
92C
100
AcDbEntity
  8
PANEL
100
AcDbLine
 10
141.448091
 20
246.090947
 30
0.0
 11
141.448091
 21
312.890947
 31
0.0
  0
ARC
  5
92D
100
AcDbEntity
  8
PANEL
100
AcDbCircle
 10
149.448091
 20
312.890947
 30
0.0
 40
8.0
100
AcDbArc
 50
60.0
 51
180.0
  0
LINE
  5
92E
100
AcDbEntity
  8
PANEL
100
AcDbLine
 10
153.448091
 20
319.81915
 30
0.0
 11
156.548091
 21
318.029364
 31
0.0
  0
LINE
  5
92F
100
AcDbEntity
  8
PANEL
100
AcDbLine
 10
156.548091
 20
318.029364
 30
0.0
 11
156.848091
 21
318.548979
 31
0.0
  0
LINE
  5
930
100
AcDbEntity
  8
PANEL
100
AcDbLine
 10
156.848091
 20
318.548979
 30
0.0
 11
153.748091
 21
320.338765
 31
0.0
  0
LINE
  5
931
100
AcDbEntity
  8
STRINGA
100
AcDbLine
 10
150.948091
 20
320.747923
 30
0.0
 11
150.948091
 21
238.23397
 31
0.0
  0
LINE
  5
932
100
AcDbEntity
  8
STRINGA
100
AcDbLine
 10
149.448091
 20
320.628755
 30
0.0
 11
149.448091
 21
238.353139
 31
0.0
  0
LINE
  5
933
100
AcDbEntity
  8
STRINGA
100
AcDbLine
 10
160.848091
 20
333.490947
 30
0.0
 11
161.148091
 21
333.490947
 31
0.0
  0
LINE
  5
938
100
AcDbEntity
  8
STRINGA
  6
CONTINUOUS
100
AcDbLine
 10
173.848091
 20
352.990947
 30
0.0
 11
173.848091
 21
58.990947
 31
0.0
  0
LINE
  5
945
100
AcDbEntity
  8
STRINGA
100
AcDbLine
 10
161.148091
 20
352.990947
 30
0.0
 11
161.148091
 21
333.490947
 31
0.0
  0
LINE
  5
946
100
AcDbEntity
  8
STRINGA
100
AcDbLine
 10
161.148091
 20
78.490947
 30
0.0
 11
161.148091
 21
58.990947
 31
0.0
  0
ENDSEC
  0
SECTION
  2
OBJECTS
  0
DICTIONARY
  5
C
100
AcDbDictionary
280
     0
281
     1
  3
ACAD_COLOR
350
6F5
  3
ACAD_GROUP
350
D
  3
ACAD_LAYOUT
350
6F8
  3
ACAD_MATERIAL
350
6F4
  3
ACAD_MLINESTYLE
350
E
  3
ACAD_PLOTSETTINGS
350
6F9
  3
ACAD_PLOTSTYLENAME
350
6F2
  3
ACAD_TABLESTYLE
350
6F6
  3
ACDBHEADERROUNDTRIPXREC
350
962
  3
ACDBVARIABLEDICTIONARY
350
5D
  0
DICTIONARY
  5
D
102
{ACAD_REACTORS
330
C
102
}
100
AcDbDictionary
280
     0
281
     1
  0
DICTIONARY
  5
E
102
{ACAD_REACTORS
330
C
102
}
100
AcDbDictionary
280
     0
281
     1
  3
STANDARD
350
13
  0
MLINESTYLE
  5
13
102
{ACAD_REACTORS
330
E
102
}
100
AcDbMlineStyle
  2
STANDARD
 70
     0
  3

 62
     0
 51
90.0
 52
90.0
 71
     2
 49
0.5
 62
   256
  6
ByLayer
 49
-0.5
 62
   256
  6
ByLayer
  0
DICTIONARY
  5
5D
102
{ACAD_REACTORS
330
C
102
}
100
AcDbDictionary
280
     0
281
     1
  3
CTABLESTYLE
350
93A
  3
DIMADEC
350
5E
  3
DIMASSOC
350
969
  3
PROJECTNAME
350
96A
  0
DICTIONARYVAR
  5
5E
102
{ACAD_REACTORS
330
5D
102
}
100
DictionaryVariables
280
     0
  1
0
  0
ACDBDICTIONARYWDFLT
  5
6F2
102
{ACAD_REACTORS
330
C
102
}
100
AcDbDictionary
281
     1
  3
Normal
350
6F3
100
AcDbDictionaryWithDefault
340
6F3
  0
ACDBPLACEHOLDER
  5
6F3
102
{ACAD_REACTORS
330
6F2
102
}
  0
DICTIONARY
  5
6F4
102
{ACAD_REACTORS
330
C
102
}
100
AcDbDictionary
280
     0
281
     1
  0
DICTIONARY
  5
6F5
102
{ACAD_REACTORS
330
C
102
}
100
AcDbDictionary
280
     0
281
     1
  0
DICTIONARY
  5
6F6
102
{ACAD_REACTORS
330
C
102
}
100
AcDbDictionary
280
     0
281
     1
  3
Standard
350
6F7
  0
ACAD_PROXY_OBJECT
  5
6F7
102
{ACAD_REACTORS
330
6F6
102
}
330
6F6
100
AcDbProxyObject
 90
      499
 91
      503
 95
        0
 70
     0
 93
     1841
310
4214DD185B99185C9928000000000000F83F0000000000003E0FC00000000000004901028000000C1008070000C3001FDFF8000000C1003FBFF000000182007F7FE00000030400FEFFC00000060801FDFF8000000C1003FBFF000000182000000000000000C2020B0000001820100E000186003FBFF000000182007F7FE000
310
00030400FEFFC00000060801FDFF8000000C1003FBFF000000182007F7FE0000003040000000000000012404160000003040201C00030C007F7FE00000030400FEFFC00000060801FDFF8000000C1003FBFF000000182007F7FE00000030400FEFFC000000608000
340
10
340
10
340
10
 94
        0
  0
DICTIONARY
  5
6F8
102
{ACAD_REACTORS
330
C
102
}
100
AcDbDictionary
280
     0
281
     1
  3
Model
350
6FA
  3
レイアウト1
350
6FB
  0
DICTIONARY
  5
6F9
102
{ACAD_REACTORS
330
C
102
}
100
AcDbDictionary
280
     0
281
     1
  0
LAYOUT
  5
6FA
102
{ACAD_XDICTIONARY
360
965
102
}
102
{ACAD_REACTORS
330
6F8
102
}
100
AcDbPlotSettings
  1

  2
HP DesignJet 430 (D/A1) by HP
  4

  6

 40
0.0
 41
0.0
 42
0.0
 43
0.0
 44
0.0
 45
0.0
 46
0.0
 47
0.0
 48
0.0
 49
0.0
140
0.0
141
0.0
142
1.0
143
1.0
 70
  1712
 72
     0
 73
     0
 74
     0
  7

 75
     0
147
1.0
148
0.0
149
0.0
100
AcDbLayout
  1
Model
 70
     1
 71
     0
 10
0.0
 20
0.0
 11
12.0
 21
9.0
 12
0.0
 22
0.0
 32
0.0
 14
0.0
 24
0.0
 34
0.0
 15
0.0
 25
0.0
 35
0.0
146
0.0
 13
0.0
 23
0.0
 33
0.0
 16
1.0
 26
0.0
 36
0.0
 17
0.0
 27
1.0
 37
0.0
 76
     0
330
1A
331
0
345
0
346
0
  0
LAYOUT
  5
6FB
102
{ACAD_XDICTIONARY
360
967
102
}
102
{ACAD_REACTORS
330
6F8
102
}
100
AcDbPlotSettings
  1

  2
HP DesignJet 430 (D/A1) by HP
  4

  6

 40
0.0
 41
0.0
 42
0.0
 43
0.0
 44
0.0
 45
0.0
 46
0.0
 47
0.0
 48
0.0
 49
0.0
140
0.0
141
0.0
142
1.0
143
1.0
 70
   688
 72
     0
 73
     0
 74
     5
  7

 75
    16
147
1.0
148
0.0
149
0.0
100
AcDbLayout
  1
レイアウト1
 70
     1
 71
     1
 10
0.0
 20
0.0
 11
420.0
 21
297.0
 12
0.0
 22
0.0
 32
0.0
 14
1.000000E+20
 24
1.000000E+20
 34
1.000000E+20
 15
-1.000000E+20
 25
-1.000000E+20
 35
-1.000000E+20
146
0.0
 13
0.0
 23
0.0
 33
0.0
 16
1.0
 26
0.0
 36
0.0
 17
0.0
 27
1.0
 37
0.0
 76
     0
330
17
331
22
345
0
346
0
  0
DICTIONARY
  5
708
100
AcDbDictionary
280
     1
281
     1
  3
ACAD_LAYERSTATES
350
709
  0
DICTIONARY
  5
709
102
{ACAD_REACTORS
330
708
102
}
100
AcDbDictionary
280
     0
281
     1
  0
DICTIONARY
  5
8CF
100
AcDbDictionary
280
     1
281
     1
  3
ACAD_SORTENTS
350
8D0
  0
SORTENTSTABLE
  5
8D0
102
{ACAD_REACTORS
330
8CF
102
}
100
AcDbSortentsTable
330
1A
331
920
  5
921
331
853
  5
854
331
0
  5
832
331
0
  5
7BE
331
0
  5
7E0
331
6BE
  5
6BF
331
0
  5
8EE
331
0
  5
8D4
331
90F
  5
910
331
0
  5
7FF
331
931
  5
932
331
842
  5
843
331
864
  5
865
331
0
  5
7AD
331
0
  5
821
331
0
  5
7CF
331
0
  5
8FF
331
0
  5
810
331
534
  5
534
331
523
  5
523
331
851
  5
852
331
0
  5
7BC
331
0
  5
7DE
331
6BC
  5
6BD
331
0
  5
8EC
331
90D
  5
90E
331
0
  5
7FD
331
92F
  5
930
331
840
  5
841
331
862
  5
863
331
0
  5
7AB
331
0
  5
81F
331
0
  5
7EF
331
6CD
  5
6D1
331
0
  5
7CD
331
0
  5
8FD
331
91E
  5
91F
331
0
  5
80E
331
0
  5
830
331
532
  5
532
331
521
  5
521
331
0
  5
7DC
331
0
  5
7BA
331
0
  5
8EA
331
90B
  5
90C
331
0
  5
7FB
331
92D
  5
92E
331
83E
  5
83F
331
860
  5
861
331
0
  5
7A9
331
0
  5
81D
331
0
  5
7CB
331
6A9
  5
6AA
331
0
  5
7ED
331
6CB
  5
6CC
331
51F
  5
51F
331
0
  5
8FB
331
91C
  5
91D
331
0
  5
80C
331
84F
  5
850
331
0
  5
82E
331
530
  5
530
331
256
  5
256
331
0
  5
7DA
331
6B8
  5
6BC
331
0
  5
8E8
331
909
  5
90A
331
0
  5
7F9
331
92B
  5
92C
331
83C
  5
83D
331
85E
  5
85F
331
0
  5
7A7
331
0
  5
81B
331
0
  5
7EB
331
0
  5
7C9
331
6A7
  5
6A8
331
51D
  5
51D
331
0
  5
8F9
331
0
  5
8DF
331
91A
  5
91B
331
0
  5
80A
331
84D
  5
84E
331
0
  5
7B8
331
0
  5
82C
331
52E
  5
52E
331
516
  5
516
331
1C3
  5
1C3
331
0
  5
8E6
331
907
  5
908
331
0
  5
7F7
331
929
  5
92A
331
83A
  5
83B
331
85C
  5
85D
331
0
  5
7A5
331
0
  5
819
331
0
  5
7E9
331
0
  5
7C7
331
51B
  5
51B
331
0
  5
8F7
331
0
  5
8DD
331
0
  5
808
331
918
  5
919
331
84B
  5
84C
331
0
  5
82A
331
0
  5
7B6
331
0
  5
7D8
331
6B6
  5
6B7
331
620
  5
620
331
52C
  5
52C
331
252
  5
252
331
0
  5
8E4
331
905
  5
906
331
0
  5
7F5
331
927
  5
928
331
838
  5
839
331
85A
  5
85B
331
0
  5
7A3
331
0
  5
817
331
0
  5
7E7
331
6C5
  5
6C6
331
0
  5
7C5
331
53B
  5
53B
331
0
  5
8F5
331
0
  5
8DB
331
916
  5
917
331
0
  5
806
331
849
  5
84A
331
938
  5
6A7
331
0
  5
7D6
331
0
  5
7B4
331
0
  5
828
331
52A
  5
52A
331
519
  5
519
331
0
  5
8E2
331
0
  5
904
331
0
  5
7F3
331
925
  5
926
331
858
  5
859
331
836
  5
837
331
0
  5
7C3
331
0
  5
815
331
0
  5
7E5
331
6C3
  5
6C4
331
539
  5
539
331
0
  5
8F3
331
0
  5
8D9
331
914
  5
915
331
0
  5
804
331
847
  5
848
331
0
  5
7B2
331
0
  5
826
331
0
  5
7D4
331
6B2
  5
6B5
331
6D4
  5
7A2
331
528
  5
528
331
0
  5
902
331
0
  5
7F1
331
923
  5
924
331
0
  5
813
331
856
  5
857
331
0
  5
7E3
331
0
  5
7C1
331
0
  5
835
331
0
  5
8F1
331
0
  5
8D7
331
912
  5
913
331
0
  5
802
331
0
  5
938
331
845
  5
846
331
867
  5
868
331
0
  5
7B0
331
0
  5
824
331
0
  5
7D2
331
6B0
  5
6B1
331
6D2
  5
6D3
331
537
  5
537
331
526
  5
526
331
921
  5
922
331
0
  5
811
331
854
  5
855
331
0
  5
833
331
0
  5
7BF
331
0
  5
7E1
331
6BF
  5
6C3
331
0
  5
8EF
331
0
  5
8D5
331
910
  5
911
331
0
  5
800
331
932
  5
933
331
843
  5
844
331
865
  5
866
331
0
  5
7AE
331
0
  5
822
331
0
  5
7D0
331
6AE
  5
6AF
331
0
  5
900
331
535
  5
535
331
524
  5
524
331
4CC
  5
4CC
331
852
  5
853
331
0
  5
831
331
0
  5
7BD
331
0
  5
7DF
331
6BD
  5
6BE
331
0
  5
8ED
331
90E
  5
90F
331
0
  5
7FE
331
930
  5
931
331
841
  5
842
331
863
  5
864
331
0
  5
7AC
331
0
  5
820
331
0
  5
7F0
331
0
  5
7CE
331
0
  5
8FE
331
91F
  5
920
331
0
  5
80F
331
533
  5
533
331
522
  5
522
331
850
  5
851
331
0
  5
7DD
331
0
  5
7BB
331
0
  5
8EB
331
90C
  5
90D
331
0
  5
7FC
331
92E
  5
92F
331
83F
  5
840
331
861
  5
862
331
0
  5
7AA
331
0
  5
81E
331
0
  5
7CC
331
6AA
  5
6AE
331
0
  5
7EE
331
6CC
  5
6CD
331
520
  5
520
331
0
  5
8FC
331
91D
  5
91E
331
0
  5
80D
331
0
  5
82F
331
531
  5
531
331
257
  5
257
331
868
  5
8D3
331
0
  5
7B9
331
0
  5
7DB
331
0
  5
8E9
331
90A
  5
90B
331
0
  5
7FA
331
92C
  5
92D
331
83D
  5
83E
331
85F
  5
860
331
0
  5
7A8
331
0
  5
81C
331
0
  5
7CA
331
6A8
  5
6A9
331
0
  5
7EC
331
6CA
  5
6CB
331
51E
  5
51E
331
0
  5
8FA
331
0
  5
8E0
331
91B
  5
91C
331
0
  5
80B
331
84E
  5
84F
331
0
  5
82D
331
52F
  5
52F
331
517
  5
517
331
255
  5
255
331
1C4
  5
1C4
331
0
  5
7D9
331
0
  5
8E7
331
908
  5
909
331
0
  5
7F8
331
92A
  5
92B
331
83B
  5
83C
331
85D
  5
85E
331
0
  5
7A6
331
0
  5
81A
331
0
  5
7EA
331
0
  5
7C8
331
51C
  5
51C
331
0
  5
8F8
331
0
  5
8DE
331
919
  5
91A
331
0
  5
809
331
84C
  5
84D
331
0
  5
7B7
331
0
  5
82B
331
6B7
  5
6B8
331
52D
  5
52D
331
515
  5
515
331
0
  5
8E5
331
906
  5
907
331
0
  5
7F6
331
928
  5
929
331
839
  5
83A
331
85B
  5
85C
331
0
  5
7A4
331
0
  5
818
331
0
  5
7E8
331
6C6
  5
6CA
331
0
  5
7C6
331
0
  5
8F6
331
0
  5
8DC
331
917
  5
918
331
0
  5
807
331
84A
  5
84B
331
0
  5
7B5
331
0
  5
829
331
0
  5
7D7
331
6B5
  5
6B6
331
52B
  5
52B
331
51A
  5
51A
331
0
  5
8E3
331
904
  5
905
331
0
  5
7F4
331
926
  5
927
331
859
  5
85A
331
837
  5
838
331
0
  5
7C4
331
0
  5
816
331
0
  5
7E6
331
6C4
  5
6C5
331
53A
  5
53A
331
0
  5
8F4
331
0
  5
8DA
331
915
  5
916
331
0
  5
805
331
848
  5
849
331
0
  5
7D5
331
0
  5
7B3
331
0
  5
827
331
529
  5
529
331
518
  5
518
331
0
  5
8E1
331
0
  5
903
331
0
  5
7F2
331
924
  5
925
331
857
  5
858
331
0
  5
836
331
0
  5
7E4
331
0
  5
7C2
331
0
  5
814
331
538
  5
538
331
0
  5
8F2
331
0
  5
8D8
331
913
  5
914
331
0
  5
803
331
846
  5
847
331
0
  5
7B1
331
0
  5
825
331
0
  5
7D3
331
6B1
  5
6B2
331
6D3
  5
6D4
331
527
  5
527
331
0
  5
901
331
922
  5
923
331
0
  5
812
331
855
  5
856
331
0
  5
7E2
331
0
  5
7C0
331
0
  5
834
331
0
  5
8F0
331
0
  5
8D6
331
911
  5
912
331
0
  5
801
331
933
  5
934
331
844
  5
845
331
866
  5
867
331
0
  5
7AF
331
0
  5
823
331
0
  5
7D1
331
6AF
  5
6B0
331
6D1
  5
6D2
331
536
  5
536
331
525
  5
525
331
1CB
  5
1CB
  0
DICTIONARYVAR
  5
93A
102
{ACAD_REACTORS
330
5D
102
}
100
DictionaryVariables
280
     0
  1
STANDARD
  0
DICTIONARY
  5
962
102
{ACAD_REACTORS
330
C
102
}
100
AcDbDictionary
280
     0
281
     1
  0
DICTIONARY
  5
963
100
AcDbDictionary
280
     1
281
     1
  3
ACAD_XREC_ROUNDTRIP
350
964
  0
XRECORD
  5
964
102
{ACAD_REACTORS
330
963
102
}
100
AcDbXrecord
280
     1
102
SHADEPLOT
 70
     0
  0
DICTIONARY
  5
965
100
AcDbDictionary
280
     1
281
     1
  3
ACAD_XREC_ROUNDTRIP
350
966
  0
XRECORD
  5
966
102
{ACAD_REACTORS
330
965
102
}
100
AcDbXrecord
280
     1
102
SHADEPLOT
 70
     0
102
SHADEPLOTRESLEVEL
 70
     2
102
SHADEPLOTCUSTOMDPI
 70
   300
  0
DICTIONARY
  5
967
100
AcDbDictionary
280
     1
281
     1
  3
ACAD_XREC_ROUNDTRIP
350
968
  0
XRECORD
  5
968
102
{ACAD_REACTORS
330
967
102
}
100
AcDbXrecord
280
     1
102
SHADEPLOT
 70
     0
102
SHADEPLOTRESLEVEL
 70
     2
102
SHADEPLOTCUSTOMDPI
 70
   300
  0
DICTIONARYVAR
  5
969
102
{ACAD_REACTORS
330
5D
102
}
100
DictionaryVariables
280
     0
  1
1
  0
DICTIONARYVAR
  5
96A
102
{ACAD_REACTORS
330
5D
102
}
100
DictionaryVariables
280
     0
  1

  0
ENDSEC
  0
EOF
